ISO-10303-21;
HEADER;
FILE_DESCRIPTION (( 'STEP AP214' ),
    '1' );
FILE_NAME ('83768.STEP',
    '2023-07-05T19:24:29',
    ( '' ),
    ( '' ),
    'SwSTEP 2.0',
    'SolidWorks 2023',
    '' );
FILE_SCHEMA (( 'AUTOMOTIVE_DESIGN' ));
ENDSEC;

DATA;
#1 = ADVANCED_BREP_SHAPE_REPRESENTATION ( '83768', ( #246, #2, #78 ), #67 ) ;
#2 = MANIFOLD_SOLID_BREP ( 'Revolve - Tool Body (Straight Shanked)', #339 ) ;
#3 = ADVANCED_FACE ( 'NONE', ( #147 ), #295, .T. ) ;
#4 = PLANE ( 'NONE',  #109 ) ;
#5 = ORIENTED_EDGE ( 'NONE', *, *, #319, .F. ) ;
#6 = FACE_OUTER_BOUND ( 'NONE', #81, .T. ) ;
#7 = ORIENTED_EDGE ( 'NONE', *, *, #136, .F. ) ;
#8 = AXIS2_PLACEMENT_3D ( 'NONE', #230, #63, #312 ) ;
#9 = PRESENTATION_LAYER_ASSIGNMENT (  '', '', ( #228 ) ) ;
#10 = PRESENTATION_STYLE_ASSIGNMENT (( #146 ) ) ;
#11 = DIRECTION ( 'NONE',  ( -1.000000000000000000, 0.000000000000000000, 0.000000000000000000 ) ) ;
#12 =( NAMED_UNIT ( * ) SI_UNIT ( $, .STERADIAN. ) SOLID_ANGLE_UNIT ( ) );
#13 = SURFACE_SIDE_STYLE ('',( #35 ) ) ;
#14 = EDGE_CURVE ( 'NONE', #61, #140, #309, .T. ) ;
#15 = SURFACE_SIDE_STYLE ('',( #94 ) ) ;
#16 = APPLICATION_PROTOCOL_DEFINITION ( 'draft international standard', 'automotive_design', 1998, #25 ) ;
#17 =( GEOMETRIC_REPRESENTATION_CONTEXT ( 3 ) GLOBAL_UNCERTAINTY_ASSIGNED_CONTEXT ( ( #183 ) ) GLOBAL_UNIT_ASSIGNED_CONTEXT ( ( #104, #73, #265 ) ) REPRESENTATION_CONTEXT ( 'NONE', 'WORKASPACE' ) );
#18 = CARTESIAN_POINT ( 'NONE',  ( 0.000000000000000000, 0.000000000000000000, -0.2499999999999999167 ) ) ;
#19 = FILL_AREA_STYLE_COLOUR ( '', #99 ) ;
#20 = SHAPE_DEFINITION_REPRESENTATION ( #283, #1 ) ;
#21 = AXIS2_PLACEMENT_3D ( 'NONE', #343, #214, #155 ) ;
#22 = LINE ( 'NONE', #127, #92 ) ;
#23 = EDGE_CURVE ( 'NONE', #30, #304, #154, .T. ) ;
#24 = DIMENSIONAL_EXPONENTS ( 1.000000000000000000, 0.000000000000000000, 0.000000000000000000, 0.000000000000000000, 0.000000000000000000, 0.000000000000000000, 0.000000000000000000 ) ;
#25 = APPLICATION_CONTEXT ( 'automotive_design' ) ;
#26 = VERTEX_POINT ( 'NONE', #115 ) ;
#27 = DIRECTION ( 'NONE',  ( 9.381338752702745572E-17, 0.6427876096865379196, -0.7660444431189792347 ) ) ;
#28 = ORIENTED_EDGE ( 'NONE', *, *, #68, .T. ) ;
#29 = LENGTH_MEASURE_WITH_UNIT ( LENGTH_MEASURE( 0.02539999999999999897 ), #244 );
#30 = VERTEX_POINT ( 'NONE', #184 ) ;
#31 = CARTESIAN_POINT ( 'NONE',  ( 0.2499999999999999722, 1.000000000000000000, 3.061616997868383018E-17 ) ) ;
#32 = COLOUR_RGB ( '',0.7921568627450980005, 0.8196078431372548767, 0.9333333333333333481 ) ;
#33 = CONICAL_SURFACE ( 'NONE', #143, 46.91943277929978251, 0.8726646259971666542 ) ;
#34 = AXIS2_PLACEMENT_3D ( 'NONE', #96, #207, #43 ) ;
#35 = SURFACE_STYLE_FILL_AREA ( #142 ) ;
#36 = DIRECTION ( 'NONE',  ( -1.245234447608929030E-16, 1.000000000000000000, -0.000000000000000000 ) ) ;
#37 = DIRECTION ( 'NONE',  ( 0.000000000000000000, 0.000000000000000000, -1.000000000000000000 ) ) ;
#38 = FILL_AREA_STYLE_COLOUR ( '', #117 ) ;
#39 = CIRCLE ( 'NONE', #87, 0.2500000000000000000 ) ;
#40 = DIRECTION ( 'NONE',  ( -1.000000000000000000, 0.000000000000000000, 0.000000000000000000 ) ) ;
#41 = CARTESIAN_POINT ( 'NONE',  ( -6.123233995736770966E-17, 3.000000000000000444, 0.000000000000000000 ) ) ;
#42 = EDGE_LOOP ( 'NONE', ( #337, #278, #114, #132 ) ) ;
#43 = DIRECTION ( 'NONE',  ( -1.000000000000000000, 0.000000000000000000, 0.000000000000000000 ) ) ;
#44 =( LENGTH_UNIT ( ) NAMED_UNIT ( * ) SI_UNIT ( $, .METRE. ) );
#45 =( NAMED_UNIT ( * ) SI_UNIT ( $, .STERADIAN. ) SOLID_ANGLE_UNIT ( ) );
#46 = FACE_OUTER_BOUND ( 'NONE', #175, .T. ) ;
#47 = LINE ( 'NONE', #346, #170 ) ;
#48 = DIMENSIONAL_EXPONENTS ( 1.000000000000000000, 0.000000000000000000, 0.000000000000000000, 0.000000000000000000, 0.000000000000000000, 0.000000000000000000, 0.000000000000000000 ) ;
#49 = DIRECTION ( 'NONE',  ( -1.245234447608929030E-16, 1.000000000000000000, -0.000000000000000000 ) ) ;
#50 = AXIS2_PLACEMENT_3D ( 'NONE', #153, #152, #261 ) ;
#51 = CARTESIAN_POINT ( 'NONE',  ( -0.2499999999999999167, 3.000000000000000444, 0.000000000000000000 ) ) ;
#52 =( NAMED_UNIT ( * ) SI_UNIT ( $, .STERADIAN. ) SOLID_ANGLE_UNIT ( ) );
#53 = EDGE_LOOP ( 'NONE', ( #247, #65, #182 ) ) ;
#54 = SURFACE_STYLE_FILL_AREA ( #223 ) ;
#55 = EDGE_CURVE ( 'NONE', #296, #61, #22, .T. ) ;
#56 =( GEOMETRIC_REPRESENTATION_CONTEXT ( 3 ) GLOBAL_UNCERTAINTY_ASSIGNED_CONTEXT ( ( #122 ) ) GLOBAL_UNIT_ASSIGNED_CONTEXT ( ( #200, #258, #120 ) ) REPRESENTATION_CONTEXT ( 'NONE', 'WORKASPACE' ) );
#57 = CARTESIAN_POINT ( 'NONE',  ( 1.878145495644180839E-16, 1.000000000000000000, 0.000000000000000000 ) ) ;
#58 = VECTOR ( 'NONE', #335, 39.37007874015748143 ) ;
#59 = ORIENTED_EDGE ( 'NONE', *, *, #297, .F. ) ;
#60 =( NAMED_UNIT ( * ) PLANE_ANGLE_UNIT ( ) SI_UNIT ( $, .RADIAN. ) );
#61 = VERTEX_POINT ( 'NONE', #79 ) ;
#62 =( LENGTH_UNIT ( ) NAMED_UNIT ( * ) SI_UNIT ( $, .METRE. ) );
#63 = DIRECTION ( 'NONE',  ( -0.000000000000000000, -1.000000000000000000, -0.000000000000000000 ) ) ;
#64 =( LENGTH_UNIT ( ) NAMED_UNIT ( * ) SI_UNIT ( $, .METRE. ) );
#65 = ORIENTED_EDGE ( 'NONE', *, *, #297, .T. ) ;
#66 = DIRECTION ( 'NONE',  ( 0.000000000000000000, 0.000000000000000000, 1.000000000000000000 ) ) ;
#67 =( GEOMETRIC_REPRESENTATION_CONTEXT ( 3 ) GLOBAL_UNCERTAINTY_ASSIGNED_CONTEXT ( ( #174 ) ) GLOBAL_UNIT_ASSIGNED_CONTEXT ( ( #284, #181, #45 ) ) REPRESENTATION_CONTEXT ( 'NONE', 'WORKASPACE' ) );
#68 = EDGE_CURVE ( 'NONE', #304, #30, #179, .T. ) ;
#69 = UNCERTAINTY_MEASURE_WITH_UNIT (LENGTH_MEASURE( 1.000000000000000082E-05 ), #298, 'distance_accuracy_value', 'NONE');
#70 =( NAMED_UNIT ( * ) SI_UNIT ( $, .STERADIAN. ) SOLID_ANGLE_UNIT ( ) );
#71 = PRODUCT_CONTEXT ( 'NONE', #89, 'mechanical' ) ;
#72 = PRESENTATION_STYLE_ASSIGNMENT (( #217 ) ) ;
#73 =( NAMED_UNIT ( * ) PLANE_ANGLE_UNIT ( ) SI_UNIT ( $, .RADIAN. ) );
#74 =( GEOMETRIC_REPRESENTATION_CONTEXT ( 3 ) GLOBAL_UNCERTAINTY_ASSIGNED_CONTEXT ( ( #338 ) ) GLOBAL_UNIT_ASSIGNED_CONTEXT ( ( #190, #60, #139 ) ) REPRESENTATION_CONTEXT ( 'NONE', 'WORKASPACE' ) );
#75 = LENGTH_MEASURE_WITH_UNIT ( LENGTH_MEASURE( 0.02539999999999999897 ), #213 );
#76 = EDGE_CURVE ( 'NONE', #26, #140, #103, .T. ) ;
#77 = CARTESIAN_POINT ( 'NONE',  ( 0.000000000000000000, 0.2097749077943191487, -0.2499999999999999167 ) ) ;
#78 = AXIS2_PLACEMENT_3D ( 'NONE', #233, #334, #141 ) ;
#79 = CARTESIAN_POINT ( 'NONE',  ( 0.2499999999999999167, 3.000000000000000444, 3.061616997868382402E-17 ) ) ;
#80 = EDGE_CURVE ( 'NONE', #296, #26, #350, .T. ) ;
#81 = EDGE_LOOP ( 'NONE', ( #328, #351, #222, #253 ) ) ;
#82 = ORIENTED_EDGE ( 'NONE', *, *, #319, .T. ) ;
#83 = DIMENSIONAL_EXPONENTS ( 1.000000000000000000, 0.000000000000000000, 0.000000000000000000, 0.000000000000000000, 0.000000000000000000, 0.000000000000000000, 0.000000000000000000 ) ;
#84 = DIRECTION ( 'NONE',  ( 0.000000000000000000, -0.000000000000000000, 1.000000000000000000 ) ) ;
#85 = ORIENTED_EDGE ( 'NONE', *, *, #68, .F. ) ;
#86 = FILL_AREA_STYLE_COLOUR ( '', #113 ) ;
#87 = AXIS2_PLACEMENT_3D ( 'NONE', #276, #281, #40 ) ;
#88 = ORIENTED_EDGE ( 'NONE', *, *, #23, .F. ) ;
#89 = APPLICATION_CONTEXT ( 'automotive_design' ) ;
#90 = ADVANCED_FACE ( 'NONE', ( #46 ), #160, .F. ) ;
#91 = DIRECTION ( 'NONE',  ( 0.000000000000000000, 0.000000000000000000, -1.000000000000000000 ) ) ;
#92 = VECTOR ( 'NONE', #107, 39.37007874015748143 ) ;
#93 = ORIENTED_EDGE ( 'NONE', *, *, #55, .T. ) ;
#94 = SURFACE_STYLE_FILL_AREA ( #336 ) ;
#95 = ADVANCED_FACE ( 'NONE', ( #264 ), #212, .T. ) ;
#96 = CARTESIAN_POINT ( 'NONE',  ( 1.878145495644181332E-16, 1.000000000000000000, 0.000000000000000000 ) ) ;
#97 = FILL_AREA_STYLE ('',( #301 ) ) ;
#98 = DIRECTION ( 'NONE',  ( 0.000000000000000000, 0.000000000000000000, -1.000000000000000000 ) ) ;
#99 = COLOUR_RGB ( '',1.000000000000000000, 0.000000000000000000, 0.000000000000000000 ) ;
#100 = CIRCLE ( 'NONE', #34, 0.2499999999999997502 ) ;
#101 = UNCERTAINTY_MEASURE_WITH_UNIT (LENGTH_MEASURE( 1.000000000000000082E-05 ), #313, 'distance_accuracy_value', 'NONE');
#102 = FILL_AREA_STYLE ('',( #19 ) ) ;
#103 = LINE ( 'NONE', #51, #215 ) ;
#104 =( CONVERSION_BASED_UNIT ( 'INCH', #262 ) LENGTH_UNIT ( ) NAMED_UNIT ( #188 ) );
#105 = STYLED_ITEM ( 'NONE', ( #294 ), #246 ) ;
#106 = CYLINDRICAL_SURFACE ( 'NONE', #201, 0.2499999999999998612 ) ;
#107 = DIRECTION ( 'NONE',  ( -1.245234447608929030E-16, 1.000000000000000000, -0.000000000000000000 ) ) ;
#108 = DIMENSIONAL_EXPONENTS ( 1.000000000000000000, 0.000000000000000000, 0.000000000000000000, 0.000000000000000000, 0.000000000000000000, 0.000000000000000000, 0.000000000000000000 ) ;
#109 = AXIS2_PLACEMENT_3D ( 'NONE', #57, #165, #270 ) ;
#110 = CARTESIAN_POINT ( 'NONE',  ( 3.061616997868382402E-17, 0.2097749077943191487, 0.2499999999999999167 ) ) ;
#111 = VERTEX_POINT ( 'NONE', #77 ) ;
#112 =( LENGTH_UNIT ( ) NAMED_UNIT ( * ) SI_UNIT ( $, .METRE. ) );
#113 = COLOUR_RGB ( '',1.000000000000000000, 0.000000000000000000, 0.000000000000000000 ) ;
#114 = ORIENTED_EDGE ( 'NONE', *, *, #76, .T. ) ;
#115 = CARTESIAN_POINT ( 'NONE',  ( -0.2499999999999995559, 1.000000000000000000, 0.000000000000000000 ) ) ;
#116 = DIRECTION ( 'NONE',  ( -0.000000000000000000, -1.000000000000000000, -0.000000000000000000 ) ) ;
#117 = COLOUR_RGB ( '',1.000000000000000000, 0.000000000000000000, 0.000000000000000000 ) ;
#118 = AXIS2_PLACEMENT_3D ( 'NONE', #41, #36, #11 ) ;
#119 = SURFACE_STYLE_USAGE ( .BOTH. , #13 ) ;
#120 =( NAMED_UNIT ( * ) SI_UNIT ( $, .STERADIAN. ) SOLID_ANGLE_UNIT ( ) );
#121 = SURFACE_STYLE_FILL_AREA ( #203 ) ;
#122 = UNCERTAINTY_MEASURE_WITH_UNIT (LENGTH_MEASURE( 1.000000000000000082E-05 ), #200, 'distance_accuracy_value', 'NONE');
#123 = SURFACE_STYLE_FILL_AREA ( #97 ) ;
#124 = DIRECTION ( 'NONE',  ( -1.000000000000000000, 0.000000000000000000, 0.000000000000000000 ) ) ;
#125 = MECHANICAL_DESIGN_GEOMETRIC_PRESENTATION_REPRESENTATION (  '', ( #340 ), #186 ) ;
#126 = DIRECTION ( 'NONE',  ( -0.000000000000000000, -1.000000000000000000, -0.000000000000000000 ) ) ;
#127 = CARTESIAN_POINT ( 'NONE',  ( 0.2499999999999998057, 3.000000000000000444, 3.061616997868381785E-17 ) ) ;
#128 = DIRECTION ( 'NONE',  ( 0.000000000000000000, 1.000000000000000000, 0.000000000000000000 ) ) ;
#129 = MECHANICAL_DESIGN_GEOMETRIC_PRESENTATION_REPRESENTATION (  '', ( #232 ), #74 ) ;
#130 = SURFACE_SIDE_STYLE ('',( #211 ) ) ;
#131 = SURFACE_SIDE_STYLE ('',( #197 ) ) ;
#132 = ORIENTED_EDGE ( 'NONE', *, *, #14, .F. ) ;
#133 = CIRCLE ( 'NONE', #333, 0.2499999999999999167 ) ;
#134 = FACE_OUTER_BOUND ( 'NONE', #135, .T. ) ;
#135 = EDGE_LOOP ( 'NONE', ( #138, #195 ) ) ;
#136 = EDGE_CURVE ( 'NONE', #304, #224, #47, .T. ) ;
#137 = DIRECTION ( 'NONE',  ( 0.000000000000000000, 1.000000000000000000, 0.000000000000000000 ) ) ;
#138 = ORIENTED_EDGE ( 'NONE', *, *, #347, .F. ) ;
#139 =( NAMED_UNIT ( * ) SI_UNIT ( $, .STERADIAN. ) SOLID_ANGLE_UNIT ( ) );
#140 = VERTEX_POINT ( 'NONE', #238 ) ;
#141 = DIRECTION ( 'NONE',  ( 1.000000000000000000, 0.000000000000000000, 0.000000000000000000 ) ) ;
#142 = FILL_AREA_STYLE ('',( #274 ) ) ;
#143 = AXIS2_PLACEMENT_3D ( 'NONE', #263, #128, #240 ) ;
#144 = ORIENTED_EDGE ( 'NONE', *, *, #310, .F. ) ;
#145 = EDGE_CURVE ( 'NONE', #30, #111, #290, .T. ) ;
#146 = SURFACE_STYLE_USAGE ( .BOTH. , #236 ) ;
#147 = FACE_OUTER_BOUND ( 'NONE', #53, .T. ) ;
#148 = DIMENSIONAL_EXPONENTS ( 1.000000000000000000, 0.000000000000000000, 0.000000000000000000, 0.000000000000000000, 0.000000000000000000, 0.000000000000000000, 0.000000000000000000 ) ;
#149 = AXIS2_PLACEMENT_3D ( 'NONE', #208, #308, #66 ) ;
#150 = SURFACE_STYLE_USAGE ( .BOTH. , #15 ) ;
#151 = LINE ( 'NONE', #307, #58 ) ;
#152 = DIRECTION ( 'NONE',  ( -0.000000000000000000, -1.000000000000000000, -0.000000000000000000 ) ) ;
#153 = CARTESIAN_POINT ( 'NONE',  ( 0.000000000000000000, 1.000000000000000000, 0.000000000000000000 ) ) ;
#154 = CIRCLE ( 'NONE', #50, 0.2499999999999999167 ) ;
#155 = DIRECTION ( 'NONE',  ( -1.000000000000000000, 0.000000000000000000, 0.000000000000000000 ) ) ;
#156 = DIMENSIONAL_EXPONENTS ( 1.000000000000000000, 0.000000000000000000, 0.000000000000000000, 0.000000000000000000, 0.000000000000000000, 0.000000000000000000, 0.000000000000000000 ) ;
#157 = DIRECTION ( 'NONE',  ( -1.245234447608929030E-16, 1.000000000000000000, -0.000000000000000000 ) ) ;
#158 = DIRECTION ( 'NONE',  ( -1.000000000000000000, 0.000000000000000000, 0.000000000000000000 ) ) ;
#159 = STYLED_ITEM ( 'NONE', ( #172 ), #2 ) ;
#160 = PLANE ( 'NONE',  #323 ) ;
#161 = ORIENTED_EDGE ( 'NONE', *, *, #145, .T. ) ;
#162 = FILL_AREA_STYLE_COLOUR ( '', #311 ) ;
#163 = MECHANICAL_DESIGN_GEOMETRIC_PRESENTATION_REPRESENTATION (  '', ( #178 ), #56 ) ;
#164 = MECHANICAL_DESIGN_GEOMETRIC_PRESENTATION_REPRESENTATION (  '', ( #228 ), #291 ) ;
#165 = DIRECTION ( 'NONE',  ( -1.245234447608929030E-16, 1.000000000000000000, 0.000000000000000000 ) ) ;
#166 = FILL_AREA_STYLE_COLOUR ( '', #219 ) ;
#167 = EDGE_LOOP ( 'NONE', ( #88, #85 ) ) ;
#168 = SURFACE_STYLE_USAGE ( .BOTH. , #191 ) ;
#169 = MECHANICAL_DESIGN_GEOMETRIC_PRESENTATION_REPRESENTATION (  '', ( #159 ), #268 ) ;
#170 = VECTOR ( 'NONE', #126, 39.37007874015748143 ) ;
#171 = LENGTH_MEASURE_WITH_UNIT ( LENGTH_MEASURE( 0.02539999999999999897 ), #62 );
#172 = PRESENTATION_STYLE_ASSIGNMENT (( #255 ) ) ;
#173 =( NAMED_UNIT ( * ) PLANE_ANGLE_UNIT ( ) SI_UNIT ( $, .RADIAN. ) );
#174 = UNCERTAINTY_MEASURE_WITH_UNIT (LENGTH_MEASURE( 1.000000000000000082E-05 ), #284, 'distance_accuracy_value', 'NONE');
#175 = EDGE_LOOP ( 'NONE', ( #82, #325 ) ) ;
#176 = PRODUCT ( '83768', '83768', '', ( #71 ) ) ;
#177 = LENGTH_MEASURE_WITH_UNIT ( LENGTH_MEASURE( 0.02539999999999999897 ), #234 );
#178 = STYLED_ITEM ( 'NONE', ( #206 ), #3 ) ;
#179 = CIRCLE ( 'NONE', #303, 0.2499999999999999167 ) ;
#180 = SURFACE_SIDE_STYLE ('',( #123 ) ) ;
#181 =( NAMED_UNIT ( * ) PLANE_ANGLE_UNIT ( ) SI_UNIT ( $, .RADIAN. ) );
#182 = ORIENTED_EDGE ( 'NONE', *, *, #310, .T. ) ;
#183 = UNCERTAINTY_MEASURE_WITH_UNIT (LENGTH_MEASURE( 1.000000000000000082E-05 ), #104, 'distance_accuracy_value', 'NONE');
#184 = CARTESIAN_POINT ( 'NONE',  ( 0.000000000000000000, 1.000000000000000000, -0.2499999999999999167 ) ) ;
#185 = CLOSED_SHELL ( 'NONE', ( #192, #286, #210, #342, #3 ) ) ;
#186 =( GEOMETRIC_REPRESENTATION_CONTEXT ( 3 ) GLOBAL_UNCERTAINTY_ASSIGNED_CONTEXT ( ( #256 ) ) GLOBAL_UNIT_ASSIGNED_CONTEXT ( ( #330, #254, #12 ) ) REPRESENTATION_CONTEXT ( 'NONE', 'WORKASPACE' ) );
#187 = CARTESIAN_POINT ( 'NONE',  ( 0.000000000000000000, 1.000000000000000000, 0.000000000000000000 ) ) ;
#188 = DIMENSIONAL_EXPONENTS ( 1.000000000000000000, 0.000000000000000000, 0.000000000000000000, 0.000000000000000000, 0.000000000000000000, 0.000000000000000000, 0.000000000000000000 ) ;
#189 = VECTOR ( 'NONE', #315, 39.37007874015748143 ) ;
#190 =( CONVERSION_BASED_UNIT ( 'INCH', #29 ) LENGTH_UNIT ( ) NAMED_UNIT ( #24 ) );
#191 = SURFACE_SIDE_STYLE ('',( #54 ) ) ;
#192 = ADVANCED_FACE ( 'NONE', ( #314 ), #33, .T. ) ;
#193 = PRODUCT_DEFINITION_FORMATION_WITH_SPECIFIED_SOURCE ( 'ANY', '', #176, .NOT_KNOWN. ) ;
#194 = PLANE ( 'NONE',  #257 ) ;
#195 = ORIENTED_EDGE ( 'NONE', *, *, #80, .F. ) ;
#196 = CIRCLE ( 'NONE', #8, 0.2499999999999999167 ) ;
#197 = SURFACE_STYLE_FILL_AREA ( #324 ) ;
#198 = ADVANCED_FACE ( 'NONE', ( #288 ), #106, .T. ) ;
#199 = SURFACE_STYLE_USAGE ( .BOTH. , #131 ) ;
#200 =( CONVERSION_BASED_UNIT ( 'INCH', #204 ) LENGTH_UNIT ( ) NAMED_UNIT ( #271 ) );
#201 = AXIS2_PLACEMENT_3D ( 'NONE', #318, #49, #158 ) ;
#202 = APPLICATION_PROTOCOL_DEFINITION ( 'draft international standard', 'automotive_design', 1998, #89 ) ;
#203 = FILL_AREA_STYLE ('',( #86 ) ) ;
#204 = LENGTH_MEASURE_WITH_UNIT ( LENGTH_MEASURE( 0.02539999999999999897 ), #306 );
#205 =( NAMED_UNIT ( * ) SI_UNIT ( $, .STERADIAN. ) SOLID_ANGLE_UNIT ( ) );
#206 = PRESENTATION_STYLE_ASSIGNMENT (( #150 ) ) ;
#207 = DIRECTION ( 'NONE',  ( -1.245234447608929030E-16, 1.000000000000000000, -0.000000000000000000 ) ) ;
#208 = CARTESIAN_POINT ( 'NONE',  ( 0.000000000000000000, 39.37007874015748143, 0.000000000000000000 ) ) ;
#209 = CARTESIAN_POINT ( 'NONE',  ( 3.061616997868382402E-17, 1.000000000000000000, 0.2499999999999999167 ) ) ;
#210 = ADVANCED_FACE ( 'NONE', ( #243 ), #194, .T. ) ;
#211 = SURFACE_STYLE_FILL_AREA ( #102 ) ;
#212 = CYLINDRICAL_SURFACE ( 'NONE', #285, 0.2499999999999998612 ) ;
#213 =( LENGTH_UNIT ( ) NAMED_UNIT ( * ) SI_UNIT ( $, .METRE. ) );
#214 = DIRECTION ( 'NONE',  ( -1.245234447608929030E-16, 1.000000000000000000, -0.000000000000000000 ) ) ;
#215 = VECTOR ( 'NONE', #157, 39.37007874015748143 ) ;
#216 = DIRECTION ( 'NONE',  ( 0.000000000000000000, 0.000000000000000000, -1.000000000000000000 ) ) ;
#217 = SURFACE_STYLE_USAGE ( .BOTH. , #130 ) ;
#218 = LENGTH_MEASURE_WITH_UNIT ( LENGTH_MEASURE( 0.02539999999999999897 ), #112 );
#219 = COLOUR_RGB ( '',1.000000000000000000, 0.000000000000000000, 0.000000000000000000 ) ;
#220 = AXIS2_PLACEMENT_3D ( 'NONE', #235, #231, #37 ) ;
#221 =( NAMED_UNIT ( * ) PLANE_ANGLE_UNIT ( ) SI_UNIT ( $, .RADIAN. ) );
#222 = ORIENTED_EDGE ( 'NONE', *, *, #260, .F. ) ;
#223 = FILL_AREA_STYLE ('',( #166 ) ) ;
#224 = VERTEX_POINT ( 'NONE', #110 ) ;
#225 = CYLINDRICAL_SURFACE ( 'NONE', #345, 0.2499999999999999167 ) ;
#226 = PRODUCT_DEFINITION ( 'UNKNOWN', '', #193, #302 ) ;
#227 = STYLED_ITEM ( 'NONE', ( #72 ), #192 ) ;
#228 = STYLED_ITEM ( 'NONE', ( #252 ), #342 ) ;
#229 = CARTESIAN_POINT ( 'NONE',  ( 0.000000000000000000, 0.000000000000000000, 0.000000000000000000 ) ) ;
#230 = CARTESIAN_POINT ( 'NONE',  ( 0.000000000000000000, 0.2097749077943191487, 0.000000000000000000 ) ) ;
#231 = DIRECTION ( 'NONE',  ( -0.000000000000000000, -1.000000000000000000, -0.000000000000000000 ) ) ;
#232 = STYLED_ITEM ( 'NONE', ( #326 ), #210 ) ;
#233 = CARTESIAN_POINT ( 'NONE',  ( 0.000000000000000000, 0.000000000000000000, 0.000000000000000000 ) ) ;
#234 =( LENGTH_UNIT ( ) NAMED_UNIT ( * ) SI_UNIT ( $, .METRE. ) );
#235 = CARTESIAN_POINT ( 'NONE',  ( 0.000000000000000000, 0.000000000000000000, 0.000000000000000000 ) ) ;
#236 = SURFACE_SIDE_STYLE ('',( #121 ) ) ;
#237 = PRESENTATION_LAYER_ASSIGNMENT (  '', '', ( #227 ) ) ;
#238 = CARTESIAN_POINT ( 'NONE',  ( -0.2500000000000000555, 3.000000000000000444, 0.000000000000000000 ) ) ;
#239 = DIRECTION ( 'NONE',  ( -0.000000000000000000, -1.000000000000000000, -0.000000000000000000 ) ) ;
#240 = DIRECTION ( 'NONE',  ( 0.000000000000000000, 0.000000000000000000, 1.000000000000000000 ) ) ;
#241 = EDGE_CURVE ( 'NONE', #249, #111, #322, .T. ) ;
#242 = PRESENTATION_LAYER_ASSIGNMENT (  '', '', ( #232 ) ) ;
#243 = FACE_OUTER_BOUND ( 'NONE', #167, .T. ) ;
#244 =( LENGTH_UNIT ( ) NAMED_UNIT ( * ) SI_UNIT ( $, .METRE. ) );
#245 = CARTESIAN_POINT ( 'NONE',  ( 0.000000000000000000, 0.000000000000000000, 0.000000000000000000 ) ) ;
#246 = MANIFOLD_SOLID_BREP ( 'Revolve - Cutting Edge', #185 ) ;
#247 = ORIENTED_EDGE ( 'NONE', *, *, #241, .F. ) ;
#248 = VECTOR ( 'NONE', #27, 39.37007874015748143 ) ;
#249 = VERTEX_POINT ( 'NONE', #245 ) ;
#250 = EDGE_LOOP ( 'NONE', ( #59, #273, #331 ) ) ;
#251 = MECHANICAL_DESIGN_GEOMETRIC_PRESENTATION_REPRESENTATION (  '', ( #227 ), #17 ) ;
#252 = PRESENTATION_STYLE_ASSIGNMENT (( #119 ) ) ;
#253 = ORIENTED_EDGE ( 'NONE', *, *, #145, .F. ) ;
#254 =( NAMED_UNIT ( * ) PLANE_ANGLE_UNIT ( ) SI_UNIT ( $, .RADIAN. ) );
#255 = SURFACE_STYLE_USAGE ( .BOTH. , #180 ) ;
#256 = UNCERTAINTY_MEASURE_WITH_UNIT (LENGTH_MEASURE( 1.000000000000000082E-05 ), #330, 'distance_accuracy_value', 'NONE');
#257 = AXIS2_PLACEMENT_3D ( 'NONE', #348, #137, #84 ) ;
#258 =( NAMED_UNIT ( * ) PLANE_ANGLE_UNIT ( ) SI_UNIT ( $, .RADIAN. ) );
#259 = FACE_OUTER_BOUND ( 'NONE', #293, .T. ) ;
#260 = EDGE_CURVE ( 'NONE', #111, #224, #133, .T. ) ;
#261 = DIRECTION ( 'NONE',  ( 0.000000000000000000, 0.000000000000000000, -1.000000000000000000 ) ) ;
#262 = LENGTH_MEASURE_WITH_UNIT ( LENGTH_MEASURE( 0.02539999999999999897 ), #44 );
#263 = CARTESIAN_POINT ( 'NONE',  ( 0.000000000000000000, 39.37007874015748143, 0.000000000000000000 ) ) ;
#264 = FACE_OUTER_BOUND ( 'NONE', #299, .T. ) ;
#265 =( NAMED_UNIT ( * ) SI_UNIT ( $, .STERADIAN. ) SOLID_ANGLE_UNIT ( ) );
#266 =( GEOMETRIC_REPRESENTATION_CONTEXT ( 3 ) GLOBAL_UNCERTAINTY_ASSIGNED_CONTEXT ( ( #69 ) ) GLOBAL_UNIT_ASSIGNED_CONTEXT ( ( #298, #221, #52 ) ) REPRESENTATION_CONTEXT ( 'NONE', 'WORKASPACE' ) );
#267 = DIRECTION ( 'NONE',  ( 1.000000000000000000, 1.245234447608929030E-16, 0.000000000000000000 ) ) ;
#268 =( GEOMETRIC_REPRESENTATION_CONTEXT ( 3 ) GLOBAL_UNCERTAINTY_ASSIGNED_CONTEXT ( ( #101 ) ) GLOBAL_UNIT_ASSIGNED_CONTEXT ( ( #313, #282, #70 ) ) REPRESENTATION_CONTEXT ( 'NONE', 'WORKASPACE' ) );
#269 = PRESENTATION_LAYER_ASSIGNMENT (  '', '', ( #340 ) ) ;
#270 = DIRECTION ( 'NONE',  ( -1.000000000000000000, -1.245234447608929030E-16, 0.000000000000000000 ) ) ;
#271 = DIMENSIONAL_EXPONENTS ( 1.000000000000000000, 0.000000000000000000, 0.000000000000000000, 0.000000000000000000, 0.000000000000000000, 0.000000000000000000, 0.000000000000000000 ) ;
#272 = ORIENTED_EDGE ( 'NONE', *, *, #76, .F. ) ;
#273 = ORIENTED_EDGE ( 'NONE', *, *, #241, .T. ) ;
#274 = FILL_AREA_STYLE_COLOUR ( '', #329 ) ;
#275 = PRESENTATION_LAYER_ASSIGNMENT (  '', '', ( #105 ) ) ;
#276 = CARTESIAN_POINT ( 'NONE',  ( -6.123233995736770966E-17, 3.000000000000000444, 0.000000000000000000 ) ) ;
#277 = LENGTH_MEASURE_WITH_UNIT ( LENGTH_MEASURE( 0.02539999999999999897 ), #64 );
#278 = ORIENTED_EDGE ( 'NONE', *, *, #80, .T. ) ;
#279 = ADVANCED_FACE ( 'NONE', ( #134 ), #4, .F. ) ;
#280 = CYLINDRICAL_SURFACE ( 'NONE', #220, 0.2499999999999999167 ) ;
#281 = DIRECTION ( 'NONE',  ( -1.245234447608929030E-16, 1.000000000000000000, -0.000000000000000000 ) ) ;
#282 =( NAMED_UNIT ( * ) PLANE_ANGLE_UNIT ( ) SI_UNIT ( $, .RADIAN. ) );
#283 = PRODUCT_DEFINITION_SHAPE ( 'NONE', 'NONE',  #226 ) ;
#284 =( CONVERSION_BASED_UNIT ( 'INCH', #75 ) LENGTH_UNIT ( ) NAMED_UNIT ( #148 ) );
#285 = AXIS2_PLACEMENT_3D ( 'NONE', #320, #344, #124 ) ;
#286 = ADVANCED_FACE ( 'NONE', ( #6 ), #225, .T. ) ;
#287 = DIRECTION ( 'NONE',  ( 1.245234447608929030E-16, -1.000000000000000000, 0.000000000000000000 ) ) ;
#288 = FACE_OUTER_BOUND ( 'NONE', #42, .T. ) ;
#289 = PRODUCT_RELATED_PRODUCT_CATEGORY ( 'part', '', ( #176 ) ) ;
#290 = LINE ( 'NONE', #18, #189 ) ;
#291 =( GEOMETRIC_REPRESENTATION_CONTEXT ( 3 ) GLOBAL_UNCERTAINTY_ASSIGNED_CONTEXT ( ( #305 ) ) GLOBAL_UNIT_ASSIGNED_CONTEXT ( ( #332, #173, #205 ) ) REPRESENTATION_CONTEXT ( 'NONE', 'WORKASPACE' ) );
#292 = DIRECTION ( 'NONE',  ( -0.000000000000000000, -1.000000000000000000, -0.000000000000000000 ) ) ;
#293 = EDGE_LOOP ( 'NONE', ( #7, #28, #161, #144 ) ) ;
#294 = PRESENTATION_STYLE_ASSIGNMENT (( #199 ) ) ;
#295 = CONICAL_SURFACE ( 'NONE', #149, 46.91943277929978251, 0.8726646259971666542 ) ;
#296 = VERTEX_POINT ( 'NONE', #31 ) ;
#297 = EDGE_CURVE ( 'NONE', #249, #224, #151, .T. ) ;
#298 =( CONVERSION_BASED_UNIT ( 'INCH', #218 ) LENGTH_UNIT ( ) NAMED_UNIT ( #108 ) );
#299 = EDGE_LOOP ( 'NONE', ( #327, #93, #5, #272 ) ) ;
#300 = CARTESIAN_POINT ( 'NONE',  ( 0.000000000000000000, 0.000000000000000000, 0.000000000000000000 ) ) ;
#301 = FILL_AREA_STYLE_COLOUR ( '', #32 ) ;
#302 = PRODUCT_DEFINITION_CONTEXT ( 'detailed design', #25, 'design' ) ;
#303 = AXIS2_PLACEMENT_3D ( 'NONE', #187, #239, #216 ) ;
#304 = VERTEX_POINT ( 'NONE', #209 ) ;
#305 = UNCERTAINTY_MEASURE_WITH_UNIT (LENGTH_MEASURE( 1.000000000000000082E-05 ), #332, 'distance_accuracy_value', 'NONE');
#306 =( LENGTH_UNIT ( ) NAMED_UNIT ( * ) SI_UNIT ( $, .METRE. ) );
#307 = CARTESIAN_POINT ( 'NONE',  ( 0.000000000000000000, 0.000000000000000000, 0.000000000000000000 ) ) ;
#308 = DIRECTION ( 'NONE',  ( 0.000000000000000000, 1.000000000000000000, 0.000000000000000000 ) ) ;
#309 = CIRCLE ( 'NONE', #118, 0.2500000000000000000 ) ;
#310 = EDGE_CURVE ( 'NONE', #224, #111, #196, .T. ) ;
#311 = COLOUR_RGB ( '',0.7921568627450980005, 0.8196078431372548767, 0.9333333333333333481 ) ;
#312 = DIRECTION ( 'NONE',  ( 0.000000000000000000, 0.000000000000000000, -1.000000000000000000 ) ) ;
#313 =( CONVERSION_BASED_UNIT ( 'INCH', #277 ) LENGTH_UNIT ( ) NAMED_UNIT ( #83 ) );
#314 = FACE_OUTER_BOUND ( 'NONE', #250, .T. ) ;
#315 = DIRECTION ( 'NONE',  ( -0.000000000000000000, -1.000000000000000000, -0.000000000000000000 ) ) ;
#316 = PRESENTATION_LAYER_ASSIGNMENT (  '', '', ( #178 ) ) ;
#317 = MECHANICAL_DESIGN_GEOMETRIC_PRESENTATION_REPRESENTATION (  '', ( #105 ), #266 ) ;
#318 = CARTESIAN_POINT ( 'NONE',  ( -6.123233995736772199E-17, 3.000000000000000444, 0.000000000000000000 ) ) ;
#319 = EDGE_CURVE ( 'NONE', #140, #61, #39, .T. ) ;
#320 = CARTESIAN_POINT ( 'NONE',  ( -6.123233995736772199E-17, 3.000000000000000444, 0.000000000000000000 ) ) ;
#321 = PRESENTATION_LAYER_ASSIGNMENT (  '', '', ( #159 ) ) ;
#322 = LINE ( 'NONE', #229, #248 ) ;
#323 = AXIS2_PLACEMENT_3D ( 'NONE', #341, #287, #267 ) ;
#324 = FILL_AREA_STYLE ('',( #162 ) ) ;
#325 = ORIENTED_EDGE ( 'NONE', *, *, #14, .T. ) ;
#326 = PRESENTATION_STYLE_ASSIGNMENT (( #168 ) ) ;
#327 = ORIENTED_EDGE ( 'NONE', *, *, #347, .T. ) ;
#328 = ORIENTED_EDGE ( 'NONE', *, *, #23, .T. ) ;
#329 = COLOUR_RGB ( '',1.000000000000000000, 0.000000000000000000, 0.000000000000000000 ) ;
#330 =( CONVERSION_BASED_UNIT ( 'INCH', #177 ) LENGTH_UNIT ( ) NAMED_UNIT ( #48 ) );
#331 = ORIENTED_EDGE ( 'NONE', *, *, #260, .T. ) ;
#332 =( CONVERSION_BASED_UNIT ( 'INCH', #171 ) LENGTH_UNIT ( ) NAMED_UNIT ( #156 ) );
#333 = AXIS2_PLACEMENT_3D ( 'NONE', #349, #292, #91 ) ;
#334 = DIRECTION ( 'NONE',  ( 0.000000000000000000, 0.000000000000000000, 1.000000000000000000 ) ) ;
#335 = DIRECTION ( 'NONE',  ( 0.000000000000000000, 0.6427876096865379196, 0.7660444431189792347 ) ) ;
#336 = FILL_AREA_STYLE ('',( #38 ) ) ;
#337 = ORIENTED_EDGE ( 'NONE', *, *, #55, .F. ) ;
#338 = UNCERTAINTY_MEASURE_WITH_UNIT (LENGTH_MEASURE( 1.000000000000000082E-05 ), #190, 'distance_accuracy_value', 'NONE');
#339 = CLOSED_SHELL ( 'NONE', ( #95, #279, #198, #90 ) ) ;
#340 = STYLED_ITEM ( 'NONE', ( #10 ), #286 ) ;
#341 = CARTESIAN_POINT ( 'NONE',  ( 0.2499999999999999167, 3.000000000000000444, 0.000000000000000000 ) ) ;
#342 = ADVANCED_FACE ( 'NONE', ( #259 ), #280, .T. ) ;
#343 = CARTESIAN_POINT ( 'NONE',  ( 1.878145495644181332E-16, 1.000000000000000000, 0.000000000000000000 ) ) ;
#344 = DIRECTION ( 'NONE',  ( -1.245234447608929030E-16, 1.000000000000000000, -0.000000000000000000 ) ) ;
#345 = AXIS2_PLACEMENT_3D ( 'NONE', #300, #116, #98 ) ;
#346 = CARTESIAN_POINT ( 'NONE',  ( 3.061616997868382402E-17, 0.000000000000000000, 0.2499999999999999167 ) ) ;
#347 = EDGE_CURVE ( 'NONE', #26, #296, #100, .T. ) ;
#348 = CARTESIAN_POINT ( 'NONE',  ( 0.000000000000000000, 1.000000000000000000, 0.000000000000000000 ) ) ;
#349 = CARTESIAN_POINT ( 'NONE',  ( 0.000000000000000000, 0.2097749077943191487, 0.000000000000000000 ) ) ;
#350 = CIRCLE ( 'NONE', #21, 0.2499999999999997502 ) ;
#351 = ORIENTED_EDGE ( 'NONE', *, *, #136, .T. ) ;
ENDSEC;
END-ISO-10303-21;
