ISO-10303-21;
HEADER;
FILE_DESCRIPTION (( 'STEP AP214' ),
    '1' );
FILE_NAME ('23100.STEP',
    '2023-06-22T16:33:44',
    ( '' ),
    ( '' ),
    'SwSTEP 2.0',
    'SolidWorks 2023',
    '' );
FILE_SCHEMA (( 'AUTOMOTIVE_DESIGN' ));
ENDSEC;

DATA;
#1 = CARTESIAN_POINT ( 'NONE',  ( 0.000000000000000000, 0.000000000000000000, 0.000000000000000000 ) ) ;
#2 = EDGE_CURVE ( 'NONE', #83, #295, #102, .T. ) ;
#3 = DIMENSIONAL_EXPONENTS ( 1.000000000000000000, 0.000000000000000000, 0.000000000000000000, 0.000000000000000000, 0.000000000000000000, 0.000000000000000000, 0.000000000000000000 ) ;
#4 = DIRECTION ( 'NONE',  ( 0.000000000000000000, 0.000000000000000000, -1.000000000000000000 ) ) ;
#5 = FACE_OUTER_BOUND ( 'NONE', #161, .T. ) ;
#6 = VECTOR ( 'NONE', #247, 39.37007874015748143 ) ;
#7 =( LENGTH_UNIT ( ) NAMED_UNIT ( * ) SI_UNIT ( $, .METRE. ) );
#8 = ORIENTED_EDGE ( 'NONE', *, *, #65, .T. ) ;
#9 = EDGE_CURVE ( 'NONE', #210, #269, #144, .T. ) ;
#10 = CYLINDRICAL_SURFACE ( 'NONE', #272, 0.1250000000000000000 ) ;
#11 = CARTESIAN_POINT ( 'NONE',  ( 0.000000000000000000, 1.000000000000000000, 0.000000000000000000 ) ) ;
#12 = ORIENTED_EDGE ( 'NONE', *, *, #121, .F. ) ;
#13 = EDGE_CURVE ( 'NONE', #269, #83, #159, .T. ) ;
#14 = ORIENTED_EDGE ( 'NONE', *, *, #131, .T. ) ;
#15 = AXIS2_PLACEMENT_3D ( 'NONE', #284, #67, #180 ) ;
#16 = DIRECTION ( 'NONE',  ( 0.000000000000000000, 0.000000000000000000, -1.000000000000000000 ) ) ;
#17 = DIRECTION ( 'NONE',  ( -3.061616997868386099E-17, 1.000000000000000000, -0.000000000000000000 ) ) ;
#18 = SURFACE_SIDE_STYLE ('',( #66 ) ) ;
#19 = SHAPE_DEFINITION_REPRESENTATION ( #89, #176 ) ;
#20 = COLOUR_RGB ( '',0.7921568627450980005, 0.8196078431372548767, 0.9333333333333333481 ) ;
#21 = PRODUCT ( '23100', '23100', '', ( #231 ) ) ;
#22 = DIRECTION ( 'NONE',  ( 0.000000000000000000, 1.000000000000000000, 0.000000000000000000 ) ) ;
#23 = PRESENTATION_STYLE_ASSIGNMENT (( #72 ) ) ;
#24 = PRESENTATION_LAYER_ASSIGNMENT (  '', '', ( #69 ) ) ;
#25 = LENGTH_MEASURE_WITH_UNIT ( LENGTH_MEASURE( 0.02539999999999999897 ), #198 );
#26 =( LENGTH_UNIT ( ) NAMED_UNIT ( * ) SI_UNIT ( $, .METRE. ) );
#27 = PLANE ( 'NONE',  #292 ) ;
#28 = PRESENTATION_STYLE_ASSIGNMENT (( #148 ) ) ;
#29 = AXIS2_PLACEMENT_3D ( 'NONE', #140, #230, #117 ) ;
#30 = MECHANICAL_DESIGN_GEOMETRIC_PRESENTATION_REPRESENTATION (  '', ( #69 ), #259 ) ;
#31 = PRESENTATION_STYLE_ASSIGNMENT (( #149 ) ) ;
#32 = FILL_AREA_STYLE ('',( #141 ) ) ;
#33 = CARTESIAN_POINT ( 'NONE',  ( 0.000000000000000000, 1.000000000000000000, -0.1249999999999999861 ) ) ;
#34 = PLANE ( 'NONE',  #37 ) ;
#35 = LINE ( 'NONE', #135, #309 ) ;
#36 = CARTESIAN_POINT ( 'NONE',  ( 0.000000000000000000, 0.000000000000000000, 0.000000000000000000 ) ) ;
#37 = AXIS2_PLACEMENT_3D ( 'NONE', #143, #22, #211 ) ;
#38 = PRODUCT_DEFINITION_FORMATION_WITH_SPECIFIED_SOURCE ( 'ANY', '', #21, .NOT_KNOWN. ) ;
#39 = CARTESIAN_POINT ( 'NONE',  ( 0.000000000000000000, 0.000000000000000000, 0.000000000000000000 ) ) ;
#40 = PLANE ( 'NONE',  #29 ) ;
#41 =( LENGTH_UNIT ( ) NAMED_UNIT ( * ) SI_UNIT ( $, .METRE. ) );
#42 = APPLICATION_PROTOCOL_DEFINITION ( 'draft international standard', 'automotive_design', 1998, #190 ) ;
#43 = EDGE_CURVE ( 'NONE', #298, #58, #35, .T. ) ;
#44 = CLOSED_SHELL ( 'NONE', ( #253, #98, #262, #192 ) ) ;
#45 = FILL_AREA_STYLE_COLOUR ( '', #138 ) ;
#46 = PRODUCT_DEFINITION ( 'UNKNOWN', '', #38, #106 ) ;
#47 = STYLED_ITEM ( 'NONE', ( #23 ), #118 ) ;
#48 = FILL_AREA_STYLE_COLOUR ( '', #165 ) ;
#49 = FILL_AREA_STYLE_COLOUR ( '', #54 ) ;
#50 = CYLINDRICAL_SURFACE ( 'NONE', #142, 0.1250000000000000000 ) ;
#51 = SURFACE_SIDE_STYLE ('',( #283 ) ) ;
#52 = DIRECTION ( 'NONE',  ( 0.000000000000000000, 0.000000000000000000, -1.000000000000000000 ) ) ;
#53 = EDGE_LOOP ( 'NONE', ( #223, #109 ) ) ;
#54 = COLOUR_RGB ( '',1.000000000000000000, 0.000000000000000000, 0.000000000000000000 ) ;
#55 = FILL_AREA_STYLE_COLOUR ( '', #222 ) ;
#56 = SURFACE_STYLE_FILL_AREA ( #132 ) ;
#57 =( NAMED_UNIT ( * ) SI_UNIT ( $, .STERADIAN. ) SOLID_ANGLE_UNIT ( ) );
#58 = VERTEX_POINT ( 'NONE', #156 ) ;
#59 =( GEOMETRIC_REPRESENTATION_CONTEXT ( 3 ) GLOBAL_UNCERTAINTY_ASSIGNED_CONTEXT ( ( #304 ) ) GLOBAL_UNIT_ASSIGNED_CONTEXT ( ( #255, #306, #233 ) ) REPRESENTATION_CONTEXT ( 'NONE', 'WORKASPACE' ) );
#60 =( CONVERSION_BASED_UNIT ( 'INCH', #155 ) LENGTH_UNIT ( ) NAMED_UNIT ( #168 ) );
#61 = CARTESIAN_POINT ( 'NONE',  ( 7.582401355855259480E-33, 1.000000000000000000, 0.000000000000000000 ) ) ;
#62 = CARTESIAN_POINT ( 'NONE',  ( -6.123233995736772199E-17, 3.000000000000000444, 0.000000000000000000 ) ) ;
#63 = EDGE_CURVE ( 'NONE', #152, #58, #276, .T. ) ;
#64 = FACE_OUTER_BOUND ( 'NONE', #207, .T. ) ;
#65 = EDGE_CURVE ( 'NONE', #58, #152, #241, .T. ) ;
#66 = SURFACE_STYLE_FILL_AREA ( #280 ) ;
#67 = DIRECTION ( 'NONE',  ( -3.061616997868386099E-17, 1.000000000000000000, -0.000000000000000000 ) ) ;
#68 = SURFACE_STYLE_FILL_AREA ( #32 ) ;
#69 = STYLED_ITEM ( 'NONE', ( #93 ), #171 ) ;
#70 = DIRECTION ( 'NONE',  ( -3.061616997868386099E-17, 1.000000000000000000, -0.000000000000000000 ) ) ;
#71 = SURFACE_STYLE_FILL_AREA ( #287 ) ;
#72 = SURFACE_STYLE_USAGE ( .BOTH. , #237 ) ;
#73 = DIRECTION ( 'NONE',  ( -3.061616997868386099E-17, 1.000000000000000000, -0.000000000000000000 ) ) ;
#74 = EDGE_LOOP ( 'NONE', ( #249, #203, #85, #229 ) ) ;
#75 = AXIS2_PLACEMENT_3D ( 'NONE', #39, #205, #184 ) ;
#76 = FACE_OUTER_BOUND ( 'NONE', #181, .T. ) ;
#77 =( LENGTH_UNIT ( ) NAMED_UNIT ( * ) SI_UNIT ( $, .METRE. ) );
#78 = CYLINDRICAL_SURFACE ( 'NONE', #189, 0.1250000000000000278 ) ;
#79 = LENGTH_MEASURE_WITH_UNIT ( LENGTH_MEASURE( 0.02539999999999999897 ), #77 );
#80 = ORIENTED_EDGE ( 'NONE', *, *, #43, .T. ) ;
#81 = DIRECTION ( 'NONE',  ( -0.000000000000000000, -1.000000000000000000, -0.000000000000000000 ) ) ;
#82 = CARTESIAN_POINT ( 'NONE',  ( 0.000000000000000000, 1.000000000000000000, 0.000000000000000000 ) ) ;
#83 = VERTEX_POINT ( 'NONE', #275 ) ;
#84 = AXIS2_PLACEMENT_3D ( 'NONE', #288, #169, #97 ) ;
#85 = ORIENTED_EDGE ( 'NONE', *, *, #121, .T. ) ;
#86 = DIRECTION ( 'NONE',  ( 0.000000000000000000, 0.000000000000000000, -1.000000000000000000 ) ) ;
#87 = DIRECTION ( 'NONE',  ( -3.061616997868386099E-17, 1.000000000000000000, -0.000000000000000000 ) ) ;
#88 = MECHANICAL_DESIGN_GEOMETRIC_PRESENTATION_REPRESENTATION (  '', ( #47 ), #119 ) ;
#89 = PRODUCT_DEFINITION_SHAPE ( 'NONE', 'NONE',  #46 ) ;
#90 = AXIS2_PLACEMENT_3D ( 'NONE', #82, #294, #258 ) ;
#91 = LENGTH_MEASURE_WITH_UNIT ( LENGTH_MEASURE( 0.02539999999999999897 ), #41 );
#92 = CARTESIAN_POINT ( 'NONE',  ( 0.1249999999999999861, 3.000000000000000444, 0.000000000000000000 ) ) ;
#93 = PRESENTATION_STYLE_ASSIGNMENT (( #264 ) ) ;
#94 = STYLED_ITEM ( 'NONE', ( #28 ), #123 ) ;
#95 = ORIENTED_EDGE ( 'NONE', *, *, #2, .T. ) ;
#96 = CARTESIAN_POINT ( 'NONE',  ( -0.1249999999999999861, 1.000000000000000000, 0.000000000000000000 ) ) ;
#97 = DIRECTION ( 'NONE',  ( 0.000000000000000000, 0.000000000000000000, -1.000000000000000000 ) ) ;
#98 = ADVANCED_FACE ( 'NONE', ( #64 ), #40, .F. ) ;
#99 = FILL_AREA_STYLE ('',( #48 ) ) ;
#100 = APPLICATION_CONTEXT ( 'automotive_design' ) ;
#101 = AXIS2_PLACEMENT_3D ( 'NONE', #61, #296, #274 ) ;
#102 = CIRCLE ( 'NONE', #129, 0.1250000000000000555 ) ;
#103 = PRESENTATION_LAYER_ASSIGNMENT (  '', '', ( #236 ) ) ;
#104 = CARTESIAN_POINT ( 'NONE',  ( 1.530808498934191201E-17, 1.000000000000000000, 0.1249999999999999861 ) ) ;
#105 = ORIENTED_EDGE ( 'NONE', *, *, #285, .T. ) ;
#106 = PRODUCT_DEFINITION_CONTEXT ( 'detailed design', #100, 'design' ) ;
#107 = CARTESIAN_POINT ( 'NONE',  ( 0.000000000000000000, 0.000000000000000000, 0.000000000000000000 ) ) ;
#108 = DIRECTION ( 'NONE',  ( -0.000000000000000000, -1.000000000000000000, -0.000000000000000000 ) ) ;
#109 = ORIENTED_EDGE ( 'NONE', *, *, #285, .F. ) ;
#110 = EDGE_CURVE ( 'NONE', #269, #210, #112, .T. ) ;
#111 = EDGE_LOOP ( 'NONE', ( #183, #182, #158, #12 ) ) ;
#112 = CIRCLE ( 'NONE', #150, 0.1249999999999999861 ) ;
#113 = UNCERTAINTY_MEASURE_WITH_UNIT (LENGTH_MEASURE( 1.000000000000000082E-05 ), #130, 'distance_accuracy_value', 'NONE');
#114 =( NAMED_UNIT ( * ) SI_UNIT ( $, .STERADIAN. ) SOLID_ANGLE_UNIT ( ) );
#115 = CARTESIAN_POINT ( 'NONE',  ( 0.000000000000000000, 0.000000000000000000, 0.000000000000000000 ) ) ;
#116 = ADVANCED_FACE ( 'NONE', ( #248 ), #34, .T. ) ;
#117 = DIRECTION ( 'NONE',  ( -1.000000000000000000, -3.061616997868386099E-17, 0.000000000000000000 ) ) ;
#118 = ADVANCED_FACE ( 'NONE', ( #301 ), #122, .T. ) ;
#119 =( GEOMETRIC_REPRESENTATION_CONTEXT ( 3 ) GLOBAL_UNCERTAINTY_ASSIGNED_CONTEXT ( ( #163 ) ) GLOBAL_UNIT_ASSIGNED_CONTEXT ( ( #219, #263, #126 ) ) REPRESENTATION_CONTEXT ( 'NONE', 'WORKASPACE' ) );
#120 = UNCERTAINTY_MEASURE_WITH_UNIT (LENGTH_MEASURE( 1.000000000000000082E-05 ), #279, 'distance_accuracy_value', 'NONE');
#121 = EDGE_CURVE ( 'NONE', #210, #295, #214, .T. ) ;
#122 = PLANE ( 'NONE',  #84 ) ;
#123 = MANIFOLD_SOLID_BREP ( 'Revolve - Tool Body (Straight Shanked)', #44 ) ;
#124 = MECHANICAL_DESIGN_GEOMETRIC_PRESENTATION_REPRESENTATION (  '', ( #236 ), #277 ) ;
#125 =( LENGTH_UNIT ( ) NAMED_UNIT ( * ) SI_UNIT ( $, .METRE. ) );
#126 =( NAMED_UNIT ( * ) SI_UNIT ( $, .STERADIAN. ) SOLID_ANGLE_UNIT ( ) );
#127 = ADVANCED_FACE ( 'NONE', ( #5 ), #10, .T. ) ;
#128 = DIRECTION ( 'NONE',  ( -0.000000000000000000, -1.000000000000000000, -0.000000000000000000 ) ) ;
#129 = AXIS2_PLACEMENT_3D ( 'NONE', #62, #300, #204 ) ;
#130 =( CONVERSION_BASED_UNIT ( 'INCH', #79 ) LENGTH_UNIT ( ) NAMED_UNIT ( #196 ) );
#131 = EDGE_CURVE ( 'NONE', #295, #83, #151, .T. ) ;
#132 = FILL_AREA_STYLE ('',( #49 ) ) ;
#133 = ORIENTED_EDGE ( 'NONE', *, *, #63, .T. ) ;
#134 = ORIENTED_EDGE ( 'NONE', *, *, #63, .F. ) ;
#135 = CARTESIAN_POINT ( 'NONE',  ( 0.000000000000000000, 0.000000000000000000, -0.1250000000000000000 ) ) ;
#136 =( NAMED_UNIT ( * ) PLANE_ANGLE_UNIT ( ) SI_UNIT ( $, .RADIAN. ) );
#137 = ORIENTED_EDGE ( 'NONE', *, *, #43, .F. ) ;
#138 = COLOUR_RGB ( '',1.000000000000000000, 0.000000000000000000, 0.000000000000000000 ) ;
#139 =( GEOMETRIC_REPRESENTATION_CONTEXT ( 3 ) GLOBAL_UNCERTAINTY_ASSIGNED_CONTEXT ( ( #120 ) ) GLOBAL_UNIT_ASSIGNED_CONTEXT ( ( #279, #136, #114 ) ) REPRESENTATION_CONTEXT ( 'NONE', 'WORKASPACE' ) );
#140 = CARTESIAN_POINT ( 'NONE',  ( 5.858436651022893041E-35, 1.000000000000000000, 0.000000000000000000 ) ) ;
#141 = FILL_AREA_STYLE_COLOUR ( '', #213 ) ;
#142 = AXIS2_PLACEMENT_3D ( 'NONE', #1, #128, #4 ) ;
#143 = CARTESIAN_POINT ( 'NONE',  ( 0.000000000000000000, 1.000000000000000000, 0.000000000000000000 ) ) ;
#144 = CIRCLE ( 'NONE', #101, 0.1249999999999999861 ) ;
#145 = STYLED_ITEM ( 'NONE', ( #246 ), #127 ) ;
#146 =( NAMED_UNIT ( * ) SI_UNIT ( $, .STERADIAN. ) SOLID_ANGLE_UNIT ( ) );
#147 = CARTESIAN_POINT ( 'NONE',  ( -6.123233995736772199E-17, 3.000000000000000444, 0.000000000000000000 ) ) ;
#148 = SURFACE_STYLE_USAGE ( .BOTH. , #51 ) ;
#149 = SURFACE_STYLE_USAGE ( .BOTH. , #167 ) ;
#150 = AXIS2_PLACEMENT_3D ( 'NONE', #187, #87, #278 ) ;
#151 = CIRCLE ( 'NONE', #228, 0.1250000000000000555 ) ;
#152 = VERTEX_POINT ( 'NONE', #199 ) ;
#153 =( NAMED_UNIT ( * ) SI_UNIT ( $, .STERADIAN. ) SOLID_ANGLE_UNIT ( ) );
#154 = LENGTH_MEASURE_WITH_UNIT ( LENGTH_MEASURE( 0.02539999999999999897 ), #239 );
#155 = LENGTH_MEASURE_WITH_UNIT ( LENGTH_MEASURE( 0.02539999999999999897 ), #7 );
#156 = CARTESIAN_POINT ( 'NONE',  ( 0.000000000000000000, 0.000000000000000000, -0.1250000000000000000 ) ) ;
#157 = PRESENTATION_LAYER_ASSIGNMENT (  '', '', ( #174 ) ) ;
#158 = ORIENTED_EDGE ( 'NONE', *, *, #131, .F. ) ;
#159 = LINE ( 'NONE', #250, #265 ) ;
#160 = ORIENTED_EDGE ( 'NONE', *, *, #65, .F. ) ;
#161 = EDGE_LOOP ( 'NONE', ( #244, #105, #80, #134 ) ) ;
#162 = PRESENTATION_LAYER_ASSIGNMENT (  '', '', ( #145 ) ) ;
#163 = UNCERTAINTY_MEASURE_WITH_UNIT (LENGTH_MEASURE( 1.000000000000000082E-05 ), #219, 'distance_accuracy_value', 'NONE');
#164 = PRESENTATION_STYLE_ASSIGNMENT (( #303 ) ) ;
#165 = COLOUR_RGB ( '',1.000000000000000000, 0.000000000000000000, 0.000000000000000000 ) ;
#166 = CARTESIAN_POINT ( 'NONE',  ( 0.1250000000000000000, 1.000000000000000000, 1.530808498934192125E-17 ) ) ;
#167 = SURFACE_SIDE_STYLE ('',( #71 ) ) ;
#168 = DIMENSIONAL_EXPONENTS ( 1.000000000000000000, 0.000000000000000000, 0.000000000000000000, 0.000000000000000000, 0.000000000000000000, 0.000000000000000000, 0.000000000000000000 ) ;
#169 = DIRECTION ( 'NONE',  ( 0.000000000000000000, -1.000000000000000000, -0.000000000000000000 ) ) ;
#170 = SURFACE_STYLE_FILL_AREA ( #99 ) ;
#171 = ADVANCED_FACE ( 'NONE', ( #76 ), #50, .T. ) ;
#172 = EDGE_LOOP ( 'NONE', ( #8, #133 ) ) ;
#173 =( CONVERSION_BASED_UNIT ( 'INCH', #154 ) LENGTH_UNIT ( ) NAMED_UNIT ( #178 ) );
#174 = STYLED_ITEM ( 'NONE', ( #164 ), #116 ) ;
#175 =( GEOMETRIC_REPRESENTATION_CONTEXT ( 3 ) GLOBAL_UNCERTAINTY_ASSIGNED_CONTEXT ( ( #113 ) ) GLOBAL_UNIT_ASSIGNED_CONTEXT ( ( #130, #179, #57 ) ) REPRESENTATION_CONTEXT ( 'NONE', 'WORKASPACE' ) );
#176 = ADVANCED_BREP_SHAPE_REPRESENTATION ( '23100', ( #220, #123, #75 ), #139 ) ;
#177 = CARTESIAN_POINT ( 'NONE',  ( -6.123233995736772199E-17, 3.000000000000000444, 0.000000000000000000 ) ) ;
#178 = DIMENSIONAL_EXPONENTS ( 1.000000000000000000, 0.000000000000000000, 0.000000000000000000, 0.000000000000000000, 0.000000000000000000, 0.000000000000000000, 0.000000000000000000 ) ;
#179 =( NAMED_UNIT ( * ) PLANE_ANGLE_UNIT ( ) SI_UNIT ( $, .RADIAN. ) );
#180 = DIRECTION ( 'NONE',  ( -1.000000000000000000, 0.000000000000000000, 0.000000000000000000 ) ) ;
#181 = EDGE_LOOP ( 'NONE', ( #226, #273, #160, #137 ) ) ;
#182 = ORIENTED_EDGE ( 'NONE', *, *, #13, .T. ) ;
#183 = ORIENTED_EDGE ( 'NONE', *, *, #9, .T. ) ;
#184 = DIRECTION ( 'NONE',  ( 1.000000000000000000, 0.000000000000000000, 0.000000000000000000 ) ) ;
#185 = DIRECTION ( 'NONE',  ( -0.000000000000000000, -1.000000000000000000, -0.000000000000000000 ) ) ;
#186 = PRODUCT_RELATED_PRODUCT_CATEGORY ( 'part', '', ( #21 ) ) ;
#187 = CARTESIAN_POINT ( 'NONE',  ( 7.582401355855259480E-33, 1.000000000000000000, 0.000000000000000000 ) ) ;
#188 = MECHANICAL_DESIGN_GEOMETRIC_PRESENTATION_REPRESENTATION (  '', ( #174 ), #59 ) ;
#189 = AXIS2_PLACEMENT_3D ( 'NONE', #177, #70, #267 ) ;
#190 = APPLICATION_CONTEXT ( 'automotive_design' ) ;
#191 = AXIS2_PLACEMENT_3D ( 'NONE', #11, #108, #234 ) ;
#192 = ADVANCED_FACE ( 'NONE', ( #218 ), #27, .F. ) ;
#193 = FILL_AREA_STYLE_COLOUR ( '', #20 ) ;
#194 =( NAMED_UNIT ( * ) PLANE_ANGLE_UNIT ( ) SI_UNIT ( $, .RADIAN. ) );
#195 = PRESENTATION_LAYER_ASSIGNMENT (  '', '', ( #47 ) ) ;
#196 = DIMENSIONAL_EXPONENTS ( 1.000000000000000000, 0.000000000000000000, 0.000000000000000000, 0.000000000000000000, 0.000000000000000000, 0.000000000000000000, 0.000000000000000000 ) ;
#197 = ORIENTED_EDGE ( 'NONE', *, *, #9, .F. ) ;
#198 =( LENGTH_UNIT ( ) NAMED_UNIT ( * ) SI_UNIT ( $, .METRE. ) );
#199 = CARTESIAN_POINT ( 'NONE',  ( 1.530808498934191509E-17, 0.000000000000000000, 0.1250000000000000000 ) ) ;
#200 = MECHANICAL_DESIGN_GEOMETRIC_PRESENTATION_REPRESENTATION (  '', ( #145 ), #175 ) ;
#201 = CARTESIAN_POINT ( 'NONE',  ( -0.1250000000000001110, 3.000000000000000444, 0.000000000000000000 ) ) ;
#202 = DIMENSIONAL_EXPONENTS ( 1.000000000000000000, 0.000000000000000000, 0.000000000000000000, 0.000000000000000000, 0.000000000000000000, 0.000000000000000000, 0.000000000000000000 ) ;
#203 = ORIENTED_EDGE ( 'NONE', *, *, #110, .T. ) ;
#204 = DIRECTION ( 'NONE',  ( -1.000000000000000000, 0.000000000000000000, 0.000000000000000000 ) ) ;
#205 = DIRECTION ( 'NONE',  ( 0.000000000000000000, 0.000000000000000000, 1.000000000000000000 ) ) ;
#206 = MECHANICAL_DESIGN_GEOMETRIC_PRESENTATION_REPRESENTATION (  '', ( #94 ), #242 ) ;
#207 = EDGE_LOOP ( 'NONE', ( #197, #208 ) ) ;
#208 = ORIENTED_EDGE ( 'NONE', *, *, #110, .F. ) ;
#209 = UNCERTAINTY_MEASURE_WITH_UNIT (LENGTH_MEASURE( 1.000000000000000082E-05 ), #173, 'distance_accuracy_value', 'NONE');
#210 = VERTEX_POINT ( 'NONE', #96 ) ;
#211 = DIRECTION ( 'NONE',  ( 0.000000000000000000, -0.000000000000000000, 1.000000000000000000 ) ) ;
#212 = AXIS2_PLACEMENT_3D ( 'NONE', #115, #299, #86 ) ;
#213 = COLOUR_RGB ( '',1.000000000000000000, 0.000000000000000000, 0.000000000000000000 ) ;
#214 = LINE ( 'NONE', #305, #286 ) ;
#215 = LENGTH_MEASURE_WITH_UNIT ( LENGTH_MEASURE( 0.02539999999999999897 ), #26 );
#216 = DIMENSIONAL_EXPONENTS ( 1.000000000000000000, 0.000000000000000000, 0.000000000000000000, 0.000000000000000000, 0.000000000000000000, 0.000000000000000000, 0.000000000000000000 ) ;
#217 = DIRECTION ( 'NONE',  ( 3.061616997868386099E-17, -1.000000000000000000, 0.000000000000000000 ) ) ;
#218 = FACE_OUTER_BOUND ( 'NONE', #227, .T. ) ;
#219 =( CONVERSION_BASED_UNIT ( 'INCH', #25 ) LENGTH_UNIT ( ) NAMED_UNIT ( #3 ) );
#220 = MANIFOLD_SOLID_BREP ( 'Revolve - Cutting Edge', #235 ) ;
#221 = CYLINDRICAL_SURFACE ( 'NONE', #15, 0.1250000000000000278 ) ;
#222 = COLOUR_RGB ( '',0.7921568627450980005, 0.8196078431372548767, 0.9333333333333333481 ) ;
#223 = ORIENTED_EDGE ( 'NONE', *, *, #307, .F. ) ;
#224 =( NAMED_UNIT ( * ) SI_UNIT ( $, .STERADIAN. ) SOLID_ANGLE_UNIT ( ) );
#225 = CARTESIAN_POINT ( 'NONE',  ( 1.530808498934191509E-17, 0.000000000000000000, 0.1250000000000000000 ) ) ;
#226 = ORIENTED_EDGE ( 'NONE', *, *, #307, .T. ) ;
#227 = EDGE_LOOP ( 'NONE', ( #14, #95 ) ) ;
#228 = AXIS2_PLACEMENT_3D ( 'NONE', #147, #73, #245 ) ;
#229 = ORIENTED_EDGE ( 'NONE', *, *, #2, .F. ) ;
#230 = DIRECTION ( 'NONE',  ( -3.061616997868386099E-17, 1.000000000000000000, 0.000000000000000000 ) ) ;
#231 = PRODUCT_CONTEXT ( 'NONE', #190, 'mechanical' ) ;
#232 = UNCERTAINTY_MEASURE_WITH_UNIT (LENGTH_MEASURE( 1.000000000000000082E-05 ), #60, 'distance_accuracy_value', 'NONE');
#233 =( NAMED_UNIT ( * ) SI_UNIT ( $, .STERADIAN. ) SOLID_ANGLE_UNIT ( ) );
#234 = DIRECTION ( 'NONE',  ( 0.000000000000000000, 0.000000000000000000, -1.000000000000000000 ) ) ;
#235 = CLOSED_SHELL ( 'NONE', ( #171, #116, #127, #118 ) ) ;
#236 = STYLED_ITEM ( 'NONE', ( #31 ), #220 ) ;
#237 = SURFACE_SIDE_STYLE ('',( #68 ) ) ;
#238 = FILL_AREA_STYLE ('',( #193 ) ) ;
#239 =( LENGTH_UNIT ( ) NAMED_UNIT ( * ) SI_UNIT ( $, .METRE. ) );
#240 = DIRECTION ( 'NONE',  ( 1.000000000000000000, 3.061616997868386099E-17, 0.000000000000000000 ) ) ;
#241 = CIRCLE ( 'NONE', #212, 0.1250000000000000000 ) ;
#242 =( GEOMETRIC_REPRESENTATION_CONTEXT ( 3 ) GLOBAL_UNCERTAINTY_ASSIGNED_CONTEXT ( ( #232 ) ) GLOBAL_UNIT_ASSIGNED_CONTEXT ( ( #60, #293, #224 ) ) REPRESENTATION_CONTEXT ( 'NONE', 'WORKASPACE' ) );
#243 = SURFACE_STYLE_USAGE ( .BOTH. , #271 ) ;
#244 = ORIENTED_EDGE ( 'NONE', *, *, #257, .F. ) ;
#245 = DIRECTION ( 'NONE',  ( -1.000000000000000000, 0.000000000000000000, 0.000000000000000000 ) ) ;
#246 = PRESENTATION_STYLE_ASSIGNMENT (( #243 ) ) ;
#247 = DIRECTION ( 'NONE',  ( -0.000000000000000000, -1.000000000000000000, -0.000000000000000000 ) ) ;
#248 = FACE_OUTER_BOUND ( 'NONE', #53, .T. ) ;
#249 = ORIENTED_EDGE ( 'NONE', *, *, #13, .F. ) ;
#250 = CARTESIAN_POINT ( 'NONE',  ( 0.1249999999999999445, 3.000000000000000444, 1.530808498934191817E-17 ) ) ;
#251 = APPLICATION_PROTOCOL_DEFINITION ( 'draft international standard', 'automotive_design', 1998, #100 ) ;
#252 = DIRECTION ( 'NONE',  ( -0.000000000000000000, -1.000000000000000000, -0.000000000000000000 ) ) ;
#253 = ADVANCED_FACE ( 'NONE', ( #308 ), #221, .T. ) ;
#254 = VERTEX_POINT ( 'NONE', #104 ) ;
#255 =( CONVERSION_BASED_UNIT ( 'INCH', #91 ) LENGTH_UNIT ( ) NAMED_UNIT ( #216 ) );
#256 = AXIS2_PLACEMENT_3D ( 'NONE', #36, #185, #16 ) ;
#257 = EDGE_CURVE ( 'NONE', #254, #152, #268, .T. ) ;
#258 = DIRECTION ( 'NONE',  ( 0.000000000000000000, 0.000000000000000000, -1.000000000000000000 ) ) ;
#259 =( GEOMETRIC_REPRESENTATION_CONTEXT ( 3 ) GLOBAL_UNCERTAINTY_ASSIGNED_CONTEXT ( ( #282 ) ) GLOBAL_UNIT_ASSIGNED_CONTEXT ( ( #291, #290, #146 ) ) REPRESENTATION_CONTEXT ( 'NONE', 'WORKASPACE' ) );
#260 = DIMENSIONAL_EXPONENTS ( 1.000000000000000000, 0.000000000000000000, 0.000000000000000000, 0.000000000000000000, 0.000000000000000000, 0.000000000000000000, 0.000000000000000000 ) ;
#261 = DIRECTION ( 'NONE',  ( -3.061616997868386099E-17, 1.000000000000000000, -0.000000000000000000 ) ) ;
#262 = ADVANCED_FACE ( 'NONE', ( #289 ), #78, .T. ) ;
#263 =( NAMED_UNIT ( * ) PLANE_ANGLE_UNIT ( ) SI_UNIT ( $, .RADIAN. ) );
#264 = SURFACE_STYLE_USAGE ( .BOTH. , #266 ) ;
#265 = VECTOR ( 'NONE', #17, 39.37007874015748143 ) ;
#266 = SURFACE_SIDE_STYLE ('',( #170 ) ) ;
#267 = DIRECTION ( 'NONE',  ( -1.000000000000000000, 0.000000000000000000, 0.000000000000000000 ) ) ;
#268 = LINE ( 'NONE', #225, #6 ) ;
#269 = VERTEX_POINT ( 'NONE', #166 ) ;
#270 = PRESENTATION_LAYER_ASSIGNMENT (  '', '', ( #94 ) ) ;
#271 = SURFACE_SIDE_STYLE ('',( #56 ) ) ;
#272 = AXIS2_PLACEMENT_3D ( 'NONE', #107, #81, #52 ) ;
#273 = ORIENTED_EDGE ( 'NONE', *, *, #257, .T. ) ;
#274 = DIRECTION ( 'NONE',  ( -1.000000000000000000, 0.000000000000000000, 0.000000000000000000 ) ) ;
#275 = CARTESIAN_POINT ( 'NONE',  ( 0.1250000000000000000, 3.000000000000000444, 1.530808498934192125E-17 ) ) ;
#276 = CIRCLE ( 'NONE', #256, 0.1250000000000000000 ) ;
#277 =( GEOMETRIC_REPRESENTATION_CONTEXT ( 3 ) GLOBAL_UNCERTAINTY_ASSIGNED_CONTEXT ( ( #209 ) ) GLOBAL_UNIT_ASSIGNED_CONTEXT ( ( #173, #194, #153 ) ) REPRESENTATION_CONTEXT ( 'NONE', 'WORKASPACE' ) );
#278 = DIRECTION ( 'NONE',  ( -1.000000000000000000, 0.000000000000000000, 0.000000000000000000 ) ) ;
#279 =( CONVERSION_BASED_UNIT ( 'INCH', #302 ) LENGTH_UNIT ( ) NAMED_UNIT ( #202 ) );
#280 = FILL_AREA_STYLE ('',( #45 ) ) ;
#281 = CIRCLE ( 'NONE', #191, 0.1249999999999999861 ) ;
#282 = UNCERTAINTY_MEASURE_WITH_UNIT (LENGTH_MEASURE( 1.000000000000000082E-05 ), #291, 'distance_accuracy_value', 'NONE');
#283 = SURFACE_STYLE_FILL_AREA ( #238 ) ;
#284 = CARTESIAN_POINT ( 'NONE',  ( -6.123233995736772199E-17, 3.000000000000000444, 0.000000000000000000 ) ) ;
#285 = EDGE_CURVE ( 'NONE', #254, #298, #281, .T. ) ;
#286 = VECTOR ( 'NONE', #261, 39.37007874015748143 ) ;
#287 = FILL_AREA_STYLE ('',( #55 ) ) ;
#288 = CARTESIAN_POINT ( 'NONE',  ( 0.000000000000000000, 0.000000000000000000, 0.000000000000000000 ) ) ;
#289 = FACE_OUTER_BOUND ( 'NONE', #74, .T. ) ;
#290 =( NAMED_UNIT ( * ) PLANE_ANGLE_UNIT ( ) SI_UNIT ( $, .RADIAN. ) );
#291 =( CONVERSION_BASED_UNIT ( 'INCH', #215 ) LENGTH_UNIT ( ) NAMED_UNIT ( #260 ) );
#292 = AXIS2_PLACEMENT_3D ( 'NONE', #92, #217, #240 ) ;
#293 =( NAMED_UNIT ( * ) PLANE_ANGLE_UNIT ( ) SI_UNIT ( $, .RADIAN. ) );
#294 = DIRECTION ( 'NONE',  ( -0.000000000000000000, -1.000000000000000000, -0.000000000000000000 ) ) ;
#295 = VERTEX_POINT ( 'NONE', #201 ) ;
#296 = DIRECTION ( 'NONE',  ( -3.061616997868386099E-17, 1.000000000000000000, -0.000000000000000000 ) ) ;
#297 = CIRCLE ( 'NONE', #90, 0.1249999999999999861 ) ;
#298 = VERTEX_POINT ( 'NONE', #33 ) ;
#299 = DIRECTION ( 'NONE',  ( -0.000000000000000000, -1.000000000000000000, -0.000000000000000000 ) ) ;
#300 = DIRECTION ( 'NONE',  ( -3.061616997868386099E-17, 1.000000000000000000, -0.000000000000000000 ) ) ;
#301 = FACE_OUTER_BOUND ( 'NONE', #172, .T. ) ;
#302 = LENGTH_MEASURE_WITH_UNIT ( LENGTH_MEASURE( 0.02539999999999999897 ), #125 );
#303 = SURFACE_STYLE_USAGE ( .BOTH. , #18 ) ;
#304 = UNCERTAINTY_MEASURE_WITH_UNIT (LENGTH_MEASURE( 1.000000000000000082E-05 ), #255, 'distance_accuracy_value', 'NONE');
#305 = CARTESIAN_POINT ( 'NONE',  ( -0.1250000000000000833, 3.000000000000000444, 0.000000000000000000 ) ) ;
#306 =( NAMED_UNIT ( * ) PLANE_ANGLE_UNIT ( ) SI_UNIT ( $, .RADIAN. ) );
#307 = EDGE_CURVE ( 'NONE', #298, #254, #297, .T. ) ;
#308 = FACE_OUTER_BOUND ( 'NONE', #111, .T. ) ;
#309 = VECTOR ( 'NONE', #252, 39.37007874015748143 ) ;
ENDSEC;
END-ISO-10303-21;
