ISO-10303-21;
HEADER;
FILE_DESCRIPTION (( 'STEP AP214' ),
    '1' );
FILE_NAME ('Micro_RSC-187-13.STEP',
    '2021-09-03T17:45:20',
    ( '' ),
    ( '' ),
    'SwSTEP 2.0',
    'SolidWorks 2020',
    '' );
FILE_SCHEMA (( 'AUTOMOTIVE_DESIGN' ));
ENDSEC;

DATA;
#1 = FACE_OUTER_BOUND ( 'NONE', #166, .T. ) ;
#2 = CARTESIAN_POINT ( 'NONE',  ( 0.0000000000000000000, 0.0000000000000000000, 3.000000000000000444 ) ) ;
#3 = CARTESIAN_POINT ( 'NONE',  ( -0.07875000000000088873, 0.0000000000000000000, 3.000000000000000444 ) ) ;
#4 = AXIS2_PLACEMENT_3D ( 'NONE', #222, #227, #23 ) ;
#5 = SURFACE_STYLE_FILL_AREA ( #64 ) ;
#6 = ADVANCED_FACE ( 'NONE', ( #155 ), #234, .T. ) ;
#7 = SURFACE_SIDE_STYLE ('',( #5 ) ) ;
#8 = CARTESIAN_POINT ( 'NONE',  ( -0.003999999999999999216, 5.985461230832687873E-18, 0.0000000000000000000 ) ) ;
#9 = CARTESIAN_POINT ( 'NONE',  ( 0.0000000000000000000, 0.0000000000000000000, 0.1554515599793062086 ) ) ;
#10 = AXIS2_PLACEMENT_3D ( 'NONE', #121, #98, #237 ) ;
#11 = CARTESIAN_POINT ( 'NONE',  ( 0.07875000000000088873, 1.056257864264597506E-17, 3.000000000000000444 ) ) ;
#12 = LINE ( 'NONE', #159, #26 ) ;
#13 = CARTESIAN_POINT ( 'NONE',  ( 0.0000000000000000000, 0.0000000000000000000, 0.0000000000000000000 ) ) ;
#14 = CONICAL_SURFACE ( 'NONE', #34, 0.07875000000000088873, 0.7853981633974107535 ) ;
#15 = VERTEX_POINT ( 'NONE', #3 ) ;
#16 = FILL_AREA_STYLE ('',( #185 ) ) ;
#17 = ORIENTED_EDGE ( 'NONE', *, *, #209, .T. ) ;
#18 = ADVANCED_FACE ( 'NONE', ( #1 ), #144, .T. ) ;
#19 = DIMENSIONAL_EXPONENTS ( 1.000000000000000000, 0.0000000000000000000, 0.0000000000000000000, 0.0000000000000000000, 0.0000000000000000000, 0.0000000000000000000, 0.0000000000000000000 ) ;
#20 = PRODUCT_CONTEXT ( 'NONE', #190, 'mechanical' ) ;
#21 =( GEOMETRIC_REPRESENTATION_CONTEXT ( 3 ) GLOBAL_UNCERTAINTY_ASSIGNED_CONTEXT ( ( #62 ) ) GLOBAL_UNIT_ASSIGNED_CONTEXT ( ( #52, #118, #38 ) ) REPRESENTATION_CONTEXT ( 'NONE', 'WORKASPACE' ) );
#22 = EDGE_LOOP ( 'NONE', ( #115, #230 ) ) ;
#23 = DIRECTION ( 'NONE',  ( 1.000000000000000000, 0.0000000000000000000, 0.0000000000000000000 ) ) ;
#24 = ADVANCED_FACE ( 'NONE', ( #82 ), #192, .T. ) ;
#25 = CARTESIAN_POINT ( 'NONE',  ( 0.003999999999999999216, 0.0000000000000000000, 0.0000000000000000000 ) ) ;
#26 = VECTOR ( 'NONE', #66, 39.37007874015748854 ) ;
#27 = DIRECTION ( 'NONE',  ( 0.0000000000000000000, 0.0000000000000000000, -1.000000000000000000 ) ) ;
#28 = DIRECTION ( 'NONE',  ( -1.000000000000000000, 0.0000000000000000000, 0.0000000000000000000 ) ) ;
#29 = DIRECTION ( 'NONE',  ( -0.0000000000000000000, -0.0000000000000000000, -1.000000000000000000 ) ) ;
#30 = CIRCLE ( 'NONE', #163, 0.003999999999999999216 ) ;
#31 = UNCERTAINTY_MEASURE_WITH_UNIT (LENGTH_MEASURE( 1.000000000000000082E-05 ), #173, 'distance_accuracy_value', 'NONE');
#32 = CARTESIAN_POINT ( 'NONE',  ( -0.003999999999999999216, 4.898587196589411612E-19, 0.0000000000000000000 ) ) ;
#33 = DIRECTION ( 'NONE',  ( -0.5000000000000012212, 6.123233995736780827E-17, 0.8660254037844377084 ) ) ;
#34 = AXIS2_PLACEMENT_3D ( 'NONE', #178, #99, #50 ) ;
#35 = DIRECTION ( 'NONE',  ( -0.7071067811865209274, 0.0000000000000000000, -0.7071067811865739960 ) ) ;
#36 = CARTESIAN_POINT ( 'NONE',  ( -0.09375000000000001388, 0.0000000000000000000, 3.000000000000000444 ) ) ;
#37 = EDGE_CURVE ( 'NONE', #186, #150, #193, .T. ) ;
#38 =( NAMED_UNIT ( * ) SI_UNIT ( $, .STERADIAN. ) SOLID_ANGLE_UNIT ( ) );
#39 = CIRCLE ( 'NONE', #100, 0.09375000000000001388 ) ;
#40 = EDGE_CURVE ( 'NONE', #139, #41, #30, .T. ) ;
#41 = VERTEX_POINT ( 'NONE', #25 ) ;
#42 =( NAMED_UNIT ( * ) PLANE_ANGLE_UNIT ( ) SI_UNIT ( $, .RADIAN. ) );
#43 = DIRECTION ( 'NONE',  ( -0.0000000000000000000, -0.0000000000000000000, -1.000000000000000000 ) ) ;
#44 = DIRECTION ( 'NONE',  ( -1.000000000000000000, 0.0000000000000000000, 0.0000000000000000000 ) ) ;
#45 = ADVANCED_FACE ( 'NONE', ( #214 ), #63, .T. ) ;
#46 = FILL_AREA_STYLE_COLOUR ( '', #47 ) ;
#47 = COLOUR_RGB ( '',0.7921568627450980005, 0.8196078431372548767, 0.9333333333333333481 ) ;
#48 = DIRECTION ( 'NONE',  ( 1.000000000000000000, 0.0000000000000000000, -0.0000000000000000000 ) ) ;
#49 = DIRECTION ( 'NONE',  ( -1.000000000000000000, 0.0000000000000000000, 0.0000000000000000000 ) ) ;
#50 = DIRECTION ( 'NONE',  ( -1.000000000000000000, 0.0000000000000000000, 0.0000000000000000000 ) ) ;
#51 = STYLED_ITEM ( 'NONE', ( #124 ), #111 ) ;
#52 =( CONVERSION_BASED_UNIT ( 'INCH', #221 ) LENGTH_UNIT ( ) NAMED_UNIT ( #71 ) );
#53 = VECTOR ( 'NONE', #33, 39.37007874015748854 ) ;
#54 = ORIENTED_EDGE ( 'NONE', *, *, #243, .T. ) ;
#55 = DIMENSIONAL_EXPONENTS ( 1.000000000000000000, 0.0000000000000000000, 0.0000000000000000000, 0.0000000000000000000, 0.0000000000000000000, 0.0000000000000000000, 0.0000000000000000000 ) ;
#56 = APPLICATION_PROTOCOL_DEFINITION ( 'draft international standard', 'automotive_design', 1998, #208 ) ;
#57 = VERTEX_POINT ( 'NONE', #96 ) ;
#58 = ORIENTED_EDGE ( 'NONE', *, *, #177, .T. ) ;
#59 = DIRECTION ( 'NONE',  ( 0.0000000000000000000, 0.0000000000000000000, 1.000000000000000000 ) ) ;
#60 = CARTESIAN_POINT ( 'NONE',  ( 0.0000000000000000000, 0.0000000000000000000, 0.0000000000000000000 ) ) ;
#61 = ADVANCED_FACE ( 'NONE', ( #79 ), #175, .T. ) ;
#62 = UNCERTAINTY_MEASURE_WITH_UNIT (LENGTH_MEASURE( 1.000000000000000082E-05 ), #52, 'distance_accuracy_value', 'NONE');
#63 = CONICAL_SURFACE ( 'NONE', #104, 0.07875000000000088873, 0.7853981633974107535 ) ;
#64 = FILL_AREA_STYLE ('',( #46 ) ) ;
#65 = SURFACE_STYLE_USAGE ( .BOTH. , #7 ) ;
#66 = DIRECTION ( 'NONE',  ( 0.5000000000000012212, 0.0000000000000000000, 0.8660254037844377084 ) ) ;
#67 = DIRECTION ( 'NONE',  ( -0.0000000000000000000, -0.0000000000000000000, -1.000000000000000000 ) ) ;
#68 = EDGE_CURVE ( 'NONE', #41, #139, #132, .T. ) ;
#69 = AXIS2_PLACEMENT_3D ( 'NONE', #2, #43, #194 ) ;
#70 = LINE ( 'NONE', #32, #53 ) ;
#71 = DIMENSIONAL_EXPONENTS ( 1.000000000000000000, 0.0000000000000000000, 0.0000000000000000000, 0.0000000000000000000, 0.0000000000000000000, 0.0000000000000000000, 0.0000000000000000000 ) ;
#72 = ORIENTED_EDGE ( 'NONE', *, *, #247, .F. ) ;
#73 =( NAMED_UNIT ( * ) PLANE_ANGLE_UNIT ( ) SI_UNIT ( $, .RADIAN. ) );
#74 =( LENGTH_UNIT ( ) NAMED_UNIT ( * ) SI_UNIT ( $, .METRE. ) );
#75 = LENGTH_MEASURE_WITH_UNIT ( LENGTH_MEASURE( 0.02539999999999999897 ), #74 );
#76 = ORIENTED_EDGE ( 'NONE', *, *, #169, .T. ) ;
#77 = VECTOR ( 'NONE', #67, 39.37007874015748143 ) ;
#78 = ORIENTED_EDGE ( 'NONE', *, *, #247, .T. ) ;
#79 = FACE_OUTER_BOUND ( 'NONE', #91, .T. ) ;
#80 = DIRECTION ( 'NONE',  ( 1.000000000000000000, 0.0000000000000000000, 0.0000000000000000000 ) ) ;
#81 = MECHANICAL_DESIGN_GEOMETRIC_PRESENTATION_REPRESENTATION (  '', ( #51 ), #107 ) ;
#82 = FACE_OUTER_BOUND ( 'NONE', #105, .T. ) ;
#83 = CARTESIAN_POINT ( 'NONE',  ( 0.0000000000000000000, 0.0000000000000000000, 3.000000000000000444 ) ) ;
#84 = CARTESIAN_POINT ( 'NONE',  ( -0.09375000000000001388, 0.0000000000000000000, 2.984999999999999876 ) ) ;
#85 = STYLED_ITEM ( 'NONE', ( #137 ), #110 ) ;
#86 = DIRECTION ( 'NONE',  ( -1.000000000000000000, 0.0000000000000000000, 0.0000000000000000000 ) ) ;
#87 = FACE_OUTER_BOUND ( 'NONE', #22, .T. ) ;
#88 = CIRCLE ( 'NONE', #224, 0.09375000000000001388 ) ;
#89 = DIRECTION ( 'NONE',  ( 0.0000000000000000000, 0.0000000000000000000, 1.000000000000000000 ) ) ;
#90 = PRODUCT_RELATED_PRODUCT_CATEGORY ( 'part', '', ( #143 ) ) ;
#91 = EDGE_LOOP ( 'NONE', ( #245, #226, #108, #126 ) ) ;
#92 = CIRCLE ( 'NONE', #180, 0.09375000000000001388 ) ;
#93 = ORIENTED_EDGE ( 'NONE', *, *, #68, .T. ) ;
#94 = DIRECTION ( 'NONE',  ( 1.000000000000000000, 0.0000000000000000000, 0.0000000000000000000 ) ) ;
#95 = DIRECTION ( 'NONE',  ( 1.000000000000000000, 0.0000000000000000000, 0.0000000000000000000 ) ) ;
#96 = CARTESIAN_POINT ( 'NONE',  ( -0.09375000000000001388, 0.0000000000000000000, 0.1554515599793062086 ) ) ;
#97 = CARTESIAN_POINT ( 'NONE',  ( 0.0000000000000000000, 0.0000000000000000000, 3.000000000000000444 ) ) ;
#98 = DIRECTION ( 'NONE',  ( 0.0000000000000000000, 0.0000000000000000000, 1.000000000000000000 ) ) ;
#99 = DIRECTION ( 'NONE',  ( 0.0000000000000000000, 0.0000000000000000000, -1.000000000000000000 ) ) ;
#100 = AXIS2_PLACEMENT_3D ( 'NONE', #170, #217, #80 ) ;
#101 = DIRECTION ( 'NONE',  ( 0.0000000000000000000, 0.0000000000000000000, -1.000000000000000000 ) ) ;
#102 = FACE_OUTER_BOUND ( 'NONE', #133, .T. ) ;
#103 = EDGE_CURVE ( 'NONE', #15, #186, #196, .T. ) ;
#104 = AXIS2_PLACEMENT_3D ( 'NONE', #83, #27, #28 ) ;
#105 = EDGE_LOOP ( 'NONE', ( #58, #232, #130, #72 ) ) ;
#106 = EDGE_CURVE ( 'NONE', #150, #165, #39, .T. ) ;
#107 =( GEOMETRIC_REPRESENTATION_CONTEXT ( 3 ) GLOBAL_UNCERTAINTY_ASSIGNED_CONTEXT ( ( #122 ) ) GLOBAL_UNIT_ASSIGNED_CONTEXT ( ( #183, #73, #204 ) ) REPRESENTATION_CONTEXT ( 'NONE', 'WORKASPACE' ) );
#108 = ORIENTED_EDGE ( 'NONE', *, *, #147, .T. ) ;
#109 = DIRECTION ( 'NONE',  ( -0.0000000000000000000, -0.0000000000000000000, -1.000000000000000000 ) ) ;
#110 = MANIFOLD_SOLID_BREP ( 'Cut-Revolve1', #233 ) ;
#111 = ADVANCED_BREP_SHAPE_REPRESENTATION ( 'Micro_RSC-187-13', ( #110, #4 ), #21 ) ;
#112 = DIRECTION ( 'NONE',  ( 0.7071067811865209274, 8.659560562354606220E-17, -0.7071067811865739960 ) ) ;
#113 = CIRCLE ( 'NONE', #10, 0.07875000000000088873 ) ;
#114 = DIRECTION ( 'NONE',  ( 0.0000000000000000000, 0.0000000000000000000, 1.000000000000000000 ) ) ;
#115 = ORIENTED_EDGE ( 'NONE', *, *, #103, .T. ) ;
#116 = CARTESIAN_POINT ( 'NONE',  ( 0.0000000000000000000, 0.0000000000000000000, 0.0000000000000000000 ) ) ;
#117 = AXIS2_PLACEMENT_3D ( 'NONE', #13, #89, #48 ) ;
#118 =( NAMED_UNIT ( * ) PLANE_ANGLE_UNIT ( ) SI_UNIT ( $, .RADIAN. ) );
#119 = PLANE ( 'NONE',  #157 ) ;
#120 = DIRECTION ( 'NONE',  ( 1.000000000000000000, 0.0000000000000000000, 0.0000000000000000000 ) ) ;
#121 = CARTESIAN_POINT ( 'NONE',  ( 0.0000000000000000000, 0.0000000000000000000, 3.000000000000000444 ) ) ;
#122 = UNCERTAINTY_MEASURE_WITH_UNIT (LENGTH_MEASURE( 1.000000000000000082E-05 ), #183, 'distance_accuracy_value', 'NONE');
#123 = CARTESIAN_POINT ( 'NONE',  ( 0.0000000000000000000, 0.0000000000000000000, 2.984999999999999876 ) ) ;
#124 = PRESENTATION_STYLE_ASSIGNMENT (( #164 ) ) ;
#125 = AXIS2_PLACEMENT_3D ( 'NONE', #152, #197, #49 ) ;
#126 = ORIENTED_EDGE ( 'NONE', *, *, #128, .T. ) ;
#127 = ORIENTED_EDGE ( 'NONE', *, *, #40, .T. ) ;
#128 = EDGE_CURVE ( 'NONE', #207, #57, #148, .T. ) ;
#129 = SHAPE_DEFINITION_REPRESENTATION ( #131, #111 ) ;
#130 = ORIENTED_EDGE ( 'NONE', *, *, #243, .F. ) ;
#131 = PRODUCT_DEFINITION_SHAPE ( 'NONE', 'NONE',  #138 ) ;
#132 = CIRCLE ( 'NONE', #167, 0.003999999999999999216 ) ;
#133 = EDGE_LOOP ( 'NONE', ( #211, #223, #184, #145 ) ) ;
#134 = DIRECTION ( 'NONE',  ( -1.000000000000000000, 0.0000000000000000000, 0.0000000000000000000 ) ) ;
#135 = DIRECTION ( 'NONE',  ( -0.0000000000000000000, -0.0000000000000000000, -1.000000000000000000 ) ) ;
#136 = PRESENTATION_LAYER_ASSIGNMENT (  '', '', ( #85 ) ) ;
#137 = PRESENTATION_STYLE_ASSIGNMENT (( #65 ) ) ;
#138 = PRODUCT_DEFINITION ( 'UNKNOWN', '', #153, #241 ) ;
#139 = VERTEX_POINT ( 'NONE', #8 ) ;
#140 =( NAMED_UNIT ( * ) SI_UNIT ( $, .STERADIAN. ) SOLID_ANGLE_UNIT ( ) );
#141 = CARTESIAN_POINT ( 'NONE',  ( 0.09375000000000001388, 1.148106374200643401E-17, 0.1554515599793062086 ) ) ;
#142 = SURFACE_SIDE_STYLE ('',( #181 ) ) ;
#143 = PRODUCT ( 'Micro_RSC-187-13', 'Micro_RSC-187-13', '', ( #20 ) ) ;
#144 = CONICAL_SURFACE ( 'NONE', #238, 0.003999999999999999216, 0.5235987755983003700 ) ;
#145 = ORIENTED_EDGE ( 'NONE', *, *, #169, .F. ) ;
#146 = ORIENTED_EDGE ( 'NONE', *, *, #182, .F. ) ;
#147 = EDGE_CURVE ( 'NONE', #41, #207, #12, .T. ) ;
#148 = CIRCLE ( 'NONE', #125, 0.09375000000000001388 ) ;
#149 = ORIENTED_EDGE ( 'NONE', *, *, #103, .F. ) ;
#150 = VERTEX_POINT ( 'NONE', #244 ) ;
#151 = DIRECTION ( 'NONE',  ( 0.0000000000000000000, 0.0000000000000000000, 1.000000000000000000 ) ) ;
#152 = CARTESIAN_POINT ( 'NONE',  ( 0.0000000000000000000, 0.0000000000000000000, 0.1554515599793062086 ) ) ;
#153 = PRODUCT_DEFINITION_FORMATION_WITH_SPECIFIED_SOURCE ( 'ANY', '', #143, .NOT_KNOWN. ) ;
#154 = CARTESIAN_POINT ( 'NONE',  ( 0.07875000000000088873, 9.644093543285513034E-18, 3.000000000000000444 ) ) ;
#155 = FACE_OUTER_BOUND ( 'NONE', #248, .T. ) ;
#156 = DIRECTION ( 'NONE',  ( 1.000000000000000000, 0.0000000000000000000, -0.0000000000000000000 ) ) ;
#157 = AXIS2_PLACEMENT_3D ( 'NONE', #179, #158, #156 ) ;
#158 = DIRECTION ( 'NONE',  ( 0.0000000000000000000, 0.0000000000000000000, 1.000000000000000000 ) ) ;
#159 = CARTESIAN_POINT ( 'NONE',  ( 0.003999999999999999216, 0.0000000000000000000, 0.0000000000000000000 ) ) ;
#160 = DIRECTION ( 'NONE',  ( -0.0000000000000000000, -0.0000000000000000000, -1.000000000000000000 ) ) ;
#161 = MECHANICAL_DESIGN_GEOMETRIC_PRESENTATION_REPRESENTATION (  '', ( #85 ), #249 ) ;
#162 = ORIENTED_EDGE ( 'NONE', *, *, #147, .F. ) ;
#163 = AXIS2_PLACEMENT_3D ( 'NONE', #235, #29, #134 ) ;
#164 = SURFACE_STYLE_USAGE ( .BOTH. , #142 ) ;
#165 = VERTEX_POINT ( 'NONE', #84 ) ;
#166 = EDGE_LOOP ( 'NONE', ( #246, #17, #54, #162 ) ) ;
#167 = AXIS2_PLACEMENT_3D ( 'NONE', #60, #135, #44 ) ;
#168 = CARTESIAN_POINT ( 'NONE',  ( 0.0000000000000000000, 0.0000000000000000000, 0.0000000000000000000 ) ) ;
#169 = EDGE_CURVE ( 'NONE', #15, #165, #219, .T. ) ;
#170 = CARTESIAN_POINT ( 'NONE',  ( 0.0000000000000000000, 0.0000000000000000000, 2.984999999999999876 ) ) ;
#171 = DIRECTION ( 'NONE',  ( 1.000000000000000000, 0.0000000000000000000, 0.0000000000000000000 ) ) ;
#172 = VECTOR ( 'NONE', #35, 39.37007874015748854 ) ;
#173 =( CONVERSION_BASED_UNIT ( 'INCH', #191 ) LENGTH_UNIT ( ) NAMED_UNIT ( #19 ) );
#174 = ADVANCED_FACE ( 'NONE', ( #87 ), #119, .T. ) ;
#175 = CONICAL_SURFACE ( 'NONE', #242, 0.003999999999999999216, 0.5235987755983003700 ) ;
#176 =( LENGTH_UNIT ( ) NAMED_UNIT ( * ) SI_UNIT ( $, .METRE. ) );
#177 = EDGE_CURVE ( 'NONE', #165, #150, #88, .T. ) ;
#178 = CARTESIAN_POINT ( 'NONE',  ( 0.0000000000000000000, 0.0000000000000000000, 3.000000000000000444 ) ) ;
#179 = CARTESIAN_POINT ( 'NONE',  ( 0.0000000000000000000, 0.0000000000000000000, 3.000000000000000444 ) ) ;
#180 = AXIS2_PLACEMENT_3D ( 'NONE', #9, #201, #86 ) ;
#181 = SURFACE_STYLE_FILL_AREA ( #16 ) ;
#182 = EDGE_CURVE ( 'NONE', #150, #207, #220, .T. ) ;
#183 =( CONVERSION_BASED_UNIT ( 'INCH', #75 ) LENGTH_UNIT ( ) NAMED_UNIT ( #55 ) );
#184 = ORIENTED_EDGE ( 'NONE', *, *, #177, .F. ) ;
#185 = FILL_AREA_STYLE_COLOUR ( '', #218 ) ;
#186 = VERTEX_POINT ( 'NONE', #11 ) ;
#187 = PRESENTATION_LAYER_ASSIGNMENT (  '', '', ( #51 ) ) ;
#188 = EDGE_LOOP ( 'NONE', ( #189, #149, #76, #210 ) ) ;
#189 = ORIENTED_EDGE ( 'NONE', *, *, #37, .F. ) ;
#190 = APPLICATION_CONTEXT ( 'automotive_design' ) ;
#191 = LENGTH_MEASURE_WITH_UNIT ( LENGTH_MEASURE( 0.02539999999999999897 ), #236 );
#192 = CYLINDRICAL_SURFACE ( 'NONE', #69, 0.09375000000000001388 ) ;
#193 = LINE ( 'NONE', #154, #200 ) ;
#194 = DIRECTION ( 'NONE',  ( -1.000000000000000000, 0.0000000000000000000, 0.0000000000000000000 ) ) ;
#195 = ADVANCED_FACE ( 'NONE', ( #239 ), #199, .F. ) ;
#196 = CIRCLE ( 'NONE', #213, 0.07875000000000088873 ) ;
#197 = DIRECTION ( 'NONE',  ( -0.0000000000000000000, -0.0000000000000000000, -1.000000000000000000 ) ) ;
#198 = CARTESIAN_POINT ( 'NONE',  ( 0.09375000000000001388, 1.148106374200643401E-17, 3.000000000000000444 ) ) ;
#199 = PLANE ( 'NONE',  #117 ) ;
#200 = VECTOR ( 'NONE', #112, 39.37007874015748854 ) ;
#201 = DIRECTION ( 'NONE',  ( -0.0000000000000000000, -0.0000000000000000000, -1.000000000000000000 ) ) ;
#202 = CARTESIAN_POINT ( 'NONE',  ( -0.07875000000000088873, 0.0000000000000000000, 3.000000000000000444 ) ) ;
#203 = AXIS2_PLACEMENT_3D ( 'NONE', #231, #109, #215 ) ;
#204 =( NAMED_UNIT ( * ) SI_UNIT ( $, .STERADIAN. ) SOLID_ANGLE_UNIT ( ) );
#205 = ORIENTED_EDGE ( 'NONE', *, *, #106, .T. ) ;
#206 = EDGE_LOOP ( 'NONE', ( #93, #127 ) ) ;
#207 = VERTEX_POINT ( 'NONE', #141 ) ;
#208 = APPLICATION_CONTEXT ( 'automotive_design' ) ;
#209 = EDGE_CURVE ( 'NONE', #139, #57, #70, .T. ) ;
#210 = ORIENTED_EDGE ( 'NONE', *, *, #106, .F. ) ;
#211 = ORIENTED_EDGE ( 'NONE', *, *, #212, .F. ) ;
#212 = EDGE_CURVE ( 'NONE', #186, #15, #113, .T. ) ;
#213 = AXIS2_PLACEMENT_3D ( 'NONE', #97, #114, #171 ) ;
#214 = FACE_OUTER_BOUND ( 'NONE', #188, .T. ) ;
#215 = DIRECTION ( 'NONE',  ( -1.000000000000000000, 0.0000000000000000000, 0.0000000000000000000 ) ) ;
#216 = ADVANCED_FACE ( 'NONE', ( #102 ), #14, .T. ) ;
#217 = DIRECTION ( 'NONE',  ( 0.0000000000000000000, 0.0000000000000000000, -1.000000000000000000 ) ) ;
#218 = COLOUR_RGB ( '',0.7921568627450980005, 0.8196078431372548767, 0.9333333333333333481 ) ;
#219 = LINE ( 'NONE', #202, #172 ) ;
#220 = LINE ( 'NONE', #198, #229 ) ;
#221 = LENGTH_MEASURE_WITH_UNIT ( LENGTH_MEASURE( 0.02539999999999999897 ), #176 );
#222 = CARTESIAN_POINT ( 'NONE',  ( 0.0000000000000000000, 0.0000000000000000000, 0.0000000000000000000 ) ) ;
#223 = ORIENTED_EDGE ( 'NONE', *, *, #37, .T. ) ;
#224 = AXIS2_PLACEMENT_3D ( 'NONE', #123, #101, #120 ) ;
#225 = APPLICATION_PROTOCOL_DEFINITION ( 'draft international standard', 'automotive_design', 1998, #190 ) ;
#226 = ORIENTED_EDGE ( 'NONE', *, *, #68, .F. ) ;
#227 = DIRECTION ( 'NONE',  ( 0.0000000000000000000, 0.0000000000000000000, 1.000000000000000000 ) ) ;
#228 = ORIENTED_EDGE ( 'NONE', *, *, #128, .F. ) ;
#229 = VECTOR ( 'NONE', #160, 39.37007874015748143 ) ;
#230 = ORIENTED_EDGE ( 'NONE', *, *, #212, .T. ) ;
#231 = CARTESIAN_POINT ( 'NONE',  ( 0.0000000000000000000, 0.0000000000000000000, 3.000000000000000444 ) ) ;
#232 = ORIENTED_EDGE ( 'NONE', *, *, #182, .T. ) ;
#233 = CLOSED_SHELL ( 'NONE', ( #18, #216, #24, #6, #174, #45, #61, #195 ) ) ;
#234 = CYLINDRICAL_SURFACE ( 'NONE', #203, 0.09375000000000001388 ) ;
#235 = CARTESIAN_POINT ( 'NONE',  ( 0.0000000000000000000, 0.0000000000000000000, 0.0000000000000000000 ) ) ;
#236 =( LENGTH_UNIT ( ) NAMED_UNIT ( * ) SI_UNIT ( $, .METRE. ) );
#237 = DIRECTION ( 'NONE',  ( 1.000000000000000000, 0.0000000000000000000, 0.0000000000000000000 ) ) ;
#238 = AXIS2_PLACEMENT_3D ( 'NONE', #116, #59, #95 ) ;
#239 = FACE_OUTER_BOUND ( 'NONE', #206, .T. ) ;
#240 = LINE ( 'NONE', #36, #77 ) ;
#241 = PRODUCT_DEFINITION_CONTEXT ( 'detailed design', #208, 'design' ) ;
#242 = AXIS2_PLACEMENT_3D ( 'NONE', #168, #151, #94 ) ;
#243 = EDGE_CURVE ( 'NONE', #57, #207, #92, .T. ) ;
#244 = CARTESIAN_POINT ( 'NONE',  ( 0.09375000000000001388, 1.148106374200643401E-17, 2.984999999999999876 ) ) ;
#245 = ORIENTED_EDGE ( 'NONE', *, *, #209, .F. ) ;
#246 = ORIENTED_EDGE ( 'NONE', *, *, #40, .F. ) ;
#247 = EDGE_CURVE ( 'NONE', #165, #57, #240, .T. ) ;
#248 = EDGE_LOOP ( 'NONE', ( #146, #205, #78, #228 ) ) ;
#249 =( GEOMETRIC_REPRESENTATION_CONTEXT ( 3 ) GLOBAL_UNCERTAINTY_ASSIGNED_CONTEXT ( ( #31 ) ) GLOBAL_UNIT_ASSIGNED_CONTEXT ( ( #173, #42, #140 ) ) REPRESENTATION_CONTEXT ( 'NONE', 'WORKASPACE' ) );
ENDSEC;
END-ISO-10303-21;
