ISO-10303-21;
HEADER;
FILE_DESCRIPTION (( 'STEP AP214' ),
    '1' );
FILE_NAME ('83273.STEP',
    '2023-06-30T22:49:44',
    ( '' ),
    ( '' ),
    'SwSTEP 2.0',
    'SolidWorks 2023',
    '' );
FILE_SCHEMA (( 'AUTOMOTIVE_DESIGN' ));
ENDSEC;

DATA;
#1 = FILL_AREA_STYLE_COLOUR ( '', #240 ) ;
#2 = ADVANCED_FACE ( 'NONE', ( #156 ), #66, .F. ) ;
#3 = UNCERTAINTY_MEASURE_WITH_UNIT (LENGTH_MEASURE( 1.000000000000000082E-05 ), #34, 'distance_accuracy_value', 'NONE');
#4 = SURFACE_STYLE_FILL_AREA ( #324 ) ;
#5 = AXIS2_PLACEMENT_3D ( 'NONE', #137, #312, #80 ) ;
#6 = STYLED_ITEM ( 'NONE', ( #356 ), #323 ) ;
#7 = CYLINDRICAL_SURFACE ( 'NONE', #200, 0.09374999999999968081 ) ;
#8 = FACE_OUTER_BOUND ( 'NONE', #192, .T. ) ;
#9 = EDGE_CURVE ( 'NONE', #327, #94, #216, .T. ) ;
#10 = FILL_AREA_STYLE_COLOUR ( '', #319 ) ;
#11 = EDGE_LOOP ( 'NONE', ( #187, #270, #44, #329, #167 ) ) ;
#12 = CARTESIAN_POINT ( 'NONE',  ( 0.000000000000000000, 0.09375000000000005551, 0.000000000000000000 ) ) ;
#13 = ORIENTED_EDGE ( 'NONE', *, *, #291, .T. ) ;
#14 = EDGE_CURVE ( 'NONE', #43, #252, #67, .T. ) ;
#15 = SURFACE_SIDE_STYLE ('',( #244 ) ) ;
#16 = DIRECTION ( 'NONE',  ( -1.276619254130695212E-16, 1.000000000000000000, -0.000000000000000000 ) ) ;
#17 =( NAMED_UNIT ( * ) PLANE_ANGLE_UNIT ( ) SI_UNIT ( $, .RADIAN. ) );
#18 = ORIENTED_EDGE ( 'NONE', *, *, #14, .F. ) ;
#19 =( NAMED_UNIT ( * ) SI_UNIT ( $, .STERADIAN. ) SOLID_ANGLE_UNIT ( ) );
#20 = ORIENTED_EDGE ( 'NONE', *, *, #106, .T. ) ;
#21 = LENGTH_MEASURE_WITH_UNIT ( LENGTH_MEASURE( 0.02539999999999999897 ), #201 );
#22 = CYLINDRICAL_SURFACE ( 'NONE', #151, 0.09374999999999968081 ) ;
#23 = VECTOR ( 'NONE', #16, 39.37007874015748143 ) ;
#24 = CARTESIAN_POINT ( 'NONE',  ( -1.148106374200644017E-17, 0.09375000000000002776, 0.000000000000000000 ) ) ;
#25 = PRESENTATION_STYLE_ASSIGNMENT (( #50 ) ) ;
#26 = PRESENTATION_STYLE_ASSIGNMENT (( #317 ) ) ;
#27 = CARTESIAN_POINT ( 'NONE',  ( 0.000000000000000000, 0.09375000000000005551, 0.000000000000000000 ) ) ;
#28 = DIRECTION ( 'NONE',  ( 0.000000000000000000, 0.000000000000000000, -1.000000000000000000 ) ) ;
#29 = VECTOR ( 'NONE', #257, 39.37007874015748143 ) ;
#30 = PRODUCT_DEFINITION_FORMATION_WITH_SPECIFIED_SOURCE ( 'ANY', '', #190, .NOT_KNOWN. ) ;
#31 =( CONVERSION_BASED_UNIT ( 'INCH', #292 ) LENGTH_UNIT ( ) NAMED_UNIT ( #38 ) );
#32 = ORIENTED_EDGE ( 'NONE', *, *, #203, .T. ) ;
#33 = DIRECTION ( 'NONE',  ( -1.276619254130695212E-16, 1.000000000000000000, -0.000000000000000000 ) ) ;
#34 =( CONVERSION_BASED_UNIT ( 'INCH', #177 ) LENGTH_UNIT ( ) NAMED_UNIT ( #211 ) );
#35 = DIRECTION ( 'NONE',  ( 0.000000000000000000, 1.000000000000000000, 0.000000000000000000 ) ) ;
#36 = DIRECTION ( 'NONE',  ( -1.000000000000000000, 0.000000000000000000, 0.000000000000000000 ) ) ;
#37 = DIRECTION ( 'NONE',  ( 1.000000000000000000, 0.000000000000000000, 0.000000000000000000 ) ) ;
#38 = DIMENSIONAL_EXPONENTS ( 1.000000000000000000, 0.000000000000000000, 0.000000000000000000, 0.000000000000000000, 0.000000000000000000, 0.000000000000000000, 0.000000000000000000 ) ;
#39 = EDGE_LOOP ( 'NONE', ( #182, #20, #72, #247 ) ) ;
#40 = CIRCLE ( 'NONE', #82, 0.09375000000000002776 ) ;
#41 =( NAMED_UNIT ( * ) PLANE_ANGLE_UNIT ( ) SI_UNIT ( $, .RADIAN. ) );
#42 = ORIENTED_EDGE ( 'NONE', *, *, #138, .T. ) ;
#43 = VERTEX_POINT ( 'NONE', #220 ) ;
#44 = ORIENTED_EDGE ( 'NONE', *, *, #133, .T. ) ;
#45 = FILL_AREA_STYLE ('',( #10 ) ) ;
#46 = CIRCLE ( 'NONE', #157, 0.09375000000000002776 ) ;
#47 = ORIENTED_EDGE ( 'NONE', *, *, #79, .T. ) ;
#48 = CARTESIAN_POINT ( 'NONE',  ( 1.148106374200643092E-17, 0.000000000000000000, 0.09374999999999995837 ) ) ;
#49 = LENGTH_MEASURE_WITH_UNIT ( LENGTH_MEASURE( 0.02539999999999999897 ), #281 );
#50 = SURFACE_STYLE_USAGE ( .BOTH. , #251 ) ;
#51 = COLOUR_RGB ( '',0.7921568627450980005, 0.8196078431372548767, 0.9333333333333333481 ) ;
#52 = DIRECTION ( 'NONE',  ( -1.000000000000000000, 0.000000000000000000, 0.000000000000000000 ) ) ;
#53 = CARTESIAN_POINT ( 'NONE',  ( 6.123233995736759873E-17, 3.000000000000000444, 0.000000000000000000 ) ) ;
#54 = CARTESIAN_POINT ( 'NONE',  ( 0.000000000000000000, 0.000000000000000000, 0.000000000000000000 ) ) ;
#55 = PRESENTATION_STYLE_ASSIGNMENT (( #286 ) ) ;
#56 = EDGE_CURVE ( 'NONE', #245, #219, #308, .T. ) ;
#57 = AXIS2_PLACEMENT_3D ( 'NONE', #24, #28, #225 ) ;
#58 = MANIFOLD_SOLID_BREP ( 'Revolve - Tool Body (Straight Shanked)', #268 ) ;
#59 = AXIS2_PLACEMENT_3D ( 'NONE', #105, #109, #171 ) ;
#60 = PRESENTATION_LAYER_ASSIGNMENT (  '', '', ( #6 ) ) ;
#61 = DIRECTION ( 'NONE',  ( 0.000000000000000000, 0.000000000000000000, 1.000000000000000000 ) ) ;
#62 = CARTESIAN_POINT ( 'NONE',  ( 0.000000000000000000, 0.000000000000000000, 0.000000000000000000 ) ) ;
#63 = ORIENTED_EDGE ( 'NONE', *, *, #9, .F. ) ;
#64 = DIMENSIONAL_EXPONENTS ( 1.000000000000000000, 0.000000000000000000, 0.000000000000000000, 0.000000000000000000, 0.000000000000000000, 0.000000000000000000, 0.000000000000000000 ) ;
#65 = ADVANCED_FACE ( 'NONE', ( #76 ), #367, .F. ) ;
#66 = PLANE ( 'NONE',  #346 ) ;
#67 = CIRCLE ( 'NONE', #217, 0.09375000000000002776 ) ;
#68 = MECHANICAL_DESIGN_GEOMETRIC_PRESENTATION_REPRESENTATION (  '', ( #86 ), #124 ) ;
#69 =( GEOMETRIC_REPRESENTATION_CONTEXT ( 3 ) GLOBAL_UNCERTAINTY_ASSIGNED_CONTEXT ( ( #265 ) ) GLOBAL_UNIT_ASSIGNED_CONTEXT ( ( #315, #101, #77 ) ) REPRESENTATION_CONTEXT ( 'NONE', 'WORKASPACE' ) );
#70 = SURFACE_STYLE_FILL_AREA ( #45 ) ;
#71 = CARTESIAN_POINT ( 'NONE',  ( 0.000000000000000000, 0.09375000000000005551, 0.000000000000000000 ) ) ;
#72 = ORIENTED_EDGE ( 'NONE', *, *, #155, .F. ) ;
#73 = CARTESIAN_POINT ( 'NONE',  ( -1.148106374200644017E-17, 0.09375000000000002776, 0.000000000000000000 ) ) ;
#74 = DIRECTION ( 'NONE',  ( -0.000000000000000000, -1.000000000000000000, -0.000000000000000000 ) ) ;
#75 =( GEOMETRIC_REPRESENTATION_CONTEXT ( 3 ) GLOBAL_UNCERTAINTY_ASSIGNED_CONTEXT ( ( #3 ) ) GLOBAL_UNIT_ASSIGNED_CONTEXT ( ( #34, #149, #210 ) ) REPRESENTATION_CONTEXT ( 'NONE', 'WORKASPACE' ) );
#76 = FACE_OUTER_BOUND ( 'NONE', #215, .T. ) ;
#77 =( NAMED_UNIT ( * ) SI_UNIT ( $, .STERADIAN. ) SOLID_ANGLE_UNIT ( ) );
#78 = DIRECTION ( 'NONE',  ( -0.000000000000000000, -1.000000000000000000, -0.000000000000000000 ) ) ;
#79 = EDGE_CURVE ( 'NONE', #276, #327, #131, .T. ) ;
#80 = DIRECTION ( 'NONE',  ( 0.000000000000000000, 0.000000000000000000, -1.000000000000000000 ) ) ;
#81 = SURFACE_STYLE_FILL_AREA ( #83 ) ;
#82 = AXIS2_PLACEMENT_3D ( 'NONE', #12, #162, #127 ) ;
#83 = FILL_AREA_STYLE ('',( #197 ) ) ;
#84 = FACE_OUTER_BOUND ( 'NONE', #134, .T. ) ;
#85 = PRODUCT_RELATED_PRODUCT_CATEGORY ( 'part', '', ( #190 ) ) ;
#86 = STYLED_ITEM ( 'NONE', ( #125 ), #313 ) ;
#87 = UNCERTAINTY_MEASURE_WITH_UNIT (LENGTH_MEASURE( 1.000000000000000082E-05 ), #129, 'distance_accuracy_value', 'NONE');
#88 = SURFACE_STYLE_USAGE ( .BOTH. , #153 ) ;
#89 = FILL_AREA_STYLE ('',( #175 ) ) ;
#90 = ADVANCED_FACE ( 'NONE', ( #84 ), #22, .T. ) ;
#91 = SHAPE_DEFINITION_REPRESENTATION ( #161, #121 ) ;
#92 = CLOSED_SHELL ( 'NONE', ( #323, #271, #227, #364, #354 ) ) ;
#93 = AXIS2_PLACEMENT_3D ( 'NONE', #287, #222, #335 ) ;
#94 = VERTEX_POINT ( 'NONE', #288 ) ;
#95 = DIRECTION ( 'NONE',  ( -1.276619254130695212E-16, 1.000000000000000000, -0.000000000000000000 ) ) ;
#96 = DIRECTION ( 'NONE',  ( 1.000000000000000000, 1.276619254130695212E-16, 0.000000000000000000 ) ) ;
#97 = VECTOR ( 'NONE', #78, 39.37007874015748143 ) ;
#98 =( GEOMETRIC_REPRESENTATION_CONTEXT ( 3 ) GLOBAL_UNCERTAINTY_ASSIGNED_CONTEXT ( ( #297 ) ) GLOBAL_UNIT_ASSIGNED_CONTEXT ( ( #195, #108, #259 ) ) REPRESENTATION_CONTEXT ( 'NONE', 'WORKASPACE' ) );
#99 =( NAMED_UNIT ( * ) SI_UNIT ( $, .STERADIAN. ) SOLID_ANGLE_UNIT ( ) );
#100 = VERTEX_POINT ( 'NONE', #204 ) ;
#101 =( NAMED_UNIT ( * ) PLANE_ANGLE_UNIT ( ) SI_UNIT ( $, .RADIAN. ) );
#102 = ORIENTED_EDGE ( 'NONE', *, *, #203, .F. ) ;
#103 = SURFACE_SIDE_STYLE ('',( #81 ) ) ;
#104 = VECTOR ( 'NONE', #184, 39.37007874015748143 ) ;
#105 = CARTESIAN_POINT ( 'NONE',  ( -1.148106374200644017E-17, 0.09375000000000002776, 0.000000000000000000 ) ) ;
#106 = EDGE_CURVE ( 'NONE', #100, #163, #193, .T. ) ;
#107 = DIRECTION ( 'NONE',  ( -1.000000000000000000, 0.000000000000000000, 0.000000000000000000 ) ) ;
#108 =( NAMED_UNIT ( * ) PLANE_ANGLE_UNIT ( ) SI_UNIT ( $, .RADIAN. ) );
#109 = DIRECTION ( 'NONE',  ( 1.224646799147353207E-16, -0.000000000000000000, 1.000000000000000000 ) ) ;
#110 = CIRCLE ( 'NONE', #5, 0.09374999999999987510 ) ;
#111 = LINE ( 'NONE', #48, #29 ) ;
#112 = CARTESIAN_POINT ( 'NONE',  ( 1.148106374200643863E-17, 0.09375000000000005551, 0.09375000000000002776 ) ) ;
#113 = UNCERTAINTY_MEASURE_WITH_UNIT (LENGTH_MEASURE( 1.000000000000000082E-05 ), #31, 'distance_accuracy_value', 'NONE');
#114 = DIMENSIONAL_EXPONENTS ( 1.000000000000000000, 0.000000000000000000, 0.000000000000000000, 0.000000000000000000, 0.000000000000000000, 0.000000000000000000, 0.000000000000000000 ) ;
#115 = SURFACE_STYLE_USAGE ( .BOTH. , #120 ) ;
#116 = CARTESIAN_POINT ( 'NONE',  ( 0.000000000000000000, 0.000000000000000000, 0.000000000000000000 ) ) ;
#117 = PRESENTATION_STYLE_ASSIGNMENT (( #115 ) ) ;
#118 = STYLED_ITEM ( 'NONE', ( #117 ), #227 ) ;
#119 =( GEOMETRIC_REPRESENTATION_CONTEXT ( 3 ) GLOBAL_UNCERTAINTY_ASSIGNED_CONTEXT ( ( #176 ) ) GLOBAL_UNIT_ASSIGNED_CONTEXT ( ( #143, #338, #19 ) ) REPRESENTATION_CONTEXT ( 'NONE', 'WORKASPACE' ) );
#120 = SURFACE_SIDE_STYLE ('',( #4 ) ) ;
#121 = ADVANCED_BREP_SHAPE_REPRESENTATION ( '83273', ( #313, #58, #314 ), #98 ) ;
#122 =( NAMED_UNIT ( * ) SI_UNIT ( $, .STERADIAN. ) SOLID_ANGLE_UNIT ( ) );
#123 = STYLED_ITEM ( 'NONE', ( #173 ), #271 ) ;
#124 =( GEOMETRIC_REPRESENTATION_CONTEXT ( 3 ) GLOBAL_UNCERTAINTY_ASSIGNED_CONTEXT ( ( #236 ) ) GLOBAL_UNIT_ASSIGNED_CONTEXT ( ( #272, #17, #213 ) ) REPRESENTATION_CONTEXT ( 'NONE', 'WORKASPACE' ) );
#125 = PRESENTATION_STYLE_ASSIGNMENT (( #306 ) ) ;
#126 = ORIENTED_EDGE ( 'NONE', *, *, #263, .T. ) ;
#127 = DIRECTION ( 'NONE',  ( 0.000000000000000000, 0.000000000000000000, -1.000000000000000000 ) ) ;
#128 = DIRECTION ( 'NONE',  ( 1.276619254130695212E-16, -1.000000000000000000, 0.000000000000000000 ) ) ;
#129 =( CONVERSION_BASED_UNIT ( 'INCH', #361 ) LENGTH_UNIT ( ) NAMED_UNIT ( #64 ) );
#130 = ORIENTED_EDGE ( 'NONE', *, *, #79, .F. ) ;
#131 = CIRCLE ( 'NONE', #229, 0.09374999999999956979 ) ;
#132 = STYLED_ITEM ( 'NONE', ( #26 ), #364 ) ;
#133 = EDGE_CURVE ( 'NONE', #245, #43, #254, .T. ) ;
#134 = EDGE_LOOP ( 'NONE', ( #47, #273, #102, #355 ) ) ;
#135 = FILL_AREA_STYLE_COLOUR ( '', #147 ) ;
#136 = ORIENTED_EDGE ( 'NONE', *, *, #150, .T. ) ;
#137 = CARTESIAN_POINT ( 'NONE',  ( 0.000000000000000000, 1.187500000000000000, 0.000000000000000000 ) ) ;
#138 = EDGE_CURVE ( 'NONE', #219, #185, #111, .T. ) ;
#139 = DIRECTION ( 'NONE',  ( -0.000000000000000000, -1.000000000000000000, -0.000000000000000000 ) ) ;
#140 = CIRCLE ( 'NONE', #269, 0.09374999999999956979 ) ;
#141 = DIRECTION ( 'NONE',  ( -0.000000000000000000, -1.000000000000000000, -0.000000000000000000 ) ) ;
#142 =( CONVERSION_BASED_UNIT ( 'INCH', #49 ) LENGTH_UNIT ( ) NAMED_UNIT ( #114 ) );
#143 =( CONVERSION_BASED_UNIT ( 'INCH', #340 ) LENGTH_UNIT ( ) NAMED_UNIT ( #205 ) );
#144 = DIRECTION ( 'NONE',  ( -1.276619254130695212E-16, 1.000000000000000000, -0.000000000000000000 ) ) ;
#145 =( GEOMETRIC_REPRESENTATION_CONTEXT ( 3 ) GLOBAL_UNCERTAINTY_ASSIGNED_CONTEXT ( ( #183 ) ) GLOBAL_UNIT_ASSIGNED_CONTEXT ( ( #142, #202, #198 ) ) REPRESENTATION_CONTEXT ( 'NONE', 'WORKASPACE' ) );
#146 = FILL_AREA_STYLE ('',( #365 ) ) ;
#147 = COLOUR_RGB ( '',1.000000000000000000, 0.000000000000000000, 0.000000000000000000 ) ;
#148 =( NAMED_UNIT ( * ) PLANE_ANGLE_UNIT ( ) SI_UNIT ( $, .RADIAN. ) );
#149 =( NAMED_UNIT ( * ) PLANE_ANGLE_UNIT ( ) SI_UNIT ( $, .RADIAN. ) );
#150 = EDGE_CURVE ( 'NONE', #100, #43, #46, .T. ) ;
#151 = AXIS2_PLACEMENT_3D ( 'NONE', #53, #228, #107 ) ;
#152 =( LENGTH_UNIT ( ) NAMED_UNIT ( * ) SI_UNIT ( $, .METRE. ) );
#153 = SURFACE_SIDE_STYLE ('',( #260 ) ) ;
#154 = CARTESIAN_POINT ( 'NONE',  ( 0.09374999999999983347, 1.187499999999999778, 1.148106374200640473E-17 ) ) ;
#155 = EDGE_CURVE ( 'NONE', #252, #163, #186, .T. ) ;
#156 = FACE_OUTER_BOUND ( 'NONE', #298, .T. ) ;
#157 = AXIS2_PLACEMENT_3D ( 'NONE', #27, #230, #289 ) ;
#158 = CARTESIAN_POINT ( 'NONE',  ( 0.09374999999999987510, 3.000000000000000444, 0.000000000000000000 ) ) ;
#159 = FACE_OUTER_BOUND ( 'NONE', #360, .T. ) ;
#160 = DIRECTION ( 'NONE',  ( -0.000000000000000000, -1.000000000000000000, -0.000000000000000000 ) ) ;
#161 = PRODUCT_DEFINITION_SHAPE ( 'NONE', 'NONE',  #358 ) ;
#162 = DIRECTION ( 'NONE',  ( -0.000000000000000000, -1.000000000000000000, -0.000000000000000000 ) ) ;
#163 = VERTEX_POINT ( 'NONE', #223 ) ;
#164 = AXIS2_PLACEMENT_3D ( 'NONE', #169, #316, #371 ) ;
#165 = PRESENTATION_LAYER_ASSIGNMENT (  '', '', ( #284 ) ) ;
#166 = LENGTH_MEASURE_WITH_UNIT ( LENGTH_MEASURE( 0.02539999999999999897 ), #241 );
#167 = ORIENTED_EDGE ( 'NONE', *, *, #206, .F. ) ;
#168 = DIRECTION ( 'NONE',  ( -1.000000000000000000, 0.000000000000000000, 0.000000000000000000 ) ) ;
#169 = CARTESIAN_POINT ( 'NONE',  ( 2.926195797685561352E-16, 1.187500000000000000, 0.000000000000000000 ) ) ;
#170 = LENGTH_MEASURE_WITH_UNIT ( LENGTH_MEASURE( 0.02539999999999999897 ), #224 );
#171 = DIRECTION ( 'NONE',  ( 1.000000000000000000, 0.000000000000000000, -1.224646799147353207E-16 ) ) ;
#172 = DIRECTION ( 'NONE',  ( 1.000000000000000000, 0.000000000000000000, 0.000000000000000000 ) ) ;
#173 = PRESENTATION_STYLE_ASSIGNMENT (( #88 ) ) ;
#174 = DIMENSIONAL_EXPONENTS ( 1.000000000000000000, 0.000000000000000000, 0.000000000000000000, 0.000000000000000000, 0.000000000000000000, 0.000000000000000000, 0.000000000000000000 ) ;
#175 = FILL_AREA_STYLE_COLOUR ( '', #290 ) ;
#176 = UNCERTAINTY_MEASURE_WITH_UNIT (LENGTH_MEASURE( 1.000000000000000082E-05 ), #143, 'distance_accuracy_value', 'NONE');
#177 = LENGTH_MEASURE_WITH_UNIT ( LENGTH_MEASURE( 0.02539999999999999897 ), #152 );
#178 = AXIS2_PLACEMENT_3D ( 'NONE', #345, #33, #321 ) ;
#179 = COLOUR_RGB ( '',1.000000000000000000, 0.000000000000000000, 0.000000000000000000 ) ;
#180 = APPLICATION_CONTEXT ( 'automotive_design' ) ;
#181 = DIRECTION ( 'NONE',  ( -0.000000000000000000, -1.000000000000000000, -0.000000000000000000 ) ) ;
#182 = ORIENTED_EDGE ( 'NONE', *, *, #206, .T. ) ;
#183 = UNCERTAINTY_MEASURE_WITH_UNIT (LENGTH_MEASURE( 1.000000000000000082E-05 ), #142, 'distance_accuracy_value', 'NONE');
#184 = DIRECTION ( 'NONE',  ( -1.276619254130695212E-16, 1.000000000000000000, -0.000000000000000000 ) ) ;
#185 = VERTEX_POINT ( 'NONE', #112 ) ;
#186 = CIRCLE ( 'NONE', #57, 0.09375000000000002776 ) ;
#187 = ORIENTED_EDGE ( 'NONE', *, *, #138, .F. ) ;
#188 = CARTESIAN_POINT ( 'NONE',  ( -0.09374999999999927836, 1.187499999999999778, 0.000000000000000000 ) ) ;
#189 = ORIENTED_EDGE ( 'NONE', *, *, #133, .F. ) ;
#190 = PRODUCT ( '83273', '83273', '', ( #231 ) ) ;
#191 = CARTESIAN_POINT ( 'NONE',  ( 2.926195797685561352E-16, 1.187499999999999778, 0.000000000000000000 ) ) ;
#192 = EDGE_LOOP ( 'NONE', ( #305, #42, #357, #18, #189 ) ) ;
#193 = CIRCLE ( 'NONE', #59, 0.09375000000000002776 ) ;
#194 = EDGE_CURVE ( 'NONE', #219, #245, #110, .T. ) ;
#195 =( CONVERSION_BASED_UNIT ( 'INCH', #170 ) LENGTH_UNIT ( ) NAMED_UNIT ( #243 ) );
#196 = DIRECTION ( 'NONE',  ( 0.000000000000000000, 0.000000000000000000, -1.000000000000000000 ) ) ;
#197 = FILL_AREA_STYLE_COLOUR ( '', #179 ) ;
#198 =( NAMED_UNIT ( * ) SI_UNIT ( $, .STERADIAN. ) SOLID_ANGLE_UNIT ( ) );
#199 = SURFACE_STYLE_FILL_AREA ( #146 ) ;
#200 = AXIS2_PLACEMENT_3D ( 'NONE', #318, #209, #36 ) ;
#201 =( LENGTH_UNIT ( ) NAMED_UNIT ( * ) SI_UNIT ( $, .METRE. ) );
#202 =( NAMED_UNIT ( * ) PLANE_ANGLE_UNIT ( ) SI_UNIT ( $, .RADIAN. ) );
#203 = EDGE_CURVE ( 'NONE', #307, #94, #342, .T. ) ;
#204 = CARTESIAN_POINT ( 'NONE',  ( -0.09375000000000002776, 0.09375000000000005551, 1.148106374200643863E-17 ) ) ;
#205 = DIMENSIONAL_EXPONENTS ( 1.000000000000000000, 0.000000000000000000, 0.000000000000000000, 0.000000000000000000, 0.000000000000000000, 0.000000000000000000, 0.000000000000000000 ) ;
#206 = EDGE_CURVE ( 'NONE', #185, #100, #283, .T. ) ;
#207 = DIMENSIONAL_EXPONENTS ( 1.000000000000000000, 0.000000000000000000, 0.000000000000000000, 0.000000000000000000, 0.000000000000000000, 0.000000000000000000, 0.000000000000000000 ) ;
#208 = AXIS2_PLACEMENT_3D ( 'NONE', #62, #181, #275 ) ;
#209 = DIRECTION ( 'NONE',  ( -1.276619254130695212E-16, 1.000000000000000000, -0.000000000000000000 ) ) ;
#210 =( NAMED_UNIT ( * ) SI_UNIT ( $, .STERADIAN. ) SOLID_ANGLE_UNIT ( ) );
#211 = DIMENSIONAL_EXPONENTS ( 1.000000000000000000, 0.000000000000000000, 0.000000000000000000, 0.000000000000000000, 0.000000000000000000, 0.000000000000000000, 0.000000000000000000 ) ;
#212 = AXIS2_PLACEMENT_3D ( 'NONE', #334, #74, #196 ) ;
#213 =( NAMED_UNIT ( * ) SI_UNIT ( $, .STERADIAN. ) SOLID_ANGLE_UNIT ( ) );
#214 = SURFACE_STYLE_USAGE ( .BOTH. , #15 ) ;
#215 = EDGE_LOOP ( 'NONE', ( #130, #294 ) ) ;
#216 = LINE ( 'NONE', #250, #23 ) ;
#217 = AXIS2_PLACEMENT_3D ( 'NONE', #71, #160, #274 ) ;
#218 = FACE_OUTER_BOUND ( 'NONE', #39, .T. ) ;
#219 = VERTEX_POINT ( 'NONE', #293 ) ;
#220 = CARTESIAN_POINT ( 'NONE',  ( 0.000000000000000000, 0.09375000000000005551, -0.09375000000000002776 ) ) ;
#221 = ORIENTED_EDGE ( 'NONE', *, *, #155, .T. ) ;
#222 = DIRECTION ( 'NONE',  ( 0.000000000000000000, 0.000000000000000000, 1.000000000000000000 ) ) ;
#223 = CARTESIAN_POINT ( 'NONE',  ( -5.740531871003220085E-18, 0.000000000000000000, 0.000000000000000000 ) ) ;
#224 =( LENGTH_UNIT ( ) NAMED_UNIT ( * ) SI_UNIT ( $, .METRE. ) );
#225 = DIRECTION ( 'NONE',  ( -1.000000000000000000, 0.000000000000000000, 0.000000000000000000 ) ) ;
#226 = FACE_OUTER_BOUND ( 'NONE', #11, .T. ) ;
#227 = ADVANCED_FACE ( 'NONE', ( #232 ), #296, .T. ) ;
#228 = DIRECTION ( 'NONE',  ( -1.276619254130695212E-16, 1.000000000000000000, -0.000000000000000000 ) ) ;
#229 = AXIS2_PLACEMENT_3D ( 'NONE', #369, #310, #168 ) ;
#230 = DIRECTION ( 'NONE',  ( -0.000000000000000000, -1.000000000000000000, -0.000000000000000000 ) ) ;
#231 = PRODUCT_CONTEXT ( 'NONE', #253, 'mechanical' ) ;
#232 = FACE_OUTER_BOUND ( 'NONE', #363, .T. ) ;
#233 = ADVANCED_FACE ( 'NONE', ( #235 ), #7, .T. ) ;
#234 = APPLICATION_PROTOCOL_DEFINITION ( 'draft international standard', 'automotive_design', 1998, #180 ) ;
#235 = FACE_OUTER_BOUND ( 'NONE', #300, .T. ) ;
#236 = UNCERTAINTY_MEASURE_WITH_UNIT (LENGTH_MEASURE( 1.000000000000000082E-05 ), #272, 'distance_accuracy_value', 'NONE');
#237 = PRESENTATION_LAYER_ASSIGNMENT (  '', '', ( #86 ) ) ;
#238 = CARTESIAN_POINT ( 'NONE',  ( 0.09375000000000002776, 0.09375000000000005551, 0.000000000000000000 ) ) ;
#239 = LINE ( 'NONE', #302, #104 ) ;
#240 = COLOUR_RGB ( '',1.000000000000000000, 0.000000000000000000, 0.000000000000000000 ) ;
#241 =( LENGTH_UNIT ( ) NAMED_UNIT ( * ) SI_UNIT ( $, .METRE. ) );
#242 = ORIENTED_EDGE ( 'NONE', *, *, #194, .F. ) ;
#243 = DIMENSIONAL_EXPONENTS ( 1.000000000000000000, 0.000000000000000000, 0.000000000000000000, 0.000000000000000000, 0.000000000000000000, 0.000000000000000000, 0.000000000000000000 ) ;
#244 = SURFACE_STYLE_FILL_AREA ( #331 ) ;
#245 = VERTEX_POINT ( 'NONE', #344 ) ;
#246 = CARTESIAN_POINT ( 'NONE',  ( -0.09374999999999973632, 3.000000000000000444, 0.000000000000000000 ) ) ;
#247 = ORIENTED_EDGE ( 'NONE', *, *, #282, .T. ) ;
#248 =( GEOMETRIC_REPRESENTATION_CONTEXT ( 3 ) GLOBAL_UNCERTAINTY_ASSIGNED_CONTEXT ( ( #113 ) ) GLOBAL_UNIT_ASSIGNED_CONTEXT ( ( #31, #148, #122 ) ) REPRESENTATION_CONTEXT ( 'NONE', 'WORKASPACE' ) );
#249 =( LENGTH_UNIT ( ) NAMED_UNIT ( * ) SI_UNIT ( $, .METRE. ) );
#250 = CARTESIAN_POINT ( 'NONE',  ( 0.09374999999999975020, 3.000000000000000444, 1.148106374200639857E-17 ) ) ;
#251 = SURFACE_SIDE_STYLE ('',( #285 ) ) ;
#252 = VERTEX_POINT ( 'NONE', #238 ) ;
#253 = APPLICATION_CONTEXT ( 'automotive_design' ) ;
#254 = LINE ( 'NONE', #341, #97 ) ;
#255 = MECHANICAL_DESIGN_GEOMETRIC_PRESENTATION_REPRESENTATION (  '', ( #118 ), #75 ) ;
#256 = CARTESIAN_POINT ( 'NONE',  ( 6.123233995736759873E-17, 3.000000000000000444, 0.000000000000000000 ) ) ;
#257 = DIRECTION ( 'NONE',  ( -0.000000000000000000, -1.000000000000000000, -0.000000000000000000 ) ) ;
#258 = MECHANICAL_DESIGN_GEOMETRIC_PRESENTATION_REPRESENTATION (  '', ( #132 ), #119 ) ;
#259 =( NAMED_UNIT ( * ) SI_UNIT ( $, .STERADIAN. ) SOLID_ANGLE_UNIT ( ) );
#260 = SURFACE_STYLE_FILL_AREA ( #89 ) ;
#261 = ORIENTED_EDGE ( 'NONE', *, *, #106, .F. ) ;
#262 = PRESENTATION_LAYER_ASSIGNMENT (  '', '', ( #351 ) ) ;
#263 = EDGE_CURVE ( 'NONE', #94, #307, #328, .T. ) ;
#264 = DIRECTION ( 'NONE',  ( 0.000000000000000000, -0.000000000000000000, 1.000000000000000000 ) ) ;
#265 = UNCERTAINTY_MEASURE_WITH_UNIT (LENGTH_MEASURE( 1.000000000000000082E-05 ), #315, 'distance_accuracy_value', 'NONE');
#266 =( LENGTH_UNIT ( ) NAMED_UNIT ( * ) SI_UNIT ( $, .METRE. ) );
#267 = FILL_AREA_STYLE_COLOUR ( '', #352 ) ;
#268 = CLOSED_SHELL ( 'NONE', ( #90, #65, #233, #2 ) ) ;
#269 = AXIS2_PLACEMENT_3D ( 'NONE', #191, #95, #326 ) ;
#270 = ORIENTED_EDGE ( 'NONE', *, *, #194, .T. ) ;
#271 = ADVANCED_FACE ( 'NONE', ( #8 ), #350, .T. ) ;
#272 =( CONVERSION_BASED_UNIT ( 'INCH', #166 ) LENGTH_UNIT ( ) NAMED_UNIT ( #174 ) );
#273 = ORIENTED_EDGE ( 'NONE', *, *, #9, .T. ) ;
#274 = DIRECTION ( 'NONE',  ( 0.000000000000000000, 0.000000000000000000, -1.000000000000000000 ) ) ;
#275 = DIRECTION ( 'NONE',  ( 0.000000000000000000, 0.000000000000000000, -1.000000000000000000 ) ) ;
#276 = VERTEX_POINT ( 'NONE', #188 ) ;
#277 = AXIS2_PLACEMENT_3D ( 'NONE', #256, #144, #52 ) ;
#278 = ORIENTED_EDGE ( 'NONE', *, *, #311, .T. ) ;
#279 = SURFACE_SIDE_STYLE ('',( #199 ) ) ;
#280 = FILL_AREA_STYLE ('',( #135 ) ) ;
#281 =( LENGTH_UNIT ( ) NAMED_UNIT ( * ) SI_UNIT ( $, .METRE. ) );
#282 = EDGE_CURVE ( 'NONE', #252, #185, #40, .T. ) ;
#283 = CIRCLE ( 'NONE', #325, 0.09375000000000002776 ) ;
#284 = STYLED_ITEM ( 'NONE', ( #25 ), #354 ) ;
#285 = SURFACE_STYLE_FILL_AREA ( #280 ) ;
#286 = SURFACE_STYLE_USAGE ( .BOTH. , #279 ) ;
#287 = CARTESIAN_POINT ( 'NONE',  ( -1.148106374200644017E-17, 0.09375000000000002776, 0.000000000000000000 ) ) ;
#288 = CARTESIAN_POINT ( 'NONE',  ( 0.09374999999999984734, 3.000000000000000444, 1.148106374200640473E-17 ) ) ;
#289 = DIRECTION ( 'NONE',  ( 0.000000000000000000, 0.000000000000000000, -1.000000000000000000 ) ) ;
#290 = COLOUR_RGB ( '',1.000000000000000000, 0.000000000000000000, 0.000000000000000000 ) ;
#291 = EDGE_CURVE ( 'NONE', #327, #276, #140, .T. ) ;
#292 = LENGTH_MEASURE_WITH_UNIT ( LENGTH_MEASURE( 0.02539999999999999897 ), #266 );
#293 = CARTESIAN_POINT ( 'NONE',  ( 1.148106374200642476E-17, 1.187500000000000000, 0.09374999999999987510 ) ) ;
#294 = ORIENTED_EDGE ( 'NONE', *, *, #291, .F. ) ;
#295 = MECHANICAL_DESIGN_GEOMETRIC_PRESENTATION_REPRESENTATION (  '', ( #284 ), #69 ) ;
#296 = PLANE ( 'NONE',  #359 ) ;
#297 = UNCERTAINTY_MEASURE_WITH_UNIT (LENGTH_MEASURE( 1.000000000000000082E-05 ), #195, 'distance_accuracy_value', 'NONE');
#298 = EDGE_LOOP ( 'NONE', ( #32, #126 ) ) ;
#299 = PRESENTATION_LAYER_ASSIGNMENT (  '', '', ( #123 ) ) ;
#300 = EDGE_LOOP ( 'NONE', ( #63, #13, #278, #303 ) ) ;
#301 = MECHANICAL_DESIGN_GEOMETRIC_PRESENTATION_REPRESENTATION (  '', ( #6 ), #343 ) ;
#302 = CARTESIAN_POINT ( 'NONE',  ( -0.09374999999999961142, 3.000000000000000444, 0.000000000000000000 ) ) ;
#303 = ORIENTED_EDGE ( 'NONE', *, *, #263, .F. ) ;
#304 = SURFACE_SIDE_STYLE ('',( #70 ) ) ;
#305 = ORIENTED_EDGE ( 'NONE', *, *, #56, .T. ) ;
#306 = SURFACE_STYLE_USAGE ( .BOTH. , #304 ) ;
#307 = VERTEX_POINT ( 'NONE', #246 ) ;
#308 = CIRCLE ( 'NONE', #212, 0.09374999999999987510 ) ;
#309 =( LENGTH_UNIT ( ) NAMED_UNIT ( * ) SI_UNIT ( $, .METRE. ) );
#310 = DIRECTION ( 'NONE',  ( -1.276619254130695212E-16, 1.000000000000000000, -0.000000000000000000 ) ) ;
#311 = EDGE_CURVE ( 'NONE', #276, #307, #239, .T. ) ;
#312 = DIRECTION ( 'NONE',  ( -0.000000000000000000, -1.000000000000000000, -0.000000000000000000 ) ) ;
#313 = MANIFOLD_SOLID_BREP ( 'Revolve - Cutting Edge', #92 ) ;
#314 = AXIS2_PLACEMENT_3D ( 'NONE', #116, #61, #172 ) ;
#315 =( CONVERSION_BASED_UNIT ( 'INCH', #21 ) LENGTH_UNIT ( ) NAMED_UNIT ( #207 ) );
#316 = DIRECTION ( 'NONE',  ( -1.276619254130695212E-16, 1.000000000000000000, 0.000000000000000000 ) ) ;
#317 = SURFACE_STYLE_USAGE ( .BOTH. , #103 ) ;
#318 = CARTESIAN_POINT ( 'NONE',  ( 6.123233995736759873E-17, 3.000000000000000444, 0.000000000000000000 ) ) ;
#319 = COLOUR_RGB ( '',0.7921568627450980005, 0.8196078431372548767, 0.9333333333333333481 ) ;
#320 = AXIS2_PLACEMENT_3D ( 'NONE', #54, #139, #366 ) ;
#321 = DIRECTION ( 'NONE',  ( -1.000000000000000000, 0.000000000000000000, 0.000000000000000000 ) ) ;
#322 = PRODUCT_DEFINITION_CONTEXT ( 'detailed design', #180, 'design' ) ;
#323 = ADVANCED_FACE ( 'NONE', ( #218 ), #333, .T. ) ;
#324 = FILL_AREA_STYLE ('',( #1 ) ) ;
#325 = AXIS2_PLACEMENT_3D ( 'NONE', #336, #141, #339 ) ;
#326 = DIRECTION ( 'NONE',  ( -1.000000000000000000, 0.000000000000000000, 0.000000000000000000 ) ) ;
#327 = VERTEX_POINT ( 'NONE', #154 ) ;
#328 = CIRCLE ( 'NONE', #178, 0.09374999999999980571 ) ;
#329 = ORIENTED_EDGE ( 'NONE', *, *, #150, .F. ) ;
#330 = AXIS2_PLACEMENT_3D ( 'NONE', #73, #353, #37 ) ;
#331 = FILL_AREA_STYLE ('',( #267 ) ) ;
#332 = ORIENTED_EDGE ( 'NONE', *, *, #56, .F. ) ;
#333 = SPHERICAL_SURFACE ( 'NONE', #330, 0.09375000000000002776 ) ;
#334 = CARTESIAN_POINT ( 'NONE',  ( 0.000000000000000000, 1.187500000000000000, 0.000000000000000000 ) ) ;
#335 = DIRECTION ( 'NONE',  ( 1.000000000000000000, 0.000000000000000000, 0.000000000000000000 ) ) ;
#336 = CARTESIAN_POINT ( 'NONE',  ( 0.000000000000000000, 0.09375000000000005551, 0.000000000000000000 ) ) ;
#337 = MECHANICAL_DESIGN_GEOMETRIC_PRESENTATION_REPRESENTATION (  '', ( #123 ), #248 ) ;
#338 =( NAMED_UNIT ( * ) PLANE_ANGLE_UNIT ( ) SI_UNIT ( $, .RADIAN. ) );
#339 = DIRECTION ( 'NONE',  ( 0.000000000000000000, 0.000000000000000000, -1.000000000000000000 ) ) ;
#340 = LENGTH_MEASURE_WITH_UNIT ( LENGTH_MEASURE( 0.02539999999999999897 ), #309 );
#341 = CARTESIAN_POINT ( 'NONE',  ( 0.000000000000000000, 0.000000000000000000, -0.09374999999999995837 ) ) ;
#342 = CIRCLE ( 'NONE', #277, 0.09374999999999980571 ) ;
#343 =( GEOMETRIC_REPRESENTATION_CONTEXT ( 3 ) GLOBAL_UNCERTAINTY_ASSIGNED_CONTEXT ( ( #87 ) ) GLOBAL_UNIT_ASSIGNED_CONTEXT ( ( #129, #41, #99 ) ) REPRESENTATION_CONTEXT ( 'NONE', 'WORKASPACE' ) );
#344 = CARTESIAN_POINT ( 'NONE',  ( 0.000000000000000000, 1.187500000000000000, -0.09374999999999987510 ) ) ;
#345 = CARTESIAN_POINT ( 'NONE',  ( 6.123233995736759873E-17, 3.000000000000000444, 0.000000000000000000 ) ) ;
#346 = AXIS2_PLACEMENT_3D ( 'NONE', #158, #128, #96 ) ;
#347 = MECHANICAL_DESIGN_GEOMETRIC_PRESENTATION_REPRESENTATION (  '', ( #351 ), #145 ) ;
#348 = CARTESIAN_POINT ( 'NONE',  ( 0.000000000000000000, 1.187500000000000000, 0.000000000000000000 ) ) ;
#349 = APPLICATION_PROTOCOL_DEFINITION ( 'draft international standard', 'automotive_design', 1998, #253 ) ;
#350 = CYLINDRICAL_SURFACE ( 'NONE', #208, 0.09374999999999995837 ) ;
#351 = STYLED_ITEM ( 'NONE', ( #55 ), #58 ) ;
#352 = COLOUR_RGB ( '',1.000000000000000000, 0.000000000000000000, 0.000000000000000000 ) ;
#353 = DIRECTION ( 'NONE',  ( 0.000000000000000000, 0.000000000000000000, 1.000000000000000000 ) ) ;
#354 = ADVANCED_FACE ( 'NONE', ( #159 ), #370, .T. ) ;
#355 = ORIENTED_EDGE ( 'NONE', *, *, #311, .F. ) ;
#356 = PRESENTATION_STYLE_ASSIGNMENT (( #214 ) ) ;
#357 = ORIENTED_EDGE ( 'NONE', *, *, #282, .F. ) ;
#358 = PRODUCT_DEFINITION ( 'UNKNOWN', '', #30, #322 ) ;
#359 = AXIS2_PLACEMENT_3D ( 'NONE', #348, #35, #264 ) ;
#360 = EDGE_LOOP ( 'NONE', ( #261, #136, #362, #221 ) ) ;
#361 = LENGTH_MEASURE_WITH_UNIT ( LENGTH_MEASURE( 0.02539999999999999897 ), #249 );
#362 = ORIENTED_EDGE ( 'NONE', *, *, #14, .T. ) ;
#363 = EDGE_LOOP ( 'NONE', ( #332, #242 ) ) ;
#364 = ADVANCED_FACE ( 'NONE', ( #226 ), #368, .T. ) ;
#365 = FILL_AREA_STYLE_COLOUR ( '', #51 ) ;
#366 = DIRECTION ( 'NONE',  ( 0.000000000000000000, 0.000000000000000000, -1.000000000000000000 ) ) ;
#367 = PLANE ( 'NONE',  #164 ) ;
#368 = CYLINDRICAL_SURFACE ( 'NONE', #320, 0.09374999999999995837 ) ;
#369 = CARTESIAN_POINT ( 'NONE',  ( 2.926195797685561352E-16, 1.187499999999999778, 0.000000000000000000 ) ) ;
#370 = SPHERICAL_SURFACE ( 'NONE', #93, 0.09375000000000002776 ) ;
#371 = DIRECTION ( 'NONE',  ( -1.000000000000000000, -1.276619254130695212E-16, 0.000000000000000000 ) ) ;
#372 = PRESENTATION_LAYER_ASSIGNMENT (  '', '', ( #118 ) ) ;
#373 = PRESENTATION_LAYER_ASSIGNMENT (  '', '', ( #132 ) ) ;
ENDSEC;
END-ISO-10303-21;
