ISO-10303-21;
HEADER;
FILE_DESCRIPTION (( 'STEP AP214' ),
    '1' );
FILE_NAME ('Micro_AMRM-003-2.STEP',
    '2021-09-01T17:09:09',
    ( '' ),
    ( '' ),
    'SwSTEP 2.0',
    'SolidWorks 2020',
    '' );
FILE_SCHEMA (( 'AUTOMOTIVE_DESIGN' ));
ENDSEC;

DATA;
#1 = DIMENSIONAL_EXPONENTS ( 1.000000000000000000, 0.0000000000000000000, 0.0000000000000000000, 0.0000000000000000000, 0.0000000000000000000, 0.0000000000000000000, 0.0000000000000000000 ) ;
#2 = CARTESIAN_POINT ( 'NONE',  ( 0.0000000000000000000, 0.0000000000000000000, 1.968503999999999809 ) ) ;
#3 = DIRECTION ( 'NONE',  ( 0.0000000000000000000, 0.0000000000000000000, 1.000000000000000000 ) ) ;
#4 = UNCERTAINTY_MEASURE_WITH_UNIT (LENGTH_MEASURE( 1.000000000000000082E-05 ), #24, 'distance_accuracy_value', 'NONE');
#5 = VERTEX_POINT ( 'NONE', #92 ) ;
#6 = VECTOR ( 'NONE', #12, 39.37007874015748143 ) ;
#7 = CARTESIAN_POINT ( 'NONE',  ( 5.492926259242781545E-17, 0.0000000000000000000, 0.4485314674457297479 ) ) ;
#8 = EDGE_CURVE ( 'NONE', #175, #210, #215, .T. ) ;
#9 = ORIENTED_EDGE ( 'NONE', *, *, #163, .F. ) ;
#10 = AXIS2_PLACEMENT_3D ( 'NONE', #222, #298, #20 ) ;
#11 = EDGE_LOOP ( 'NONE', ( #9, #204, #110, #282 ) ) ;
#12 = DIRECTION ( 'NONE',  ( -0.0000000000000000000, -0.0000000000000000000, -1.000000000000000000 ) ) ;
#13 = EDGE_CURVE ( 'NONE', #116, #260, #242, .T. ) ;
#14 = FACE_OUTER_BOUND ( 'NONE', #285, .T. ) ;
#15 = CARTESIAN_POINT ( 'NONE',  ( 0.005899594500000003398, 0.0000000000000000000, 0.03543299999999999922 ) ) ;
#16 = CARTESIAN_POINT ( 'NONE',  ( -0.06374000000000018540, 0.0000000000000000000, 1.968503999999999809 ) ) ;
#17 = CIRCLE ( 'NONE', #79, 0.005899594499999997327 ) ;
#18 = LENGTH_MEASURE_WITH_UNIT ( LENGTH_MEASURE( 0.02539999999999999897 ), #198 );
#19 = DIRECTION ( 'NONE',  ( -0.0000000000000000000, -0.0000000000000000000, -1.000000000000000000 ) ) ;
#20 = DIRECTION ( 'NONE',  ( 1.000000000000000000, 0.0000000000000000000, 0.0000000000000000000 ) ) ;
#21 = COLOUR_RGB ( '',0.7921568627450980005, 0.8196078431372548767, 0.9333333333333333481 ) ;
#22 = DIRECTION ( 'NONE',  ( 1.224646799147353207E-16, 0.0000000000000000000, 1.000000000000000000 ) ) ;
#23 = DIRECTION ( 'NONE',  ( -1.000000000000000000, 0.0000000000000000000, 0.0000000000000000000 ) ) ;
#24 =( CONVERSION_BASED_UNIT ( 'INCH', #173 ) LENGTH_UNIT ( ) NAMED_UNIT ( #166 ) );
#25 = CONICAL_SURFACE ( 'NONE', #287, 0.06374000000000018540, 0.7853981633974528309 ) ;
#26 = ORIENTED_EDGE ( 'NONE', *, *, #163, .T. ) ;
#27 = ADVANCED_FACE ( 'NONE', ( #98 ), #162, .F. ) ;
#28 = ORIENTED_EDGE ( 'NONE', *, *, #97, .F. ) ;
#29 = LINE ( 'NONE', #73, #216 ) ;
#30 = DIRECTION ( 'NONE',  ( 1.224646799147353207E-16, 0.0000000000000000000, 1.000000000000000000 ) ) ;
#31 = VERTEX_POINT ( 'NONE', #33 ) ;
#32 = AXIS2_PLACEMENT_3D ( 'NONE', #7, #95, #185 ) ;
#33 = CARTESIAN_POINT ( 'NONE',  ( -0.005899594499999994725, 5.182680424277747511E-18, 0.03543299999999999922 ) ) ;
#34 = EDGE_LOOP ( 'NONE', ( #151, #90 ) ) ;
#35 =( NAMED_UNIT ( * ) SI_UNIT ( $, .STERADIAN. ) SOLID_ANGLE_UNIT ( ) );
#36 = DIRECTION ( 'NONE',  ( -1.000000000000000000, 0.0000000000000000000, 1.224646799147353207E-16 ) ) ;
#37 = AXIS2_PLACEMENT_3D ( 'NONE', #172, #3, #295 ) ;
#38 =( LENGTH_UNIT ( ) NAMED_UNIT ( * ) SI_UNIT ( $, .METRE. ) );
#39 = PRESENTATION_STYLE_ASSIGNMENT (( #200 ) ) ;
#40 = UNCERTAINTY_MEASURE_WITH_UNIT (LENGTH_MEASURE( 1.000000000000000082E-05 ), #245, 'distance_accuracy_value', 'NONE');
#41 = SURFACE_STYLE_FILL_AREA ( #169 ) ;
#42 = PRESENTATION_LAYER_ASSIGNMENT (  '', '', ( #71 ) ) ;
#43 = ORIENTED_EDGE ( 'NONE', *, *, #289, .F. ) ;
#44 = DIRECTION ( 'NONE',  ( 1.000000000000000000, 0.0000000000000000000, 0.0000000000000000000 ) ) ;
#45 = EDGE_LOOP ( 'NONE', ( #176, #57, #115, #28 ) ) ;
#46 = VECTOR ( 'NONE', #78, 39.37007874015748143 ) ;
#47 = AXIS2_PLACEMENT_3D ( 'NONE', #125, #226, #147 ) ;
#48 = ORIENTED_EDGE ( 'NONE', *, *, #93, .F. ) ;
#49 = ORIENTED_EDGE ( 'NONE', *, *, #109, .T. ) ;
#50 = DIRECTION ( 'NONE',  ( -1.000000000000000000, 0.0000000000000000000, 0.0000000000000000000 ) ) ;
#51 = ORIENTED_EDGE ( 'NONE', *, *, #59, .T. ) ;
#52 = APPLICATION_CONTEXT ( 'automotive_design' ) ;
#53 = EDGE_LOOP ( 'NONE', ( #129, #26, #290, #70 ) ) ;
#54 = CARTESIAN_POINT ( 'NONE',  ( 0.0000000000000000000, 0.0000000000000000000, 1.968503999999999809 ) ) ;
#55 = ADVANCED_FACE ( 'NONE', ( #74 ), #263, .T. ) ;
#56 = PRESENTATION_LAYER_ASSIGNMENT (  '', '', ( #217 ) ) ;
#57 = ORIENTED_EDGE ( 'NONE', *, *, #13, .T. ) ;
#58 = DIRECTION ( 'NONE',  ( -1.224646799147353207E-16, -0.0000000000000000000, -1.000000000000000000 ) ) ;
#59 = EDGE_CURVE ( 'NONE', #116, #235, #161, .T. ) ;
#60 = SURFACE_SIDE_STYLE ('',( #84 ) ) ;
#61 = LENGTH_MEASURE_WITH_UNIT ( LENGTH_MEASURE( 0.02539999999999999897 ), #127 );
#62 = DIRECTION ( 'NONE',  ( -1.000000000000000000, 0.0000000000000000000, 1.224646799147352961E-16 ) ) ;
#63 = MECHANICAL_DESIGN_GEOMETRIC_PRESENTATION_REPRESENTATION (  '', ( #71 ), #231 ) ;
#64 = CIRCLE ( 'NONE', #47, 0.005899594499999997327 ) ;
#65 = PRESENTATION_STYLE_ASSIGNMENT (( #68 ) ) ;
#66 = CARTESIAN_POINT ( 'NONE',  ( 0.0000000000000000000, 0.0000000000000000000, 1.968503999999999809 ) ) ;
#67 = CARTESIAN_POINT ( 'NONE',  ( 8.847974565113086337E-35, 0.0000000000000000000, 7.224919520692325644E-19 ) ) ;
#68 = SURFACE_STYLE_USAGE ( .BOTH. , #274 ) ;
#69 = ADVANCED_FACE ( 'NONE', ( #14 ), #25, .T. ) ;
#70 = ORIENTED_EDGE ( 'NONE', *, *, #207, .F. ) ;
#71 = STYLED_ITEM ( 'NONE', ( #39 ), #111 ) ;
#72 = CARTESIAN_POINT ( 'NONE',  ( 0.0000000000000000000, 0.0000000000000000000, 1.953504000000000129 ) ) ;
#73 = CARTESIAN_POINT ( 'NONE',  ( 0.005899594499999998194, 7.224919520692327570E-19, -7.224919520692327570E-19 ) ) ;
#74 = FACE_OUTER_BOUND ( 'NONE', #45, .T. ) ;
#75 = AXIS2_PLACEMENT_3D ( 'NONE', #72, #297, #85 ) ;
#76 = DIRECTION ( 'NONE',  ( -1.000000000000000000, 0.0000000000000000000, 0.0000000000000000000 ) ) ;
#77 = ORIENTED_EDGE ( 'NONE', *, *, #128, .T. ) ;
#78 = DIRECTION ( 'NONE',  ( 0.7071067811865507924, 8.659560562354973534E-17, -0.7071067811865443531 ) ) ;
#79 = AXIS2_PLACEMENT_3D ( 'NONE', #67, #197, #62 ) ;
#80 = EDGE_CURVE ( 'NONE', #210, #116, #99, .T. ) ;
#81 = UNCERTAINTY_MEASURE_WITH_UNIT (LENGTH_MEASURE( 1.000000000000000082E-05 ), #106, 'distance_accuracy_value', 'NONE');
#82 = CARTESIAN_POINT ( 'NONE',  ( 0.06374000000000018540, 8.724383797125754882E-18, 1.968503999999999809 ) ) ;
#83 = CARTESIAN_POINT ( 'NONE',  ( -0.07874000000000001831, 0.0000000000000000000, 1.968503999999999809 ) ) ;
#84 = SURFACE_STYLE_FILL_AREA ( #247 ) ;
#85 = DIRECTION ( 'NONE',  ( 1.000000000000000000, 0.0000000000000000000, 0.0000000000000000000 ) ) ;
#86 = DIRECTION ( 'NONE',  ( -0.1736481776669311639, 2.126576849575783008E-17, 0.9848077530122080203 ) ) ;
#87 = APPLICATION_PROTOCOL_DEFINITION ( 'draft international standard', 'automotive_design', 1998, #261 ) ;
#88 = DIRECTION ( 'NONE',  ( 0.0000000000000000000, 0.0000000000000000000, -1.000000000000000000 ) ) ;
#89 = CARTESIAN_POINT ( 'NONE',  ( -0.005899594499999997327, 0.0000000000000000000, 1.444983904138465129E-18 ) ) ;
#90 = ORIENTED_EDGE ( 'NONE', *, *, #184, .T. ) ;
#91 = ADVANCED_FACE ( 'NONE', ( #238 ), #164, .T. ) ;
#92 = CARTESIAN_POINT ( 'NONE',  ( 0.005899594500000003398, 0.0000000000000000000, 0.03543299999999999922 ) ) ;
#93 = EDGE_CURVE ( 'NONE', #5, #240, #29, .T. ) ;
#94 = EDGE_LOOP ( 'NONE', ( #131, #279, #43, #230 ) ) ;
#95 = DIRECTION ( 'NONE',  ( -1.224646799147353207E-16, -0.0000000000000000000, -1.000000000000000000 ) ) ;
#96 = VECTOR ( 'NONE', #140, 39.37007874015748143 ) ;
#97 = EDGE_CURVE ( 'NONE', #235, #178, #154, .T. ) ;
#98 = FACE_OUTER_BOUND ( 'NONE', #255, .T. ) ;
#99 = LINE ( 'NONE', #291, #46 ) ;
#100 = CYLINDRICAL_SURFACE ( 'NONE', #224, 0.005899594499999998194 ) ;
#101 = CIRCLE ( 'NONE', #138, 0.005899594499999999062 ) ;
#102 = CYLINDRICAL_SURFACE ( 'NONE', #113, 0.07874000000000001831 ) ;
#103 = CARTESIAN_POINT ( 'NONE',  ( 4.339291003418816329E-18, 0.0000000000000000000, 0.03543299999999999922 ) ) ;
#104 = ADVANCED_FACE ( 'NONE', ( #159 ), #193, .T. ) ;
#105 = LINE ( 'NONE', #267, #209 ) ;
#106 =( CONVERSION_BASED_UNIT ( 'INCH', #61 ) LENGTH_UNIT ( ) NAMED_UNIT ( #1 ) );
#107 = CARTESIAN_POINT ( 'NONE',  ( 0.07874000000000007382, 9.642868896486266213E-18, 0.4485314674457297479 ) ) ;
#108 = ORIENTED_EDGE ( 'NONE', *, *, #155, .F. ) ;
#109 = EDGE_CURVE ( 'NONE', #175, #260, #249, .T. ) ;
#110 = ORIENTED_EDGE ( 'NONE', *, *, #207, .T. ) ;
#111 = MANIFOLD_SOLID_BREP ( 'Cut-Revolve1', #152 ) ;
#112 = EDGE_LOOP ( 'NONE', ( #48, #180, #208, #214 ) ) ;
#113 = AXIS2_PLACEMENT_3D ( 'NONE', #195, #19, #269 ) ;
#114 = DIRECTION ( 'NONE',  ( -1.224646799147353207E-16, -0.0000000000000000000, -1.000000000000000000 ) ) ;
#115 = ORIENTED_EDGE ( 'NONE', *, *, #275, .T. ) ;
#116 = VERTEX_POINT ( 'NONE', #227 ) ;
#117 = DIRECTION ( 'NONE',  ( -0.0000000000000000000, -0.0000000000000000000, -1.000000000000000000 ) ) ;
#118 = EDGE_CURVE ( 'NONE', #31, #253, #105, .T. ) ;
#119 = DIRECTION ( 'NONE',  ( -1.224646799147353207E-16, -0.0000000000000000000, -1.000000000000000000 ) ) ;
#120 = DIRECTION ( 'NONE',  ( -1.224646799147353207E-16, -0.0000000000000000000, -1.000000000000000000 ) ) ;
#121 = AXIS2_PLACEMENT_3D ( 'NONE', #2, #88, #23 ) ;
#122 = CARTESIAN_POINT ( 'NONE',  ( -0.005899594499999994725, 7.224919520692329496E-19, 0.03543299999999999922 ) ) ;
#123 = LINE ( 'NONE', #83, #6 ) ;
#124 = FACE_OUTER_BOUND ( 'NONE', #150, .T. ) ;
#125 = CARTESIAN_POINT ( 'NONE',  ( 8.847974565113086337E-35, 0.0000000000000000000, 7.224919520692325644E-19 ) ) ;
#126 = DIRECTION ( 'NONE',  ( 0.0000000000000000000, 0.0000000000000000000, 1.000000000000000000 ) ) ;
#127 =( LENGTH_UNIT ( ) NAMED_UNIT ( * ) SI_UNIT ( $, .METRE. ) );
#128 = EDGE_CURVE ( 'NONE', #240, #253, #17, .T. ) ;
#129 = ORIENTED_EDGE ( 'NONE', *, *, #144, .F. ) ;
#130 = AXIS2_PLACEMENT_3D ( 'NONE', #103, #120, #148 ) ;
#131 = ORIENTED_EDGE ( 'NONE', *, *, #184, .F. ) ;
#132 = EDGE_LOOP ( 'NONE', ( #220, #51, #108, #276 ) ) ;
#133 = ORIENTED_EDGE ( 'NONE', *, *, #93, .T. ) ;
#134 = MECHANICAL_DESIGN_GEOMETRIC_PRESENTATION_REPRESENTATION (  '', ( #217 ), #266 ) ;
#135 = DIRECTION ( 'NONE',  ( 0.0000000000000000000, 0.0000000000000000000, -1.000000000000000000 ) ) ;
#136 = DIRECTION ( 'NONE',  ( 1.000000000000000000, 0.0000000000000000000, 0.0000000000000000000 ) ) ;
#137 = DIRECTION ( 'NONE',  ( -0.0000000000000000000, -0.0000000000000000000, -1.000000000000000000 ) ) ;
#138 = AXIS2_PLACEMENT_3D ( 'NONE', #143, #225, #250 ) ;
#139 = CARTESIAN_POINT ( 'NONE',  ( 0.0000000000000000000, 0.0000000000000000000, 0.0000000000000000000 ) ) ;
#140 = DIRECTION ( 'NONE',  ( -0.7071067811865507924, 0.0000000000000000000, -0.7071067811865443531 ) ) ;
#141 = DIRECTION ( 'NONE',  ( 1.000000000000000000, 0.0000000000000000000, 0.0000000000000000000 ) ) ;
#142 =( NAMED_UNIT ( * ) PLANE_ANGLE_UNIT ( ) SI_UNIT ( $, .RADIAN. ) );
#143 = CARTESIAN_POINT ( 'NONE',  ( 4.339291003418816329E-18, 0.0000000000000000000, 0.03543299999999999922 ) ) ;
#144 = EDGE_CURVE ( 'NONE', #31, #5, #251, .T. ) ;
#145 = FILL_AREA_STYLE_COLOUR ( '', #189 ) ;
#146 = DIRECTION ( 'NONE',  ( 0.1736481776669313581, 0.0000000000000000000, 0.9848077530122077983 ) ) ;
#147 = DIRECTION ( 'NONE',  ( -1.000000000000000000, 0.0000000000000000000, 1.224646799147352961E-16 ) ) ;
#148 = DIRECTION ( 'NONE',  ( -1.000000000000000000, 0.0000000000000000000, 0.0000000000000000000 ) ) ;
#149 = AXIS2_PLACEMENT_3D ( 'NONE', #239, #30, #213 ) ;
#150 = EDGE_LOOP ( 'NONE', ( #257, #133, #278, #262 ) ) ;
#151 = ORIENTED_EDGE ( 'NONE', *, *, #8, .T. ) ;
#152 = CLOSED_SHELL ( 'NONE', ( #218, #104, #223, #158, #55, #252, #69, #256, #91, #27 ) ) ;
#153 = ORIENTED_EDGE ( 'NONE', *, *, #8, .F. ) ;
#154 = CIRCLE ( 'NONE', #32, 0.07874000000000001831 ) ;
#155 = EDGE_CURVE ( 'NONE', #178, #235, #237, .T. ) ;
#156 = DIRECTION ( 'NONE',  ( 0.0000000000000000000, 0.0000000000000000000, 1.000000000000000000 ) ) ;
#157 = CARTESIAN_POINT ( 'NONE',  ( 0.0000000000000000000, 0.0000000000000000000, 1.953504000000000129 ) ) ;
#158 = ADVANCED_FACE ( 'NONE', ( #170 ), #102, .T. ) ;
#159 = FACE_OUTER_BOUND ( 'NONE', #53, .T. ) ;
#160 = CONICAL_SURFACE ( 'NONE', #205, 0.005899594499999999062, 0.1745329251994338637 ) ;
#161 = LINE ( 'NONE', #183, #188 ) ;
#162 = PLANE ( 'NONE',  #165 ) ;
#163 = EDGE_CURVE ( 'NONE', #31, #178, #168, .T. ) ;
#164 = CYLINDRICAL_SURFACE ( 'NONE', #299, 0.005899594499999998194 ) ;
#165 = AXIS2_PLACEMENT_3D ( 'NONE', #241, #264, #258 ) ;
#166 = DIMENSIONAL_EXPONENTS ( 1.000000000000000000, 0.0000000000000000000, 0.0000000000000000000, 0.0000000000000000000, 0.0000000000000000000, 0.0000000000000000000, 0.0000000000000000000 ) ;
#167 = FILL_AREA_STYLE_COLOUR ( '', #21 ) ;
#168 = LINE ( 'NONE', #122, #280 ) ;
#169 = FILL_AREA_STYLE ('',( #145 ) ) ;
#170 = FACE_OUTER_BOUND ( 'NONE', #132, .T. ) ;
#171 = CARTESIAN_POINT ( 'NONE',  ( -0.06374000000000018540, 0.0000000000000000000, 1.968503999999999809 ) ) ;
#172 = CARTESIAN_POINT ( 'NONE',  ( 0.0000000000000000000, 0.0000000000000000000, 1.968503999999999809 ) ) ;
#173 = LENGTH_MEASURE_WITH_UNIT ( LENGTH_MEASURE( 0.02539999999999999897 ), #38 );
#174 = CIRCLE ( 'NONE', #248, 0.06374000000000018540 ) ;
#175 = VERTEX_POINT ( 'NONE', #171 ) ;
#176 = ORIENTED_EDGE ( 'NONE', *, *, #59, .F. ) ;
#177 = EDGE_CURVE ( 'NONE', #5, #31, #101, .T. ) ;
#178 = VERTEX_POINT ( 'NONE', #272 ) ;
#179 = APPLICATION_PROTOCOL_DEFINITION ( 'draft international standard', 'automotive_design', 1998, #52 ) ;
#180 = ORIENTED_EDGE ( 'NONE', *, *, #177, .T. ) ;
#181 = CIRCLE ( 'NONE', #75, 0.07874000000000001831 ) ;
#182 = DIRECTION ( 'NONE',  ( 1.000000000000000000, 0.0000000000000000000, 0.0000000000000000000 ) ) ;
#183 = CARTESIAN_POINT ( 'NONE',  ( 0.07874000000000001831, 9.642868896486260050E-18, 1.968503999999999809 ) ) ;
#184 = EDGE_CURVE ( 'NONE', #210, #175, #174, .T. ) ;
#185 = DIRECTION ( 'NONE',  ( 1.000000000000000000, 0.0000000000000000000, 0.0000000000000000000 ) ) ;
#186 = PRODUCT ( 'Micro_AMRM-003-2', 'Micro_AMRM-003-2', '', ( #243 ) ) ;
#187 = ORIENTED_EDGE ( 'NONE', *, *, #13, .F. ) ;
#188 = VECTOR ( 'NONE', #117, 39.37007874015748143 ) ;
#189 = COLOUR_RGB ( '',0.7921568627450980005, 0.8196078431372548767, 0.9333333333333333481 ) ;
#190 = DIRECTION ( 'NONE',  ( 0.0000000000000000000, 0.0000000000000000000, 1.000000000000000000 ) ) ;
#191 = DIRECTION ( 'NONE',  ( 0.0000000000000000000, 0.0000000000000000000, -1.000000000000000000 ) ) ;
#192 = CARTESIAN_POINT ( 'NONE',  ( 0.0000000000000000000, 0.0000000000000000000, 0.0000000000000000000 ) ) ;
#193 = CONICAL_SURFACE ( 'NONE', #149, 0.005899594499999999062, 0.1745329251994338637 ) ;
#194 =( GEOMETRIC_REPRESENTATION_CONTEXT ( 3 ) GLOBAL_UNCERTAINTY_ASSIGNED_CONTEXT ( ( #81 ) ) GLOBAL_UNIT_ASSIGNED_CONTEXT ( ( #106, #142, #228 ) ) REPRESENTATION_CONTEXT ( 'NONE', 'WORKASPACE' ) );
#195 = CARTESIAN_POINT ( 'NONE',  ( 0.0000000000000000000, 0.0000000000000000000, 1.968503999999999809 ) ) ;
#196 =( NAMED_UNIT ( * ) SI_UNIT ( $, .STERADIAN. ) SOLID_ANGLE_UNIT ( ) );
#197 = DIRECTION ( 'NONE',  ( -1.224646799147353207E-16, -0.0000000000000000000, -1.000000000000000000 ) ) ;
#198 =( LENGTH_UNIT ( ) NAMED_UNIT ( * ) SI_UNIT ( $, .METRE. ) );
#199 =( NAMED_UNIT ( * ) PLANE_ANGLE_UNIT ( ) SI_UNIT ( $, .RADIAN. ) );
#200 = SURFACE_STYLE_USAGE ( .BOTH. , #60 ) ;
#201 = CARTESIAN_POINT ( 'NONE',  ( 4.339291003418816329E-18, 0.0000000000000000000, 0.03543299999999999922 ) ) ;
#202 = FACE_OUTER_BOUND ( 'NONE', #34, .T. ) ;
#203 = PLANE ( 'NONE',  #37 ) ;
#204 = ORIENTED_EDGE ( 'NONE', *, *, #177, .F. ) ;
#205 = AXIS2_PLACEMENT_3D ( 'NONE', #201, #22, #44 ) ;
#206 = SHAPE_DEFINITION_REPRESENTATION ( #211, #246 ) ;
#207 = EDGE_CURVE ( 'NONE', #5, #235, #294, .T. ) ;
#208 = ORIENTED_EDGE ( 'NONE', *, *, #118, .T. ) ;
#209 = VECTOR ( 'NONE', #58, 39.37007874015748143 ) ;
#210 = VERTEX_POINT ( 'NONE', #82 ) ;
#211 = PRODUCT_DEFINITION_SHAPE ( 'NONE', 'NONE',  #236 ) ;
#212 = CARTESIAN_POINT ( 'NONE',  ( 0.0000000000000000000, 0.0000000000000000000, 1.968503999999999809 ) ) ;
#213 = DIRECTION ( 'NONE',  ( 1.000000000000000000, 0.0000000000000000000, 0.0000000000000000000 ) ) ;
#214 = ORIENTED_EDGE ( 'NONE', *, *, #128, .F. ) ;
#215 = CIRCLE ( 'NONE', #286, 0.06374000000000018540 ) ;
#216 = VECTOR ( 'NONE', #114, 39.37007874015748143 ) ;
#217 = STYLED_ITEM ( 'NONE', ( #65 ), #246 ) ;
#218 = ADVANCED_FACE ( 'NONE', ( #124 ), #100, .T. ) ;
#219 = CARTESIAN_POINT ( 'NONE',  ( -0.07874000000000001831, 0.0000000000000000000, 1.953504000000000129 ) ) ;
#220 = ORIENTED_EDGE ( 'NONE', *, *, #289, .T. ) ;
#221 = DIRECTION ( 'NONE',  ( 1.000000000000000000, 0.0000000000000000000, 0.0000000000000000000 ) ) ;
#222 = CARTESIAN_POINT ( 'NONE',  ( 5.492926259242781545E-17, 0.0000000000000000000, 0.4485314674457297479 ) ) ;
#223 = ADVANCED_FACE ( 'NONE', ( #296 ), #259, .T. ) ;
#224 = AXIS2_PLACEMENT_3D ( 'NONE', #192, #292, #36 ) ;
#225 = DIRECTION ( 'NONE',  ( -1.224646799147353207E-16, -0.0000000000000000000, -1.000000000000000000 ) ) ;
#226 = DIRECTION ( 'NONE',  ( -1.224646799147353207E-16, -0.0000000000000000000, -1.000000000000000000 ) ) ;
#227 = CARTESIAN_POINT ( 'NONE',  ( 0.07874000000000001831, 9.642868896486260050E-18, 1.953504000000000129 ) ) ;
#228 =( NAMED_UNIT ( * ) SI_UNIT ( $, .STERADIAN. ) SOLID_ANGLE_UNIT ( ) );
#229 = CARTESIAN_POINT ( 'NONE',  ( 0.005899594499999997327, 7.224919520692327570E-19, 0.0000000000000000000 ) ) ;
#230 = ORIENTED_EDGE ( 'NONE', *, *, #109, .F. ) ;
#231 =( GEOMETRIC_REPRESENTATION_CONTEXT ( 3 ) GLOBAL_UNCERTAINTY_ASSIGNED_CONTEXT ( ( #40 ) ) GLOBAL_UNIT_ASSIGNED_CONTEXT ( ( #245, #273, #35 ) ) REPRESENTATION_CONTEXT ( 'NONE', 'WORKASPACE' ) );
#232 = AXIS2_PLACEMENT_3D ( 'NONE', #254, #156, #182 ) ;
#233 = ORIENTED_EDGE ( 'NONE', *, *, #283, .T. ) ;
#234 = PRODUCT_DEFINITION_CONTEXT ( 'detailed design', #52, 'design' ) ;
#235 = VERTEX_POINT ( 'NONE', #107 ) ;
#236 = PRODUCT_DEFINITION ( 'UNKNOWN', '', #281, #234 ) ;
#237 = CIRCLE ( 'NONE', #10, 0.07874000000000001831 ) ;
#238 = FACE_OUTER_BOUND ( 'NONE', #112, .T. ) ;
#239 = CARTESIAN_POINT ( 'NONE',  ( 4.339291003418816329E-18, 0.0000000000000000000, 0.03543299999999999922 ) ) ;
#240 = VERTEX_POINT ( 'NONE', #229 ) ;
#241 = CARTESIAN_POINT ( 'NONE',  ( 0.0000000000000000000, 0.0000000000000000000, 0.0000000000000000000 ) ) ;
#242 = CIRCLE ( 'NONE', #265, 0.07874000000000001831 ) ;
#243 = PRODUCT_CONTEXT ( 'NONE', #261, 'mechanical' ) ;
#244 = ORIENTED_EDGE ( 'NONE', *, *, #80, .F. ) ;
#245 =( CONVERSION_BASED_UNIT ( 'INCH', #18 ) LENGTH_UNIT ( ) NAMED_UNIT ( #268 ) );
#246 = ADVANCED_BREP_SHAPE_REPRESENTATION ( 'Micro_AMRM-003-2', ( #111, #232 ), #194 ) ;
#247 = FILL_AREA_STYLE ('',( #167 ) ) ;
#248 = AXIS2_PLACEMENT_3D ( 'NONE', #66, #126, #141 ) ;
#249 = LINE ( 'NONE', #16, #96 ) ;
#250 = DIRECTION ( 'NONE',  ( -1.000000000000000000, 0.0000000000000000000, 0.0000000000000000000 ) ) ;
#251 = CIRCLE ( 'NONE', #130, 0.005899594499999999062 ) ;
#252 = ADVANCED_FACE ( 'NONE', ( #202 ), #203, .T. ) ;
#253 = VERTEX_POINT ( 'NONE', #89 ) ;
#254 = CARTESIAN_POINT ( 'NONE',  ( 0.0000000000000000000, 0.0000000000000000000, 0.0000000000000000000 ) ) ;
#255 = EDGE_LOOP ( 'NONE', ( #233, #77 ) ) ;
#256 = ADVANCED_FACE ( 'NONE', ( #270 ), #160, .T. ) ;
#257 = ORIENTED_EDGE ( 'NONE', *, *, #144, .T. ) ;
#258 = DIRECTION ( 'NONE',  ( 1.000000000000000000, 0.0000000000000000000, -0.0000000000000000000 ) ) ;
#259 = CONICAL_SURFACE ( 'NONE', #121, 0.06374000000000018540, 0.7853981633974528309 ) ;
#260 = VERTEX_POINT ( 'NONE', #219 ) ;
#261 = APPLICATION_CONTEXT ( 'automotive_design' ) ;
#262 = ORIENTED_EDGE ( 'NONE', *, *, #118, .F. ) ;
#263 = CYLINDRICAL_SURFACE ( 'NONE', #271, 0.07874000000000001831 ) ;
#264 = DIRECTION ( 'NONE',  ( 0.0000000000000000000, 0.0000000000000000000, 1.000000000000000000 ) ) ;
#265 = AXIS2_PLACEMENT_3D ( 'NONE', #157, #135, #221 ) ;
#266 =( GEOMETRIC_REPRESENTATION_CONTEXT ( 3 ) GLOBAL_UNCERTAINTY_ASSIGNED_CONTEXT ( ( #4 ) ) GLOBAL_UNIT_ASSIGNED_CONTEXT ( ( #24, #199, #196 ) ) REPRESENTATION_CONTEXT ( 'NONE', 'WORKASPACE' ) );
#267 = CARTESIAN_POINT ( 'NONE',  ( -0.005899594499999998194, 0.0000000000000000000, 7.224919520692327570E-19 ) ) ;
#268 = DIMENSIONAL_EXPONENTS ( 1.000000000000000000, 0.0000000000000000000, 0.0000000000000000000, 0.0000000000000000000, 0.0000000000000000000, 0.0000000000000000000, 0.0000000000000000000 ) ;
#269 = DIRECTION ( 'NONE',  ( -1.000000000000000000, 0.0000000000000000000, 0.0000000000000000000 ) ) ;
#270 = FACE_OUTER_BOUND ( 'NONE', #11, .T. ) ;
#271 = AXIS2_PLACEMENT_3D ( 'NONE', #54, #137, #76 ) ;
#272 = CARTESIAN_POINT ( 'NONE',  ( -0.07873999999999996280, 0.0000000000000000000, 0.4485314674457297479 ) ) ;
#273 =( NAMED_UNIT ( * ) PLANE_ANGLE_UNIT ( ) SI_UNIT ( $, .RADIAN. ) );
#274 = SURFACE_SIDE_STYLE ('',( #41 ) ) ;
#275 = EDGE_CURVE ( 'NONE', #260, #178, #123, .T. ) ;
#276 = ORIENTED_EDGE ( 'NONE', *, *, #275, .F. ) ;
#277 = PRODUCT_RELATED_PRODUCT_CATEGORY ( 'part', '', ( #186 ) ) ;
#278 = ORIENTED_EDGE ( 'NONE', *, *, #283, .F. ) ;
#279 = ORIENTED_EDGE ( 'NONE', *, *, #80, .T. ) ;
#280 = VECTOR ( 'NONE', #86, 39.37007874015747433 ) ;
#281 = PRODUCT_DEFINITION_FORMATION_WITH_SPECIFIED_SOURCE ( 'ANY', '', #186, .NOT_KNOWN. ) ;
#282 = ORIENTED_EDGE ( 'NONE', *, *, #97, .T. ) ;
#283 = EDGE_CURVE ( 'NONE', #253, #240, #64, .T. ) ;
#284 = DIRECTION ( 'NONE',  ( -1.000000000000000000, 0.0000000000000000000, 1.224646799147353207E-16 ) ) ;
#285 = EDGE_LOOP ( 'NONE', ( #244, #153, #49, #187 ) ) ;
#286 = AXIS2_PLACEMENT_3D ( 'NONE', #288, #190, #136 ) ;
#287 = AXIS2_PLACEMENT_3D ( 'NONE', #212, #191, #50 ) ;
#288 = CARTESIAN_POINT ( 'NONE',  ( 0.0000000000000000000, 0.0000000000000000000, 1.968503999999999809 ) ) ;
#289 = EDGE_CURVE ( 'NONE', #260, #116, #181, .T. ) ;
#290 = ORIENTED_EDGE ( 'NONE', *, *, #155, .T. ) ;
#291 = CARTESIAN_POINT ( 'NONE',  ( 0.06374000000000018540, 7.805898697765251255E-18, 1.968503999999999809 ) ) ;
#292 = DIRECTION ( 'NONE',  ( -1.224646799147353207E-16, -0.0000000000000000000, -1.000000000000000000 ) ) ;
#293 = VECTOR ( 'NONE', #146, 39.37007874015748143 ) ;
#294 = LINE ( 'NONE', #15, #293 ) ;
#295 = DIRECTION ( 'NONE',  ( 1.000000000000000000, 0.0000000000000000000, -0.0000000000000000000 ) ) ;
#296 = FACE_OUTER_BOUND ( 'NONE', #94, .T. ) ;
#297 = DIRECTION ( 'NONE',  ( 0.0000000000000000000, 0.0000000000000000000, -1.000000000000000000 ) ) ;
#298 = DIRECTION ( 'NONE',  ( -1.224646799147353207E-16, -0.0000000000000000000, -1.000000000000000000 ) ) ;
#299 = AXIS2_PLACEMENT_3D ( 'NONE', #139, #119, #284 ) ;
ENDSEC;
END-ISO-10303-21;
