ISO-10303-21;
HEADER;
FILE_DESCRIPTION (( 'STEP AP214' ),
    '1' );
FILE_NAME ('81847.STEP',
    '2023-06-23T03:39:33',
    ( '' ),
    ( '' ),
    'SwSTEP 2.0',
    'SolidWorks 2023',
    '' );
FILE_SCHEMA (( 'AUTOMOTIVE_DESIGN' ));
ENDSEC;

DATA;
#1 = CLOSED_SHELL ( 'NONE', ( #123, #232, #90, #260 ) ) ;
#2 = EDGE_CURVE ( 'NONE', #217, #192, #215, .T. ) ;
#3 = DIRECTION ( 'NONE',  ( 0.000000000000000000, 0.000000000000000000, -1.000000000000000000 ) ) ;
#4 = LINE ( 'NONE', #255, #139 ) ;
#5 = SURFACE_STYLE_USAGE ( .BOTH. , #104 ) ;
#6 = COLOUR_RGB ( '',0.7921568627450980005, 0.8196078431372548767, 0.9333333333333333481 ) ;
#7 = EDGE_CURVE ( 'NONE', #187, #136, #195, .T. ) ;
#8 = CARTESIAN_POINT ( 'NONE',  ( -1.224646799147353207E-16, 5.000000000000000000, 0.000000000000000000 ) ) ;
#9 = AXIS2_PLACEMENT_3D ( 'NONE', #133, #216, #66 ) ;
#10 = CYLINDRICAL_SURFACE ( 'NONE', #75, 0.3750000000000001110 ) ;
#11 =( CONVERSION_BASED_UNIT ( 'INCH', #238 ) LENGTH_UNIT ( ) NAMED_UNIT ( #122 ) );
#12 = CARTESIAN_POINT ( 'NONE',  ( 0.3750000000000000555, 5.000000000000000000, 4.592425496802576684E-17 ) ) ;
#13 =( GEOMETRIC_REPRESENTATION_CONTEXT ( 3 ) GLOBAL_UNCERTAINTY_ASSIGNED_CONTEXT ( ( #60 ) ) GLOBAL_UNIT_ASSIGNED_CONTEXT ( ( #77, #282, #63 ) ) REPRESENTATION_CONTEXT ( 'NONE', 'WORKASPACE' ) );
#14 = FILL_AREA_STYLE ('',( #284 ) ) ;
#15 = PRODUCT_CONTEXT ( 'NONE', #242, 'mechanical' ) ;
#16 = PRODUCT ( '81847', '81847', '', ( #15 ) ) ;
#17 = EDGE_LOOP ( 'NONE', ( #251, #303, #253, #126 ) ) ;
#18 = FACE_OUTER_BOUND ( 'NONE', #293, .T. ) ;
#19 = AXIS2_PLACEMENT_3D ( 'NONE', #209, #171, #269 ) ;
#20 = PLANE ( 'NONE',  #35 ) ;
#21 = SURFACE_STYLE_USAGE ( .BOTH. , #223 ) ;
#22 = EDGE_CURVE ( 'NONE', #192, #217, #146, .T. ) ;
#23 = ORIENTED_EDGE ( 'NONE', *, *, #7, .T. ) ;
#24 = AXIS2_PLACEMENT_3D ( 'NONE', #54, #208, #172 ) ;
#25 = FACE_OUTER_BOUND ( 'NONE', #83, .T. ) ;
#26 = AXIS2_PLACEMENT_3D ( 'NONE', #155, #194, #34 ) ;
#27 = ORIENTED_EDGE ( 'NONE', *, *, #2, .T. ) ;
#28 = LENGTH_MEASURE_WITH_UNIT ( LENGTH_MEASURE( 0.02539999999999999897 ), #51 );
#29 = MECHANICAL_DESIGN_GEOMETRIC_PRESENTATION_REPRESENTATION (  '', ( #160 ), #199 ) ;
#30 = ORIENTED_EDGE ( 'NONE', *, *, #44, .F. ) ;
#31 = CARTESIAN_POINT ( 'NONE',  ( 0.000000000000000000, 0.000000000000000000, -0.3750000000000000555 ) ) ;
#32 = ADVANCED_FACE ( 'NONE', ( #211 ), #10, .T. ) ;
#33 = CLOSED_SHELL ( 'NONE', ( #32, #254, #81, #291 ) ) ;
#34 = DIRECTION ( 'NONE',  ( 0.000000000000000000, 0.000000000000000000, -1.000000000000000000 ) ) ;
#35 = AXIS2_PLACEMENT_3D ( 'NONE', #201, #37, #93 ) ;
#36 = LENGTH_MEASURE_WITH_UNIT ( LENGTH_MEASURE( 0.02539999999999999897 ), #45 );
#37 = DIRECTION ( 'NONE',  ( 0.000000000000000000, 1.000000000000000000, 0.000000000000000000 ) ) ;
#38 = VERTEX_POINT ( 'NONE', #62 ) ;
#39 = SURFACE_STYLE_USAGE ( .BOTH. , #250 ) ;
#40 = CARTESIAN_POINT ( 'NONE',  ( 3.032960542342103792E-32, 2.750000000000000000, 0.000000000000000000 ) ) ;
#41 = ORIENTED_EDGE ( 'NONE', *, *, #132, .T. ) ;
#42 = FILL_AREA_STYLE_COLOUR ( '', #266 ) ;
#43 = UNCERTAINTY_MEASURE_WITH_UNIT (LENGTH_MEASURE( 1.000000000000000082E-05 ), #70, 'distance_accuracy_value', 'NONE');
#44 = EDGE_CURVE ( 'NONE', #220, #192, #154, .T. ) ;
#45 =( LENGTH_UNIT ( ) NAMED_UNIT ( * ) SI_UNIT ( $, .METRE. ) );
#46 = FACE_OUTER_BOUND ( 'NONE', #17, .T. ) ;
#47 = DIRECTION ( 'NONE',  ( -5.442874662877125091E-17, 1.000000000000000000, -0.000000000000000000 ) ) ;
#48 = FILL_AREA_STYLE_COLOUR ( '', #261 ) ;
#49 = DIRECTION ( 'NONE',  ( -0.000000000000000000, -1.000000000000000000, -0.000000000000000000 ) ) ;
#50 = CARTESIAN_POINT ( 'NONE',  ( -0.3750000000000000555, 2.750000000000000000, 0.000000000000000000 ) ) ;
#51 =( LENGTH_UNIT ( ) NAMED_UNIT ( * ) SI_UNIT ( $, .METRE. ) );
#52 = ORIENTED_EDGE ( 'NONE', *, *, #185, .T. ) ;
#53 = LENGTH_MEASURE_WITH_UNIT ( LENGTH_MEASURE( 0.02539999999999999897 ), #153 );
#54 = CARTESIAN_POINT ( 'NONE',  ( 3.032960542342103792E-32, 2.750000000000000000, 0.000000000000000000 ) ) ;
#55 =( CONVERSION_BASED_UNIT ( 'INCH', #235 ) LENGTH_UNIT ( ) NAMED_UNIT ( #76 ) );
#56 = DIRECTION ( 'NONE',  ( -5.442874662877125708E-17, 1.000000000000000000, -0.000000000000000000 ) ) ;
#57 = CARTESIAN_POINT ( 'NONE',  ( 0.000000000000000000, 0.000000000000000000, 0.000000000000000000 ) ) ;
#58 = VERTEX_POINT ( 'NONE', #87 ) ;
#59 = DIRECTION ( 'NONE',  ( -1.000000000000000000, 0.000000000000000000, 0.000000000000000000 ) ) ;
#60 = UNCERTAINTY_MEASURE_WITH_UNIT (LENGTH_MEASURE( 1.000000000000000082E-05 ), #77, 'distance_accuracy_value', 'NONE');
#61 = PLANE ( 'NONE',  #9 ) ;
#62 = CARTESIAN_POINT ( 'NONE',  ( 4.592425496802575451E-17, 2.750000000000000000, 0.3750000000000000555 ) ) ;
#63 =( NAMED_UNIT ( * ) SI_UNIT ( $, .STERADIAN. ) SOLID_ANGLE_UNIT ( ) );
#64 =( NAMED_UNIT ( * ) PLANE_ANGLE_UNIT ( ) SI_UNIT ( $, .RADIAN. ) );
#65 =( GEOMETRIC_REPRESENTATION_CONTEXT ( 3 ) GLOBAL_UNCERTAINTY_ASSIGNED_CONTEXT ( ( #257 ) ) GLOBAL_UNIT_ASSIGNED_CONTEXT ( ( #125, #234, #113 ) ) REPRESENTATION_CONTEXT ( 'NONE', 'WORKASPACE' ) );
#66 = DIRECTION ( 'NONE',  ( -1.000000000000000000, -5.442874662877125091E-17, 0.000000000000000000 ) ) ;
#67 = CYLINDRICAL_SURFACE ( 'NONE', #158, 0.3750000000000000555 ) ;
#68 = EDGE_CURVE ( 'NONE', #220, #38, #121, .T. ) ;
#69 = PLANE ( 'NONE',  #274 ) ;
#70 =( CONVERSION_BASED_UNIT ( 'INCH', #184 ) LENGTH_UNIT ( ) NAMED_UNIT ( #98 ) );
#71 = PRESENTATION_STYLE_ASSIGNMENT (( #141 ) ) ;
#72 = PRESENTATION_LAYER_ASSIGNMENT (  '', '', ( #231 ) ) ;
#73 = DIMENSIONAL_EXPONENTS ( 1.000000000000000000, 0.000000000000000000, 0.000000000000000000, 0.000000000000000000, 0.000000000000000000, 0.000000000000000000, 0.000000000000000000 ) ;
#74 = ORIENTED_EDGE ( 'NONE', *, *, #185, .F. ) ;
#75 = AXIS2_PLACEMENT_3D ( 'NONE', #193, #240, #129 ) ;
#76 = DIMENSIONAL_EXPONENTS ( 1.000000000000000000, 0.000000000000000000, 0.000000000000000000, 0.000000000000000000, 0.000000000000000000, 0.000000000000000000, 0.000000000000000000 ) ;
#77 =( CONVERSION_BASED_UNIT ( 'INCH', #53 ) LENGTH_UNIT ( ) NAMED_UNIT ( #73 ) );
#78 = ORIENTED_EDGE ( 'NONE', *, *, #144, .F. ) ;
#79 = UNCERTAINTY_MEASURE_WITH_UNIT (LENGTH_MEASURE( 1.000000000000000082E-05 ), #11, 'distance_accuracy_value', 'NONE');
#80 = LINE ( 'NONE', #200, #288 ) ;
#81 = ADVANCED_FACE ( 'NONE', ( #183 ), #205, .T. ) ;
#82 = PRODUCT_DEFINITION_FORMATION_WITH_SPECIFIED_SOURCE ( 'ANY', '', #16, .NOT_KNOWN. ) ;
#83 = EDGE_LOOP ( 'NONE', ( #275, #41, #103, #30 ) ) ;
#84 = LENGTH_MEASURE_WITH_UNIT ( LENGTH_MEASURE( 0.02539999999999999897 ), #218 );
#85 =( GEOMETRIC_REPRESENTATION_CONTEXT ( 3 ) GLOBAL_UNCERTAINTY_ASSIGNED_CONTEXT ( ( #283 ) ) GLOBAL_UNIT_ASSIGNED_CONTEXT ( ( #55, #105, #114 ) ) REPRESENTATION_CONTEXT ( 'NONE', 'WORKASPACE' ) );
#86 = FILL_AREA_STYLE ('',( #108 ) ) ;
#87 = CARTESIAN_POINT ( 'NONE',  ( -0.3750000000000002776, 5.000000000000000000, 0.000000000000000000 ) ) ;
#88 =( CONVERSION_BASED_UNIT ( 'INCH', #36 ) LENGTH_UNIT ( ) NAMED_UNIT ( #168 ) );
#89 =( LENGTH_UNIT ( ) NAMED_UNIT ( * ) SI_UNIT ( $, .METRE. ) );
#90 = ADVANCED_FACE ( 'NONE', ( #46 ), #67, .T. ) ;
#91 = PRESENTATION_LAYER_ASSIGNMENT (  '', '', ( #300 ) ) ;
#92 =( GEOMETRIC_REPRESENTATION_CONTEXT ( 3 ) GLOBAL_UNCERTAINTY_ASSIGNED_CONTEXT ( ( #248 ) ) GLOBAL_UNIT_ASSIGNED_CONTEXT ( ( #302, #278, #249 ) ) REPRESENTATION_CONTEXT ( 'NONE', 'WORKASPACE' ) );
#93 = DIRECTION ( 'NONE',  ( 0.000000000000000000, -0.000000000000000000, 1.000000000000000000 ) ) ;
#94 =( NAMED_UNIT ( * ) SI_UNIT ( $, .STERADIAN. ) SOLID_ANGLE_UNIT ( ) );
#95 =( LENGTH_UNIT ( ) NAMED_UNIT ( * ) SI_UNIT ( $, .METRE. ) );
#96 = CARTESIAN_POINT ( 'NONE',  ( 0.3749999999999999445, 5.000000000000000000, 4.592425496802576068E-17 ) ) ;
#97 = PLANE ( 'NONE',  #196 ) ;
#98 = DIMENSIONAL_EXPONENTS ( 1.000000000000000000, 0.000000000000000000, 0.000000000000000000, 0.000000000000000000, 0.000000000000000000, 0.000000000000000000, 0.000000000000000000 ) ;
#99 = EDGE_LOOP ( 'NONE', ( #23, #124, #296, #281 ) ) ;
#100 = DIRECTION ( 'NONE',  ( -1.000000000000000000, 0.000000000000000000, 0.000000000000000000 ) ) ;
#101 = EDGE_LOOP ( 'NONE', ( #297, #78 ) ) ;
#102 = CIRCLE ( 'NONE', #245, 0.3750000000000000555 ) ;
#103 = ORIENTED_EDGE ( 'NONE', *, *, #22, .F. ) ;
#104 = SURFACE_SIDE_STYLE ('',( #270 ) ) ;
#105 =( NAMED_UNIT ( * ) PLANE_ANGLE_UNIT ( ) SI_UNIT ( $, .RADIAN. ) );
#106 = FACE_OUTER_BOUND ( 'NONE', #271, .T. ) ;
#107 = DIRECTION ( 'NONE',  ( 0.000000000000000000, 0.000000000000000000, 1.000000000000000000 ) ) ;
#108 = FILL_AREA_STYLE_COLOUR ( '', #305 ) ;
#109 =( GEOMETRIC_REPRESENTATION_CONTEXT ( 3 ) GLOBAL_UNCERTAINTY_ASSIGNED_CONTEXT ( ( #79 ) ) GLOBAL_UNIT_ASSIGNED_CONTEXT ( ( #11, #145, #94 ) ) REPRESENTATION_CONTEXT ( 'NONE', 'WORKASPACE' ) );
#110 = COLOUR_RGB ( '',1.000000000000000000, 0.000000000000000000, 0.000000000000000000 ) ;
#111 = SURFACE_STYLE_USAGE ( .BOTH. , #116 ) ;
#112 = SURFACE_STYLE_FILL_AREA ( #307 ) ;
#113 =( NAMED_UNIT ( * ) SI_UNIT ( $, .STERADIAN. ) SOLID_ANGLE_UNIT ( ) );
#114 =( NAMED_UNIT ( * ) SI_UNIT ( $, .STERADIAN. ) SOLID_ANGLE_UNIT ( ) );
#115 = SURFACE_SIDE_STYLE ('',( #226 ) ) ;
#116 = SURFACE_SIDE_STYLE ('',( #222 ) ) ;
#117 = STYLED_ITEM ( 'NONE', ( #225 ), #159 ) ;
#118 = CARTESIAN_POINT ( 'NONE',  ( 0.3750000000000000555, 5.000000000000000000, 0.000000000000000000 ) ) ;
#119 = EDGE_LOOP ( 'NONE', ( #142, #256 ) ) ;
#120 = SURFACE_STYLE_USAGE ( .BOTH. , #228 ) ;
#121 = CIRCLE ( 'NONE', #26, 0.3750000000000000555 ) ;
#122 = DIMENSIONAL_EXPONENTS ( 1.000000000000000000, 0.000000000000000000, 0.000000000000000000, 0.000000000000000000, 0.000000000000000000, 0.000000000000000000, 0.000000000000000000 ) ;
#123 = ADVANCED_FACE ( 'NONE', ( #25 ), #188, .T. ) ;
#124 = ORIENTED_EDGE ( 'NONE', *, *, #301, .T. ) ;
#125 =( CONVERSION_BASED_UNIT ( 'INCH', #28 ) LENGTH_UNIT ( ) NAMED_UNIT ( #267 ) );
#126 = ORIENTED_EDGE ( 'NONE', *, *, #2, .F. ) ;
#127 = STYLED_ITEM ( 'NONE', ( #298 ), #166 ) ;
#128 = FACE_OUTER_BOUND ( 'NONE', #119, .T. ) ;
#129 = DIRECTION ( 'NONE',  ( -1.000000000000000000, 0.000000000000000000, 0.000000000000000000 ) ) ;
#130 = UNCERTAINTY_MEASURE_WITH_UNIT (LENGTH_MEASURE( 1.000000000000000082E-05 ), #88, 'distance_accuracy_value', 'NONE');
#131 = CARTESIAN_POINT ( 'NONE',  ( 0.000000000000000000, 0.000000000000000000, -0.3750000000000000555 ) ) ;
#132 = EDGE_CURVE ( 'NONE', #38, #217, #4, .T. ) ;
#133 = CARTESIAN_POINT ( 'NONE',  ( 5.554665861710585348E-34, 2.750000000000000000, 0.000000000000000000 ) ) ;
#134 = COLOUR_RGB ( '',1.000000000000000000, 0.000000000000000000, 0.000000000000000000 ) ;
#135 = DIRECTION ( 'NONE',  ( -5.442874662877125708E-17, 1.000000000000000000, -0.000000000000000000 ) ) ;
#136 = VERTEX_POINT ( 'NONE', #294 ) ;
#137 = DIRECTION ( 'NONE',  ( 0.000000000000000000, 0.000000000000000000, -1.000000000000000000 ) ) ;
#138 = DIRECTION ( 'NONE',  ( 0.000000000000000000, 0.000000000000000000, -1.000000000000000000 ) ) ;
#139 = VECTOR ( 'NONE', #190, 39.37007874015748143 ) ;
#140 = FILL_AREA_STYLE ('',( #259 ) ) ;
#141 = SURFACE_STYLE_USAGE ( .BOTH. , #115 ) ;
#142 = ORIENTED_EDGE ( 'NONE', *, *, #213, .T. ) ;
#143 =( LENGTH_UNIT ( ) NAMED_UNIT ( * ) SI_UNIT ( $, .METRE. ) );
#144 = EDGE_CURVE ( 'NONE', #38, #220, #102, .T. ) ;
#145 =( NAMED_UNIT ( * ) PLANE_ANGLE_UNIT ( ) SI_UNIT ( $, .RADIAN. ) );
#146 = CIRCLE ( 'NONE', #173, 0.3750000000000000555 ) ;
#147 = CIRCLE ( 'NONE', #207, 0.3750000000000001665 ) ;
#148 = APPLICATION_PROTOCOL_DEFINITION ( 'draft international standard', 'automotive_design', 1998, #242 ) ;
#149 = CARTESIAN_POINT ( 'NONE',  ( -1.224646799147353207E-16, 5.000000000000000000, 0.000000000000000000 ) ) ;
#150 = DIRECTION ( 'NONE',  ( 1.000000000000000000, 0.000000000000000000, 0.000000000000000000 ) ) ;
#151 = AXIS2_PLACEMENT_3D ( 'NONE', #262, #163, #162 ) ;
#152 = CIRCLE ( 'NONE', #239, 0.3750000000000001665 ) ;
#153 =( LENGTH_UNIT ( ) NAMED_UNIT ( * ) SI_UNIT ( $, .METRE. ) );
#154 = LINE ( 'NONE', #131, #230 ) ;
#155 = CARTESIAN_POINT ( 'NONE',  ( 0.000000000000000000, 2.750000000000000000, 0.000000000000000000 ) ) ;
#156 =( NAMED_UNIT ( * ) SI_UNIT ( $, .STERADIAN. ) SOLID_ANGLE_UNIT ( ) );
#157 = ORIENTED_EDGE ( 'NONE', *, *, #7, .F. ) ;
#158 = AXIS2_PLACEMENT_3D ( 'NONE', #287, #179, #137 ) ;
#159 = MANIFOLD_SOLID_BREP ( 'Revolve - Cutting Edge', #1 ) ;
#160 = STYLED_ITEM ( 'NONE', ( #219 ), #232 ) ;
#161 = DIRECTION ( 'NONE',  ( 1.000000000000000000, 5.442874662877125091E-17, 0.000000000000000000 ) ) ;
#162 = DIRECTION ( 'NONE',  ( -1.000000000000000000, 0.000000000000000000, 0.000000000000000000 ) ) ;
#163 = DIRECTION ( 'NONE',  ( -5.442874662877125708E-17, 1.000000000000000000, -0.000000000000000000 ) ) ;
#164 = MECHANICAL_DESIGN_GEOMETRIC_PRESENTATION_REPRESENTATION (  '', ( #127 ), #109 ) ;
#165 = AXIS2_PLACEMENT_3D ( 'NONE', #40, #135, #100 ) ;
#166 = MANIFOLD_SOLID_BREP ( 'Revolve - Tool Body (Straight Shanked)', #33 ) ;
#167 = VERTEX_POINT ( 'NONE', #12 ) ;
#168 = DIMENSIONAL_EXPONENTS ( 1.000000000000000000, 0.000000000000000000, 0.000000000000000000, 0.000000000000000000, 0.000000000000000000, 0.000000000000000000, 0.000000000000000000 ) ;
#169 = DIRECTION ( 'NONE',  ( -0.000000000000000000, -1.000000000000000000, -0.000000000000000000 ) ) ;
#170 =( GEOMETRIC_REPRESENTATION_CONTEXT ( 3 ) GLOBAL_UNCERTAINTY_ASSIGNED_CONTEXT ( ( #43 ) ) GLOBAL_UNIT_ASSIGNED_CONTEXT ( ( #70, #264, #309 ) ) REPRESENTATION_CONTEXT ( 'NONE', 'WORKASPACE' ) );
#171 = DIRECTION ( 'NONE',  ( -0.000000000000000000, -1.000000000000000000, -0.000000000000000000 ) ) ;
#172 = DIRECTION ( 'NONE',  ( -1.000000000000000000, 0.000000000000000000, 0.000000000000000000 ) ) ;
#173 = AXIS2_PLACEMENT_3D ( 'NONE', #57, #237, #3 ) ;
#174 = ORIENTED_EDGE ( 'NONE', *, *, #276, .F. ) ;
#175 = FACE_OUTER_BOUND ( 'NONE', #101, .T. ) ;
#176 = MECHANICAL_DESIGN_GEOMETRIC_PRESENTATION_REPRESENTATION (  '', ( #231 ), #65 ) ;
#177 = SURFACE_STYLE_FILL_AREA ( #86 ) ;
#178 = ADVANCED_BREP_SHAPE_REPRESENTATION ( '81847', ( #159, #166, #203 ), #92 ) ;
#179 = DIRECTION ( 'NONE',  ( -0.000000000000000000, -1.000000000000000000, -0.000000000000000000 ) ) ;
#180 = CARTESIAN_POINT ( 'NONE',  ( 0.000000000000000000, 0.000000000000000000, 0.000000000000000000 ) ) ;
#181 = PRESENTATION_LAYER_ASSIGNMENT (  '', '', ( #191 ) ) ;
#182 = EDGE_CURVE ( 'NONE', #187, #58, #80, .T. ) ;
#183 = FACE_OUTER_BOUND ( 'NONE', #224, .T. ) ;
#184 = LENGTH_MEASURE_WITH_UNIT ( LENGTH_MEASURE( 0.02539999999999999897 ), #89 );
#185 = EDGE_CURVE ( 'NONE', #136, #187, #221, .T. ) ;
#186 = DIRECTION ( 'NONE',  ( 5.442874662877125091E-17, -1.000000000000000000, 0.000000000000000000 ) ) ;
#187 = VERTEX_POINT ( 'NONE', #50 ) ;
#188 = CYLINDRICAL_SURFACE ( 'NONE', #202, 0.3750000000000000555 ) ;
#189 = DIMENSIONAL_EXPONENTS ( 1.000000000000000000, 0.000000000000000000, 0.000000000000000000, 0.000000000000000000, 0.000000000000000000, 0.000000000000000000, 0.000000000000000000 ) ;
#190 = DIRECTION ( 'NONE',  ( -0.000000000000000000, -1.000000000000000000, -0.000000000000000000 ) ) ;
#191 = STYLED_ITEM ( 'NONE', ( #71 ), #123 ) ;
#192 = VERTEX_POINT ( 'NONE', #31 ) ;
#193 = CARTESIAN_POINT ( 'NONE',  ( -1.224646799147353207E-16, 5.000000000000000000, 0.000000000000000000 ) ) ;
#194 = DIRECTION ( 'NONE',  ( -0.000000000000000000, -1.000000000000000000, -0.000000000000000000 ) ) ;
#195 = CIRCLE ( 'NONE', #24, 0.3750000000000000555 ) ;
#196 = AXIS2_PLACEMENT_3D ( 'NONE', #118, #186, #161 ) ;
#197 = DIRECTION ( 'NONE',  ( -0.000000000000000000, -1.000000000000000000, -0.000000000000000000 ) ) ;
#198 = APPLICATION_PROTOCOL_DEFINITION ( 'draft international standard', 'automotive_design', 1998, #273 ) ;
#199 =( GEOMETRIC_REPRESENTATION_CONTEXT ( 3 ) GLOBAL_UNCERTAINTY_ASSIGNED_CONTEXT ( ( #130 ) ) GLOBAL_UNIT_ASSIGNED_CONTEXT ( ( #88, #64, #156 ) ) REPRESENTATION_CONTEXT ( 'NONE', 'WORKASPACE' ) );
#200 = CARTESIAN_POINT ( 'NONE',  ( -0.3750000000000002220, 5.000000000000000000, 0.000000000000000000 ) ) ;
#201 = CARTESIAN_POINT ( 'NONE',  ( 0.000000000000000000, 2.750000000000000000, 0.000000000000000000 ) ) ;
#202 = AXIS2_PLACEMENT_3D ( 'NONE', #180, #169, #233 ) ;
#203 = AXIS2_PLACEMENT_3D ( 'NONE', #214, #107, #150 ) ;
#204 = DIRECTION ( 'NONE',  ( 0.000000000000000000, -1.000000000000000000, -0.000000000000000000 ) ) ;
#205 = CYLINDRICAL_SURFACE ( 'NONE', #151, 0.3750000000000001110 ) ;
#206 = DIRECTION ( 'NONE',  ( -5.442874662877125091E-17, 1.000000000000000000, -0.000000000000000000 ) ) ;
#207 = AXIS2_PLACEMENT_3D ( 'NONE', #149, #277, #263 ) ;
#208 = DIRECTION ( 'NONE',  ( -5.442874662877125708E-17, 1.000000000000000000, -0.000000000000000000 ) ) ;
#209 = CARTESIAN_POINT ( 'NONE',  ( 0.000000000000000000, 0.000000000000000000, 0.000000000000000000 ) ) ;
#210 = MECHANICAL_DESIGN_GEOMETRIC_PRESENTATION_REPRESENTATION (  '', ( #191 ), #170 ) ;
#211 = FACE_OUTER_BOUND ( 'NONE', #99, .T. ) ;
#212 = FILL_AREA_STYLE ('',( #48 ) ) ;
#213 = EDGE_CURVE ( 'NONE', #58, #167, #147, .T. ) ;
#214 = CARTESIAN_POINT ( 'NONE',  ( 0.000000000000000000, 0.000000000000000000, 0.000000000000000000 ) ) ;
#215 = CIRCLE ( 'NONE', #19, 0.3750000000000000555 ) ;
#216 = DIRECTION ( 'NONE',  ( -5.442874662877125091E-17, 1.000000000000000000, 0.000000000000000000 ) ) ;
#217 = VERTEX_POINT ( 'NONE', #243 ) ;
#218 =( LENGTH_UNIT ( ) NAMED_UNIT ( * ) SI_UNIT ( $, .METRE. ) );
#219 = PRESENTATION_STYLE_ASSIGNMENT (( #39 ) ) ;
#220 = VERTEX_POINT ( 'NONE', #299 ) ;
#221 = CIRCLE ( 'NONE', #165, 0.3750000000000000555 ) ;
#222 = SURFACE_STYLE_FILL_AREA ( #14 ) ;
#223 = SURFACE_SIDE_STYLE ('',( #177 ) ) ;
#224 = EDGE_LOOP ( 'NONE', ( #306, #52, #290, #174 ) ) ;
#225 = PRESENTATION_STYLE_ASSIGNMENT (( #111 ) ) ;
#226 = SURFACE_STYLE_FILL_AREA ( #286 ) ;
#227 = CARTESIAN_POINT ( 'NONE',  ( 0.000000000000000000, 0.000000000000000000, 0.000000000000000000 ) ) ;
#228 = SURFACE_SIDE_STYLE ('',( #229 ) ) ;
#229 = SURFACE_STYLE_FILL_AREA ( #140 ) ;
#230 = VECTOR ( 'NONE', #197, 39.37007874015748143 ) ;
#231 = STYLED_ITEM ( 'NONE', ( #236 ), #260 ) ;
#232 = ADVANCED_FACE ( 'NONE', ( #175 ), #20, .T. ) ;
#233 = DIRECTION ( 'NONE',  ( 0.000000000000000000, 0.000000000000000000, -1.000000000000000000 ) ) ;
#234 =( NAMED_UNIT ( * ) PLANE_ANGLE_UNIT ( ) SI_UNIT ( $, .RADIAN. ) );
#235 = LENGTH_MEASURE_WITH_UNIT ( LENGTH_MEASURE( 0.02539999999999999897 ), #143 );
#236 = PRESENTATION_STYLE_ASSIGNMENT (( #21 ) ) ;
#237 = DIRECTION ( 'NONE',  ( -0.000000000000000000, -1.000000000000000000, -0.000000000000000000 ) ) ;
#238 = LENGTH_MEASURE_WITH_UNIT ( LENGTH_MEASURE( 0.02539999999999999897 ), #95 );
#239 = AXIS2_PLACEMENT_3D ( 'NONE', #8, #56, #59 ) ;
#240 = DIRECTION ( 'NONE',  ( -5.442874662877125708E-17, 1.000000000000000000, -0.000000000000000000 ) ) ;
#241 = ORIENTED_EDGE ( 'NONE', *, *, #22, .T. ) ;
#242 = APPLICATION_CONTEXT ( 'automotive_design' ) ;
#243 = CARTESIAN_POINT ( 'NONE',  ( 4.592425496802575451E-17, 0.000000000000000000, 0.3750000000000000555 ) ) ;
#244 = PRODUCT_RELATED_PRODUCT_CATEGORY ( 'part', '', ( #16 ) ) ;
#245 = AXIS2_PLACEMENT_3D ( 'NONE', #268, #49, #138 ) ;
#246 = PRESENTATION_LAYER_ASSIGNMENT (  '', '', ( #160 ) ) ;
#247 = SHAPE_DEFINITION_REPRESENTATION ( #279, #178 ) ;
#248 = UNCERTAINTY_MEASURE_WITH_UNIT (LENGTH_MEASURE( 1.000000000000000082E-05 ), #302, 'distance_accuracy_value', 'NONE');
#249 =( NAMED_UNIT ( * ) SI_UNIT ( $, .STERADIAN. ) SOLID_ANGLE_UNIT ( ) );
#250 = SURFACE_SIDE_STYLE ('',( #112 ) ) ;
#251 = ORIENTED_EDGE ( 'NONE', *, *, #132, .F. ) ;
#252 = DIRECTION ( 'NONE',  ( 0.000000000000000000, 0.000000000000000000, -1.000000000000000000 ) ) ;
#253 = ORIENTED_EDGE ( 'NONE', *, *, #44, .T. ) ;
#254 = ADVANCED_FACE ( 'NONE', ( #106 ), #61, .F. ) ;
#255 = CARTESIAN_POINT ( 'NONE',  ( 4.592425496802575451E-17, 0.000000000000000000, 0.3750000000000000555 ) ) ;
#256 = ORIENTED_EDGE ( 'NONE', *, *, #276, .T. ) ;
#257 = UNCERTAINTY_MEASURE_WITH_UNIT (LENGTH_MEASURE( 1.000000000000000082E-05 ), #125, 'distance_accuracy_value', 'NONE');
#258 = LINE ( 'NONE', #96, #289 ) ;
#259 = FILL_AREA_STYLE_COLOUR ( '', #134 ) ;
#260 = ADVANCED_FACE ( 'NONE', ( #18 ), #69, .T. ) ;
#261 = COLOUR_RGB ( '',0.7921568627450980005, 0.8196078431372548767, 0.9333333333333333481 ) ;
#262 = CARTESIAN_POINT ( 'NONE',  ( -1.224646799147353207E-16, 5.000000000000000000, 0.000000000000000000 ) ) ;
#263 = DIRECTION ( 'NONE',  ( -1.000000000000000000, 0.000000000000000000, 0.000000000000000000 ) ) ;
#264 =( NAMED_UNIT ( * ) PLANE_ANGLE_UNIT ( ) SI_UNIT ( $, .RADIAN. ) );
#265 = PRODUCT_DEFINITION ( 'UNKNOWN', '', #82, #272 ) ;
#266 = COLOUR_RGB ( '',1.000000000000000000, 0.000000000000000000, 0.000000000000000000 ) ;
#267 = DIMENSIONAL_EXPONENTS ( 1.000000000000000000, 0.000000000000000000, 0.000000000000000000, 0.000000000000000000, 0.000000000000000000, 0.000000000000000000, 0.000000000000000000 ) ;
#268 = CARTESIAN_POINT ( 'NONE',  ( 0.000000000000000000, 2.750000000000000000, 0.000000000000000000 ) ) ;
#269 = DIRECTION ( 'NONE',  ( 0.000000000000000000, 0.000000000000000000, -1.000000000000000000 ) ) ;
#270 = SURFACE_STYLE_FILL_AREA ( #212 ) ;
#271 = EDGE_LOOP ( 'NONE', ( #157, #74 ) ) ;
#272 = PRODUCT_DEFINITION_CONTEXT ( 'detailed design', #273, 'design' ) ;
#273 = APPLICATION_CONTEXT ( 'automotive_design' ) ;
#274 = AXIS2_PLACEMENT_3D ( 'NONE', #227, #204, #252 ) ;
#275 = ORIENTED_EDGE ( 'NONE', *, *, #68, .T. ) ;
#276 = EDGE_CURVE ( 'NONE', #167, #58, #152, .T. ) ;
#277 = DIRECTION ( 'NONE',  ( -5.442874662877125708E-17, 1.000000000000000000, -0.000000000000000000 ) ) ;
#278 =( NAMED_UNIT ( * ) PLANE_ANGLE_UNIT ( ) SI_UNIT ( $, .RADIAN. ) );
#279 = PRODUCT_DEFINITION_SHAPE ( 'NONE', 'NONE',  #265 ) ;
#280 = MECHANICAL_DESIGN_GEOMETRIC_PRESENTATION_REPRESENTATION (  '', ( #117 ), #85 ) ;
#281 = ORIENTED_EDGE ( 'NONE', *, *, #182, .F. ) ;
#282 =( NAMED_UNIT ( * ) PLANE_ANGLE_UNIT ( ) SI_UNIT ( $, .RADIAN. ) );
#283 = UNCERTAINTY_MEASURE_WITH_UNIT (LENGTH_MEASURE( 1.000000000000000082E-05 ), #55, 'distance_accuracy_value', 'NONE');
#284 = FILL_AREA_STYLE_COLOUR ( '', #6 ) ;
#285 = MECHANICAL_DESIGN_GEOMETRIC_PRESENTATION_REPRESENTATION (  '', ( #300 ), #13 ) ;
#286 = FILL_AREA_STYLE ('',( #42 ) ) ;
#287 = CARTESIAN_POINT ( 'NONE',  ( 0.000000000000000000, 0.000000000000000000, 0.000000000000000000 ) ) ;
#288 = VECTOR ( 'NONE', #47, 39.37007874015748143 ) ;
#289 = VECTOR ( 'NONE', #206, 39.37007874015748143 ) ;
#290 = ORIENTED_EDGE ( 'NONE', *, *, #182, .T. ) ;
#291 = ADVANCED_FACE ( 'NONE', ( #128 ), #97, .F. ) ;
#292 = PRESENTATION_STYLE_ASSIGNMENT (( #120 ) ) ;
#293 = EDGE_LOOP ( 'NONE', ( #241, #27 ) ) ;
#294 = CARTESIAN_POINT ( 'NONE',  ( 0.3750000000000000555, 2.750000000000000000, 4.592425496802576684E-17 ) ) ;
#295 = PRESENTATION_LAYER_ASSIGNMENT (  '', '', ( #117 ) ) ;
#296 = ORIENTED_EDGE ( 'NONE', *, *, #213, .F. ) ;
#297 = ORIENTED_EDGE ( 'NONE', *, *, #68, .F. ) ;
#298 = PRESENTATION_STYLE_ASSIGNMENT (( #5 ) ) ;
#299 = CARTESIAN_POINT ( 'NONE',  ( 0.000000000000000000, 2.750000000000000000, -0.3750000000000000555 ) ) ;
#300 = STYLED_ITEM ( 'NONE', ( #292 ), #90 ) ;
#301 = EDGE_CURVE ( 'NONE', #136, #167, #258, .T. ) ;
#302 =( CONVERSION_BASED_UNIT ( 'INCH', #84 ) LENGTH_UNIT ( ) NAMED_UNIT ( #189 ) );
#303 = ORIENTED_EDGE ( 'NONE', *, *, #144, .T. ) ;
#304 = PRESENTATION_LAYER_ASSIGNMENT (  '', '', ( #127 ) ) ;
#305 = COLOUR_RGB ( '',1.000000000000000000, 0.000000000000000000, 0.000000000000000000 ) ;
#306 = ORIENTED_EDGE ( 'NONE', *, *, #301, .F. ) ;
#307 = FILL_AREA_STYLE ('',( #308 ) ) ;
#308 = FILL_AREA_STYLE_COLOUR ( '', #110 ) ;
#309 =( NAMED_UNIT ( * ) SI_UNIT ( $, .STERADIAN. ) SOLID_ANGLE_UNIT ( ) );
ENDSEC;
END-ISO-10303-21;
