ISO-10303-21;
HEADER;
FILE_DESCRIPTION (( 'STEP AP214' ),
    '1' );
FILE_NAME ('59488.STEP',
    '2023-07-24T15:47:57',
    ( '' ),
    ( '' ),
    'SwSTEP 2.0',
    'SolidWorks 2023',
    '' );
FILE_SCHEMA (( 'AUTOMOTIVE_DESIGN' ));
ENDSEC;

DATA;
#1 = ADVANCED_BREP_SHAPE_REPRESENTATION ( '59488', ( #157, #63, #96 ), #211 ) ;
#2 = PRODUCT_CONTEXT ( 'NONE', #44, 'mechanical' ) ;
#3 = CARTESIAN_POINT ( 'NONE',  ( 8.000000000000000000, 89.00000000000000000, 9.797174393178825657E-16 ) ) ;
#4 = CIRCLE ( 'NONE', #168, 8.000000000000001776 ) ;
#5 = FACE_OUTER_BOUND ( 'NONE', #227, .T. ) ;
#6 = SURFACE_STYLE_FILL_AREA ( #223 ) ;
#7 = CARTESIAN_POINT ( 'NONE',  ( 8.000000000000000000, 89.00000000000000000, 0.000000000000000000 ) ) ;
#8 = PRODUCT_DEFINITION_SHAPE ( 'NONE', 'NONE',  #133 ) ;
#9 = ORIENTED_EDGE ( 'NONE', *, *, #257, .F. ) ;
#10 = EDGE_CURVE ( 'NONE', #123, #206, #95, .T. ) ;
#11 = CARTESIAN_POINT ( 'NONE',  ( 0.000000000000000000, 32.00000000000000000, 0.000000000000000000 ) ) ;
#12 = AXIS2_PLACEMENT_3D ( 'NONE', #11, #104, #186 ) ;
#13 = ORIENTED_EDGE ( 'NONE', *, *, #182, .T. ) ;
#14 = FACE_OUTER_BOUND ( 'NONE', #122, .T. ) ;
#15 = DIRECTION ( 'NONE',  ( -0.000000000000000000, -1.000000000000000000, -0.000000000000000000 ) ) ;
#16 =( NAMED_UNIT ( * ) SI_UNIT ( $, .STERADIAN. ) SOLID_ANGLE_UNIT ( ) );
#17 = UNCERTAINTY_MEASURE_WITH_UNIT (LENGTH_MEASURE( 1.000000000000000082E-05 ), #26, 'distance_accuracy_value', 'NONE');
#18 = CIRCLE ( 'NONE', #202, 8.000000000000000000 ) ;
#19 =( NAMED_UNIT ( * ) PLANE_ANGLE_UNIT ( ) SI_UNIT ( $, .RADIAN. ) );
#20 = PLANE ( 'NONE',  #273 ) ;
#21 = ADVANCED_FACE ( 'NONE', ( #275 ), #78, .T. ) ;
#22 = LINE ( 'NONE', #264, #274 ) ;
#23 = SURFACE_STYLE_USAGE ( .BOTH. , #231 ) ;
#24 = LINE ( 'NONE', #134, #252 ) ;
#25 = PRESENTATION_LAYER_ASSIGNMENT (  '', '', ( #34 ) ) ;
#26 =( LENGTH_UNIT ( ) NAMED_UNIT ( * ) SI_UNIT ( .MILLI., .METRE. ) );
#27 = CARTESIAN_POINT ( 'NONE',  ( -1.714505518806293849E-15, 89.00000000000000000, 0.000000000000000000 ) ) ;
#28 = CARTESIAN_POINT ( 'NONE',  ( -1.714505518806293849E-15, 89.00000000000000000, 0.000000000000000000 ) ) ;
#29 = ADVANCED_FACE ( 'NONE', ( #14 ), #189, .T. ) ;
#30 = EDGE_LOOP ( 'NONE', ( #224, #271, #188, #160 ) ) ;
#31 = PRESENTATION_LAYER_ASSIGNMENT (  '', '', ( #222 ) ) ;
#32 = VERTEX_POINT ( 'NONE', #61 ) ;
#33 = VERTEX_POINT ( 'NONE', #213 ) ;
#34 = STYLED_ITEM ( 'NONE', ( #278 ), #21 ) ;
#35 = MECHANICAL_DESIGN_GEOMETRIC_PRESENTATION_REPRESENTATION (  '', ( #222 ), #208 ) ;
#36 = ORIENTED_EDGE ( 'NONE', *, *, #182, .F. ) ;
#37 = PRESENTATION_STYLE_ASSIGNMENT (( #23 ) ) ;
#38 = FILL_AREA_STYLE_COLOUR ( '', #284 ) ;
#39 = ADVANCED_FACE ( 'NONE', ( #113 ), #20, .F. ) ;
#40 = DIRECTION ( 'NONE',  ( -0.000000000000000000, -1.000000000000000000, -0.000000000000000000 ) ) ;
#41 = DIRECTION ( 'NONE',  ( 0.000000000000000000, 0.000000000000000000, -1.000000000000000000 ) ) ;
#42 = CIRCLE ( 'NONE', #81, 8.000000000000000000 ) ;
#43 = DIRECTION ( 'NONE',  ( -3.007904418958410489E-17, 1.000000000000000000, -0.000000000000000000 ) ) ;
#44 = APPLICATION_CONTEXT ( 'automotive_design' ) ;
#45 = DIRECTION ( 'NONE',  ( 0.000000000000000000, 0.000000000000000000, -1.000000000000000000 ) ) ;
#46 = CARTESIAN_POINT ( 'NONE',  ( 0.000000000000000000, 32.00000000000000000, 0.000000000000000000 ) ) ;
#47 = DIRECTION ( 'NONE',  ( 0.000000000000000000, 0.000000000000000000, -1.000000000000000000 ) ) ;
#48 = DIRECTION ( 'NONE',  ( -0.000000000000000000, -1.000000000000000000, -0.000000000000000000 ) ) ;
#49 = CARTESIAN_POINT ( 'NONE',  ( -8.000000000000000000, 32.00000000000000000, 0.000000000000000000 ) ) ;
#50 = DIRECTION ( 'NONE',  ( -3.007904418958410489E-17, 1.000000000000000000, -0.000000000000000000 ) ) ;
#51 = MECHANICAL_DESIGN_GEOMETRIC_PRESENTATION_REPRESENTATION (  '', ( #167 ), #80 ) ;
#52 = SHAPE_DEFINITION_REPRESENTATION ( #8, #1 ) ;
#53 = ADVANCED_FACE ( 'NONE', ( #194 ), #86, .T. ) ;
#54 = ORIENTED_EDGE ( 'NONE', *, *, #66, .T. ) ;
#55 = VERTEX_POINT ( 'NONE', #3 ) ;
#56 = UNCERTAINTY_MEASURE_WITH_UNIT (LENGTH_MEASURE( 1.000000000000000082E-05 ), #82, 'distance_accuracy_value', 'NONE');
#57 = PRESENTATION_LAYER_ASSIGNMENT (  '', '', ( #234 ) ) ;
#58 = DIRECTION ( 'NONE',  ( 0.000000000000000000, -1.000000000000000000, -0.000000000000000000 ) ) ;
#59 = UNCERTAINTY_MEASURE_WITH_UNIT (LENGTH_MEASURE( 1.000000000000000082E-05 ), #149, 'distance_accuracy_value', 'NONE');
#60 = CARTESIAN_POINT ( 'NONE',  ( 0.000000000000000000, 32.00000000000000000, 0.000000000000000000 ) ) ;
#61 = CARTESIAN_POINT ( 'NONE',  ( 9.797174393178825657E-16, 32.00000000000000000, 8.000000000000000000 ) ) ;
#62 =( GEOMETRIC_REPRESENTATION_CONTEXT ( 3 ) GLOBAL_UNCERTAINTY_ASSIGNED_CONTEXT ( ( #127 ) ) GLOBAL_UNIT_ASSIGNED_CONTEXT ( ( #236, #260, #87 ) ) REPRESENTATION_CONTEXT ( 'NONE', 'WORKASPACE' ) );
#63 = MANIFOLD_SOLID_BREP ( 'Revolve - Tool Body (Straight Shanked)', #77 ) ;
#64 = SURFACE_STYLE_USAGE ( .BOTH. , #215 ) ;
#65 = DIRECTION ( 'NONE',  ( 0.000000000000000000, 0.000000000000000000, -1.000000000000000000 ) ) ;
#66 = EDGE_CURVE ( 'NONE', #254, #251, #153, .T. ) ;
#67 = DIRECTION ( 'NONE',  ( -0.000000000000000000, -1.000000000000000000, -0.000000000000000000 ) ) ;
#68 =( GEOMETRIC_REPRESENTATION_CONTEXT ( 3 ) GLOBAL_UNCERTAINTY_ASSIGNED_CONTEXT ( ( #169 ) ) GLOBAL_UNIT_ASSIGNED_CONTEXT ( ( #107, #261, #16 ) ) REPRESENTATION_CONTEXT ( 'NONE', 'WORKASPACE' ) );
#69 = CIRCLE ( 'NONE', #143, 8.000000000000000000 ) ;
#70 = PLANE ( 'NONE',  #242 ) ;
#71 = CARTESIAN_POINT ( 'NONE',  ( 0.000000000000000000, 0.000000000000000000, 0.000000000000000000 ) ) ;
#72 =( NAMED_UNIT ( * ) SI_UNIT ( $, .STERADIAN. ) SOLID_ANGLE_UNIT ( ) );
#73 = CLOSED_SHELL ( 'NONE', ( #29, #144, #53, #21 ) ) ;
#74 = ORIENTED_EDGE ( 'NONE', *, *, #170, .F. ) ;
#75 = ORIENTED_EDGE ( 'NONE', *, *, #170, .T. ) ;
#76 = EDGE_LOOP ( 'NONE', ( #185, #75 ) ) ;
#77 = CLOSED_SHELL ( 'NONE', ( #97, #39, #140, #281 ) ) ;
#78 = PLANE ( 'NONE',  #150 ) ;
#79 = ORIENTED_EDGE ( 'NONE', *, *, #155, .F. ) ;
#80 =( GEOMETRIC_REPRESENTATION_CONTEXT ( 3 ) GLOBAL_UNCERTAINTY_ASSIGNED_CONTEXT ( ( #59 ) ) GLOBAL_UNIT_ASSIGNED_CONTEXT ( ( #149, #121, #94 ) ) REPRESENTATION_CONTEXT ( 'NONE', 'WORKASPACE' ) );
#81 = AXIS2_PLACEMENT_3D ( 'NONE', #90, #67, #177 ) ;
#82 =( LENGTH_UNIT ( ) NAMED_UNIT ( * ) SI_UNIT ( .MILLI., .METRE. ) );
#83 = PRODUCT_RELATED_PRODUCT_CATEGORY ( 'part', '', ( #159 ) ) ;
#84 = DIRECTION ( 'NONE',  ( -0.000000000000000000, -1.000000000000000000, -0.000000000000000000 ) ) ;
#85 = UNCERTAINTY_MEASURE_WITH_UNIT (LENGTH_MEASURE( 1.000000000000000082E-05 ), #93, 'distance_accuracy_value', 'NONE');
#86 = CYLINDRICAL_SURFACE ( 'NONE', #262, 8.000000000000000000 ) ;
#87 =( NAMED_UNIT ( * ) SI_UNIT ( $, .STERADIAN. ) SOLID_ANGLE_UNIT ( ) );
#88 = AXIS2_PLACEMENT_3D ( 'NONE', #28, #50, #136 ) ;
#89 = EDGE_CURVE ( 'NONE', #123, #137, #24, .T. ) ;
#90 = CARTESIAN_POINT ( 'NONE',  ( 0.000000000000000000, 0.000000000000000000, 0.000000000000000000 ) ) ;
#91 = PRESENTATION_STYLE_ASSIGNMENT (( #268 ) ) ;
#92 =( NAMED_UNIT ( * ) SI_UNIT ( $, .STERADIAN. ) SOLID_ANGLE_UNIT ( ) );
#93 =( LENGTH_UNIT ( ) NAMED_UNIT ( * ) SI_UNIT ( .MILLI., .METRE. ) );
#94 =( NAMED_UNIT ( * ) SI_UNIT ( $, .STERADIAN. ) SOLID_ANGLE_UNIT ( ) );
#95 = CIRCLE ( 'NONE', #12, 8.000000000000000000 ) ;
#96 = AXIS2_PLACEMENT_3D ( 'NONE', #116, #244, #99 ) ;
#97 = ADVANCED_FACE ( 'NONE', ( #135 ), #218, .T. ) ;
#98 = FILL_AREA_STYLE_COLOUR ( '', #108 ) ;
#99 = DIRECTION ( 'NONE',  ( 1.000000000000000000, 0.000000000000000000, 0.000000000000000000 ) ) ;
#100 = SURFACE_SIDE_STYLE ('',( #6 ) ) ;
#101 = MECHANICAL_DESIGN_GEOMETRIC_PRESENTATION_REPRESENTATION (  '', ( #139 ), #62 ) ;
#102 = ORIENTED_EDGE ( 'NONE', *, *, #225, .T. ) ;
#103 = ORIENTED_EDGE ( 'NONE', *, *, #220, .T. ) ;
#104 = DIRECTION ( 'NONE',  ( -3.007904418958410489E-17, 1.000000000000000000, -0.000000000000000000 ) ) ;
#105 = PRESENTATION_LAYER_ASSIGNMENT (  '', '', ( #167 ) ) ;
#106 = ORIENTED_EDGE ( 'NONE', *, *, #184, .F. ) ;
#107 =( LENGTH_UNIT ( ) NAMED_UNIT ( * ) SI_UNIT ( .MILLI., .METRE. ) );
#108 = COLOUR_RGB ( '',1.000000000000000000, 0.000000000000000000, 0.000000000000000000 ) ;
#109 = LINE ( 'NONE', #286, #152 ) ;
#110 = SURFACE_SIDE_STYLE ('',( #238 ) ) ;
#111 = DIRECTION ( 'NONE',  ( 0.000000000000000000, 0.000000000000000000, -1.000000000000000000 ) ) ;
#112 = CARTESIAN_POINT ( 'NONE',  ( 3.618995597435813748E-33, 32.00000000000000000, 0.000000000000000000 ) ) ;
#113 = FACE_OUTER_BOUND ( 'NONE', #276, .T. ) ;
#114 =( LENGTH_UNIT ( ) NAMED_UNIT ( * ) SI_UNIT ( .MILLI., .METRE. ) );
#115 = SURFACE_SIDE_STYLE ('',( #240 ) ) ;
#116 = CARTESIAN_POINT ( 'NONE',  ( 0.000000000000000000, 0.000000000000000000, 0.000000000000000000 ) ) ;
#117 = DIRECTION ( 'NONE',  ( -3.007904418958410489E-17, 1.000000000000000000, -0.000000000000000000 ) ) ;
#118 = FACE_OUTER_BOUND ( 'NONE', #161, .T. ) ;
#119 = VECTOR ( 'NONE', #48, 1000.000000000000000 ) ;
#120 = APPLICATION_PROTOCOL_DEFINITION ( 'draft international standard', 'automotive_design', 1998, #199 ) ;
#121 =( NAMED_UNIT ( * ) PLANE_ANGLE_UNIT ( ) SI_UNIT ( $, .RADIAN. ) );
#122 = EDGE_LOOP ( 'NONE', ( #103, #13, #205, #250 ) ) ;
#123 = VERTEX_POINT ( 'NONE', #49 ) ;
#124 = MECHANICAL_DESIGN_GEOMETRIC_PRESENTATION_REPRESENTATION (  '', ( #34 ), #241 ) ;
#125 = ORIENTED_EDGE ( 'NONE', *, *, #220, .F. ) ;
#126 = CARTESIAN_POINT ( 'NONE',  ( 0.000000000000000000, 0.000000000000000000, 0.000000000000000000 ) ) ;
#127 = UNCERTAINTY_MEASURE_WITH_UNIT (LENGTH_MEASURE( 1.000000000000000082E-05 ), #236, 'distance_accuracy_value', 'NONE');
#128 = CARTESIAN_POINT ( 'NONE',  ( -1.714505518806293849E-15, 89.00000000000000000, 0.000000000000000000 ) ) ;
#129 = CARTESIAN_POINT ( 'NONE',  ( 8.000000000000000000, 32.00000000000000000, 9.797174393178825657E-16 ) ) ;
#130 = SURFACE_STYLE_FILL_AREA ( #288 ) ;
#131 = COLOUR_RGB ( '',1.000000000000000000, 0.000000000000000000, 0.000000000000000000 ) ;
#132 = DIRECTION ( 'NONE',  ( -1.000000000000000000, 0.000000000000000000, 0.000000000000000000 ) ) ;
#133 = PRODUCT_DEFINITION ( 'UNKNOWN', '', #230, #259 ) ;
#134 = CARTESIAN_POINT ( 'NONE',  ( -8.000000000000001776, 89.00000000000000000, 0.000000000000000000 ) ) ;
#135 = FACE_OUTER_BOUND ( 'NONE', #30, .T. ) ;
#136 = DIRECTION ( 'NONE',  ( -1.000000000000000000, 0.000000000000000000, 0.000000000000000000 ) ) ;
#137 = VERTEX_POINT ( 'NONE', #180 ) ;
#138 = COLOUR_RGB ( '',0.7921568627450980005, 0.8196078431372548767, 0.9333333333333333481 ) ;
#139 = STYLED_ITEM ( 'NONE', ( #214 ), #144 ) ;
#140 = ADVANCED_FACE ( 'NONE', ( #219 ), #266, .T. ) ;
#141 = ORIENTED_EDGE ( 'NONE', *, *, #166, .F. ) ;
#142 =( GEOMETRIC_REPRESENTATION_CONTEXT ( 3 ) GLOBAL_UNCERTAINTY_ASSIGNED_CONTEXT ( ( #165 ) ) GLOBAL_UNIT_ASSIGNED_CONTEXT ( ( #114, #203, #243 ) ) REPRESENTATION_CONTEXT ( 'NONE', 'WORKASPACE' ) );
#143 = AXIS2_PLACEMENT_3D ( 'NONE', #190, #84, #65 ) ;
#144 = ADVANCED_FACE ( 'NONE', ( #118 ), #239, .T. ) ;
#145 = CARTESIAN_POINT ( 'NONE',  ( 0.000000000000000000, 0.000000000000000000, -8.000000000000000000 ) ) ;
#146 = CARTESIAN_POINT ( 'NONE',  ( 0.000000000000000000, 0.000000000000000000, 0.000000000000000000 ) ) ;
#147 = FILL_AREA_STYLE ('',( #216 ) ) ;
#148 = DIRECTION ( 'NONE',  ( 0.000000000000000000, 0.000000000000000000, -1.000000000000000000 ) ) ;
#149 =( LENGTH_UNIT ( ) NAMED_UNIT ( * ) SI_UNIT ( .MILLI., .METRE. ) );
#150 = AXIS2_PLACEMENT_3D ( 'NONE', #126, #58, #148 ) ;
#151 = CARTESIAN_POINT ( 'NONE',  ( -1.714505518806293849E-15, 89.00000000000000000, 0.000000000000000000 ) ) ;
#152 = VECTOR ( 'NONE', #178, 1000.000000000000000 ) ;
#153 = LINE ( 'NONE', #181, #119 ) ;
#154 = SURFACE_SIDE_STYLE ('',( #130 ) ) ;
#155 = EDGE_CURVE ( 'NONE', #206, #123, #18, .T. ) ;
#156 = CIRCLE ( 'NONE', #265, 8.000000000000001776 ) ;
#157 = MANIFOLD_SOLID_BREP ( 'Revolve - Cutting Edge', #73 ) ;
#158 = DIRECTION ( 'NONE',  ( -1.000000000000000000, 0.000000000000000000, 0.000000000000000000 ) ) ;
#159 = PRODUCT ( '59488', '59488', '', ( #2 ) ) ;
#160 = ORIENTED_EDGE ( 'NONE', *, *, #89, .F. ) ;
#161 = EDGE_LOOP ( 'NONE', ( #125, #106 ) ) ;
#162 = ORIENTED_EDGE ( 'NONE', *, *, #89, .T. ) ;
#163 = PRESENTATION_LAYER_ASSIGNMENT (  '', '', ( #172 ) ) ;
#164 = FILL_AREA_STYLE_COLOUR ( '', #131 ) ;
#165 = UNCERTAINTY_MEASURE_WITH_UNIT (LENGTH_MEASURE( 1.000000000000000082E-05 ), #114, 'distance_accuracy_value', 'NONE');
#166 = EDGE_CURVE ( 'NONE', #206, #55, #22, .T. ) ;
#167 = STYLED_ITEM ( 'NONE', ( #246 ), #63 ) ;
#168 = AXIS2_PLACEMENT_3D ( 'NONE', #128, #279, #158 ) ;
#169 = UNCERTAINTY_MEASURE_WITH_UNIT (LENGTH_MEASURE( 1.000000000000000082E-05 ), #107, 'distance_accuracy_value', 'NONE');
#170 = EDGE_CURVE ( 'NONE', #33, #251, #256, .T. ) ;
#171 =( NAMED_UNIT ( * ) PLANE_ANGLE_UNIT ( ) SI_UNIT ( $, .RADIAN. ) );
#172 = STYLED_ITEM ( 'NONE', ( #91 ), #53 ) ;
#173 = AXIS2_PLACEMENT_3D ( 'NONE', #146, #233, #41 ) ;
#174 = CIRCLE ( 'NONE', #235, 8.000000000000000000 ) ;
#175 = DIRECTION ( 'NONE',  ( 0.000000000000000000, -0.000000000000000000, 1.000000000000000000 ) ) ;
#176 =( NAMED_UNIT ( * ) SI_UNIT ( $, .STERADIAN. ) SOLID_ANGLE_UNIT ( ) );
#177 = DIRECTION ( 'NONE',  ( 0.000000000000000000, 0.000000000000000000, -1.000000000000000000 ) ) ;
#178 = DIRECTION ( 'NONE',  ( -0.000000000000000000, -1.000000000000000000, -0.000000000000000000 ) ) ;
#179 = AXIS2_PLACEMENT_3D ( 'NONE', #46, #197, #175 ) ;
#180 = CARTESIAN_POINT ( 'NONE',  ( -8.000000000000003553, 89.00000000000000000, 0.000000000000000000 ) ) ;
#181 = CARTESIAN_POINT ( 'NONE',  ( 0.000000000000000000, 0.000000000000000000, -8.000000000000000000 ) ) ;
#182 = EDGE_CURVE ( 'NONE', #32, #33, #109, .T. ) ;
#183 = ORIENTED_EDGE ( 'NONE', *, *, #257, .T. ) ;
#184 = EDGE_CURVE ( 'NONE', #32, #254, #174, .T. ) ;
#185 = ORIENTED_EDGE ( 'NONE', *, *, #209, .T. ) ;
#186 = DIRECTION ( 'NONE',  ( -1.000000000000000000, 0.000000000000000000, 0.000000000000000000 ) ) ;
#187 = MECHANICAL_DESIGN_GEOMETRIC_PRESENTATION_REPRESENTATION (  '', ( #234 ), #68 ) ;
#188 = ORIENTED_EDGE ( 'NONE', *, *, #225, .F. ) ;
#189 = CYLINDRICAL_SURFACE ( 'NONE', #173, 8.000000000000000000 ) ;
#190 = CARTESIAN_POINT ( 'NONE',  ( 0.000000000000000000, 32.00000000000000000, 0.000000000000000000 ) ) ;
#191 = CARTESIAN_POINT ( 'NONE',  ( 0.000000000000000000, 32.00000000000000000, -8.000000000000000000 ) ) ;
#192 = DIRECTION ( 'NONE',  ( -3.007904418958410489E-17, 1.000000000000000000, 0.000000000000000000 ) ) ;
#193 = SURFACE_STYLE_FILL_AREA ( #147 ) ;
#194 = FACE_OUTER_BOUND ( 'NONE', #253, .T. ) ;
#195 = DIRECTION ( 'NONE',  ( -0.000000000000000000, -1.000000000000000000, -0.000000000000000000 ) ) ;
#196 = SURFACE_STYLE_USAGE ( .BOTH. , #100 ) ;
#197 = DIRECTION ( 'NONE',  ( 0.000000000000000000, 1.000000000000000000, 0.000000000000000000 ) ) ;
#198 = DIRECTION ( 'NONE',  ( -3.007904418958410489E-17, 1.000000000000000000, -0.000000000000000000 ) ) ;
#199 = APPLICATION_CONTEXT ( 'automotive_design' ) ;
#200 = APPLICATION_PROTOCOL_DEFINITION ( 'draft international standard', 'automotive_design', 1998, #44 ) ;
#201 = DIRECTION ( 'NONE',  ( -1.000000000000000000, 0.000000000000000000, 0.000000000000000000 ) ) ;
#202 = AXIS2_PLACEMENT_3D ( 'NONE', #287, #43, #132 ) ;
#203 =( NAMED_UNIT ( * ) PLANE_ANGLE_UNIT ( ) SI_UNIT ( $, .RADIAN. ) );
#204 = ORIENTED_EDGE ( 'NONE', *, *, #10, .F. ) ;
#205 = ORIENTED_EDGE ( 'NONE', *, *, #209, .F. ) ;
#206 = VERTEX_POINT ( 'NONE', #129 ) ;
#207 = AXIS2_PLACEMENT_3D ( 'NONE', #263, #15, #45 ) ;
#208 =( GEOMETRIC_REPRESENTATION_CONTEXT ( 3 ) GLOBAL_UNCERTAINTY_ASSIGNED_CONTEXT ( ( #17 ) ) GLOBAL_UNIT_ASSIGNED_CONTEXT ( ( #26, #19, #92 ) ) REPRESENTATION_CONTEXT ( 'NONE', 'WORKASPACE' ) );
#209 = EDGE_CURVE ( 'NONE', #251, #33, #42, .T. ) ;
#210 = FILL_AREA_STYLE ('',( #38 ) ) ;
#211 =( GEOMETRIC_REPRESENTATION_CONTEXT ( 3 ) GLOBAL_UNCERTAINTY_ASSIGNED_CONTEXT ( ( #85 ) ) GLOBAL_UNIT_ASSIGNED_CONTEXT ( ( #93, #249, #72 ) ) REPRESENTATION_CONTEXT ( 'NONE', 'WORKASPACE' ) );
#212 = DIRECTION ( 'NONE',  ( -1.000000000000000000, 0.000000000000000000, 0.000000000000000000 ) ) ;
#213 = CARTESIAN_POINT ( 'NONE',  ( 9.797174393178825657E-16, 0.000000000000000000, 8.000000000000000000 ) ) ;
#214 = PRESENTATION_STYLE_ASSIGNMENT (( #196 ) ) ;
#215 = SURFACE_SIDE_STYLE ('',( #193 ) ) ;
#216 = FILL_AREA_STYLE_COLOUR ( '', #285 ) ;
#217 = DIRECTION ( 'NONE',  ( 3.007904418958410489E-17, -1.000000000000000000, 0.000000000000000000 ) ) ;
#218 = CYLINDRICAL_SURFACE ( 'NONE', #270, 8.000000000000000000 ) ;
#219 = FACE_OUTER_BOUND ( 'NONE', #228, .T. ) ;
#220 = EDGE_CURVE ( 'NONE', #254, #32, #69, .T. ) ;
#221 = MECHANICAL_DESIGN_GEOMETRIC_PRESENTATION_REPRESENTATION (  '', ( #172 ), #142 ) ;
#222 = STYLED_ITEM ( 'NONE', ( #277 ), #157 ) ;
#223 = FILL_AREA_STYLE ('',( #98 ) ) ;
#224 = ORIENTED_EDGE ( 'NONE', *, *, #10, .T. ) ;
#225 = EDGE_CURVE ( 'NONE', #137, #55, #156, .T. ) ;
#226 = COLOUR_RGB ( '',1.000000000000000000, 0.000000000000000000, 0.000000000000000000 ) ;
#227 = EDGE_LOOP ( 'NONE', ( #102, #183 ) ) ;
#228 = EDGE_LOOP ( 'NONE', ( #141, #229, #162, #9 ) ) ;
#229 = ORIENTED_EDGE ( 'NONE', *, *, #155, .T. ) ;
#230 = PRODUCT_DEFINITION_FORMATION_WITH_SPECIFIED_SOURCE ( 'ANY', '', #159, .NOT_KNOWN. ) ;
#231 = SURFACE_SIDE_STYLE ('',( #237 ) ) ;
#232 = SURFACE_STYLE_USAGE ( .BOTH. , #110 ) ;
#233 = DIRECTION ( 'NONE',  ( -0.000000000000000000, -1.000000000000000000, -0.000000000000000000 ) ) ;
#234 = STYLED_ITEM ( 'NONE', ( #37 ), #29 ) ;
#235 = AXIS2_PLACEMENT_3D ( 'NONE', #60, #40, #111 ) ;
#236 =( LENGTH_UNIT ( ) NAMED_UNIT ( * ) SI_UNIT ( .MILLI., .METRE. ) );
#237 = SURFACE_STYLE_FILL_AREA ( #210 ) ;
#238 = SURFACE_STYLE_FILL_AREA ( #255 ) ;
#239 = PLANE ( 'NONE',  #179 ) ;
#240 = SURFACE_STYLE_FILL_AREA ( #269 ) ;
#241 =( GEOMETRIC_REPRESENTATION_CONTEXT ( 3 ) GLOBAL_UNCERTAINTY_ASSIGNED_CONTEXT ( ( #56 ) ) GLOBAL_UNIT_ASSIGNED_CONTEXT ( ( #82, #171, #176 ) ) REPRESENTATION_CONTEXT ( 'NONE', 'WORKASPACE' ) );
#242 = AXIS2_PLACEMENT_3D ( 'NONE', #7, #217, #267 ) ;
#243 =( NAMED_UNIT ( * ) SI_UNIT ( $, .STERADIAN. ) SOLID_ANGLE_UNIT ( ) );
#244 = DIRECTION ( 'NONE',  ( 0.000000000000000000, 0.000000000000000000, 1.000000000000000000 ) ) ;
#245 = SURFACE_STYLE_USAGE ( .BOTH. , #154 ) ;
#246 = PRESENTATION_STYLE_ASSIGNMENT (( #245 ) ) ;
#247 = PRESENTATION_LAYER_ASSIGNMENT (  '', '', ( #139 ) ) ;
#248 = FILL_AREA_STYLE_COLOUR ( '', #138 ) ;
#249 =( NAMED_UNIT ( * ) PLANE_ANGLE_UNIT ( ) SI_UNIT ( $, .RADIAN. ) );
#250 = ORIENTED_EDGE ( 'NONE', *, *, #66, .F. ) ;
#251 = VERTEX_POINT ( 'NONE', #145 ) ;
#252 = VECTOR ( 'NONE', #198, 1000.000000000000000 ) ;
#253 = EDGE_LOOP ( 'NONE', ( #36, #272, #54, #74 ) ) ;
#254 = VERTEX_POINT ( 'NONE', #191 ) ;
#255 = FILL_AREA_STYLE ('',( #164 ) ) ;
#256 = CIRCLE ( 'NONE', #207, 8.000000000000000000 ) ;
#257 = EDGE_CURVE ( 'NONE', #55, #137, #4, .T. ) ;
#258 = DIRECTION ( 'NONE',  ( -3.007904418958410489E-17, 1.000000000000000000, -0.000000000000000000 ) ) ;
#259 = PRODUCT_DEFINITION_CONTEXT ( 'detailed design', #199, 'design' ) ;
#260 =( NAMED_UNIT ( * ) PLANE_ANGLE_UNIT ( ) SI_UNIT ( $, .RADIAN. ) );
#261 =( NAMED_UNIT ( * ) PLANE_ANGLE_UNIT ( ) SI_UNIT ( $, .RADIAN. ) );
#262 = AXIS2_PLACEMENT_3D ( 'NONE', #71, #195, #47 ) ;
#263 = CARTESIAN_POINT ( 'NONE',  ( 0.000000000000000000, 0.000000000000000000, 0.000000000000000000 ) ) ;
#264 = CARTESIAN_POINT ( 'NONE',  ( 7.999999999999998224, 89.00000000000000000, 9.797174393178825657E-16 ) ) ;
#265 = AXIS2_PLACEMENT_3D ( 'NONE', #151, #258, #212 ) ;
#266 = CYLINDRICAL_SURFACE ( 'NONE', #88, 8.000000000000000000 ) ;
#267 = DIRECTION ( 'NONE',  ( 1.000000000000000000, 3.007904418958410489E-17, 0.000000000000000000 ) ) ;
#268 = SURFACE_STYLE_USAGE ( .BOTH. , #115 ) ;
#269 = FILL_AREA_STYLE ('',( #283 ) ) ;
#270 = AXIS2_PLACEMENT_3D ( 'NONE', #27, #117, #201 ) ;
#271 = ORIENTED_EDGE ( 'NONE', *, *, #166, .T. ) ;
#272 = ORIENTED_EDGE ( 'NONE', *, *, #184, .T. ) ;
#273 = AXIS2_PLACEMENT_3D ( 'NONE', #112, #192, #280 ) ;
#274 = VECTOR ( 'NONE', #282, 1000.000000000000000 ) ;
#275 = FACE_OUTER_BOUND ( 'NONE', #76, .T. ) ;
#276 = EDGE_LOOP ( 'NONE', ( #204, #79 ) ) ;
#277 = PRESENTATION_STYLE_ASSIGNMENT (( #64 ) ) ;
#278 = PRESENTATION_STYLE_ASSIGNMENT (( #232 ) ) ;
#279 = DIRECTION ( 'NONE',  ( -3.007904418958410489E-17, 1.000000000000000000, -0.000000000000000000 ) ) ;
#280 = DIRECTION ( 'NONE',  ( -1.000000000000000000, -3.007904418958410489E-17, 0.000000000000000000 ) ) ;
#281 = ADVANCED_FACE ( 'NONE', ( #5 ), #70, .F. ) ;
#282 = DIRECTION ( 'NONE',  ( -3.007904418958410489E-17, 1.000000000000000000, -0.000000000000000000 ) ) ;
#283 = FILL_AREA_STYLE_COLOUR ( '', #226 ) ;
#284 = COLOUR_RGB ( '',1.000000000000000000, 0.000000000000000000, 0.000000000000000000 ) ;
#285 = COLOUR_RGB ( '',0.7921568627450980005, 0.8196078431372548767, 0.9333333333333333481 ) ;
#286 = CARTESIAN_POINT ( 'NONE',  ( 9.797174393178825657E-16, 0.000000000000000000, 8.000000000000000000 ) ) ;
#287 = CARTESIAN_POINT ( 'NONE',  ( 0.000000000000000000, 32.00000000000000000, 0.000000000000000000 ) ) ;
#288 = FILL_AREA_STYLE ('',( #248 ) ) ;
ENDSEC;
END-ISO-10303-21;
