ISO-10303-21;
HEADER;
FILE_DESCRIPTION (( 'STEP AP214' ),
    '1' );
FILE_NAME ('81369.STEP',
    '2023-06-23T00:49:16',
    ( '' ),
    ( '' ),
    'SwSTEP 2.0',
    'SolidWorks 2023',
    '' );
FILE_SCHEMA (( 'AUTOMOTIVE_DESIGN' ));
ENDSEC;

DATA;
#1 = SURFACE_STYLE_FILL_AREA ( #209 ) ;
#2 = VECTOR ( 'NONE', #125, 39.37007874015748143 ) ;
#3 = CARTESIAN_POINT ( 'NONE',  ( -1.224646799147352714E-16, 4.000000000000000000, 0.000000000000000000 ) ) ;
#4 = APPLICATION_PROTOCOL_DEFINITION ( 'draft international standard', 'automotive_design', 1998, #41 ) ;
#5 =( NAMED_UNIT ( * ) PLANE_ANGLE_UNIT ( ) SI_UNIT ( $, .RADIAN. ) );
#6 =( GEOMETRIC_REPRESENTATION_CONTEXT ( 3 ) GLOBAL_UNCERTAINTY_ASSIGNED_CONTEXT ( ( #228 ) ) GLOBAL_UNIT_ASSIGNED_CONTEXT ( ( #261, #5, #178 ) ) REPRESENTATION_CONTEXT ( 'NONE', 'WORKASPACE' ) );
#7 = LENGTH_MEASURE_WITH_UNIT ( LENGTH_MEASURE( 0.02539999999999999897 ), #33 );
#8 =( LENGTH_UNIT ( ) NAMED_UNIT ( * ) SI_UNIT ( $, .METRE. ) );
#9 = SURFACE_STYLE_FILL_AREA ( #164 ) ;
#10 = AXIS2_PLACEMENT_3D ( 'NONE', #17, #168, #94 ) ;
#11 =( NAMED_UNIT ( * ) PLANE_ANGLE_UNIT ( ) SI_UNIT ( $, .RADIAN. ) );
#12 = ORIENTED_EDGE ( 'NONE', *, *, #74, .F. ) ;
#13 = DIRECTION ( 'NONE',  ( -1.000000000000000000, 0.000000000000000000, 0.000000000000000000 ) ) ;
#14 = ORIENTED_EDGE ( 'NONE', *, *, #154, .T. ) ;
#15 = ORIENTED_EDGE ( 'NONE', *, *, #292, .F. ) ;
#16 = PRESENTATION_LAYER_ASSIGNMENT (  '', '', ( #90 ) ) ;
#17 = CARTESIAN_POINT ( 'NONE',  ( -1.224646799147352714E-16, 4.000000000000000000, 0.000000000000000000 ) ) ;
#18 = ORIENTED_EDGE ( 'NONE', *, *, #45, .F. ) ;
#19 = DIRECTION ( 'NONE',  ( -0.000000000000000000, -1.000000000000000000, -0.000000000000000000 ) ) ;
#20 = FILL_AREA_STYLE_COLOUR ( '', #126 ) ;
#21 =( NAMED_UNIT ( * ) PLANE_ANGLE_UNIT ( ) SI_UNIT ( $, .RADIAN. ) );
#22 = DIRECTION ( 'NONE',  ( 1.000000000000000000, 5.442874662877122010E-17, 0.000000000000000000 ) ) ;
#23 = AXIS2_PLACEMENT_3D ( 'NONE', #180, #139, #200 ) ;
#24 = STYLED_ITEM ( 'NONE', ( #282 ), #285 ) ;
#25 = SURFACE_STYLE_USAGE ( .BOTH. , #144 ) ;
#26 = PRESENTATION_STYLE_ASSIGNMENT (( #100 ) ) ;
#27 = LINE ( 'NONE', #169, #76 ) ;
#28 = MECHANICAL_DESIGN_GEOMETRIC_PRESENTATION_REPRESENTATION (  '', ( #301 ), #6 ) ;
#29 = PRODUCT_RELATED_PRODUCT_CATEGORY ( 'part', '', ( #51 ) ) ;
#30 = ORIENTED_EDGE ( 'NONE', *, *, #292, .T. ) ;
#31 = LINE ( 'NONE', #103, #2 ) ;
#32 = VECTOR ( 'NONE', #233, 39.37007874015748143 ) ;
#33 =( LENGTH_UNIT ( ) NAMED_UNIT ( * ) SI_UNIT ( $, .METRE. ) );
#34 = ADVANCED_FACE ( 'NONE', ( #106 ), #278, .T. ) ;
#35 = ORIENTED_EDGE ( 'NONE', *, *, #45, .T. ) ;
#36 =( GEOMETRIC_REPRESENTATION_CONTEXT ( 3 ) GLOBAL_UNCERTAINTY_ASSIGNED_CONTEXT ( ( #217 ) ) GLOBAL_UNIT_ASSIGNED_CONTEXT ( ( #287, #21, #97 ) ) REPRESENTATION_CONTEXT ( 'NONE', 'WORKASPACE' ) );
#37 = CARTESIAN_POINT ( 'NONE',  ( 0.000000000000000000, 1.750000000000000000, 0.000000000000000000 ) ) ;
#38 = VERTEX_POINT ( 'NONE', #162 ) ;
#39 = ORIENTED_EDGE ( 'NONE', *, *, #247, .F. ) ;
#40 = SURFACE_STYLE_USAGE ( .BOTH. , #275 ) ;
#41 = APPLICATION_CONTEXT ( 'automotive_design' ) ;
#42 = FACE_OUTER_BOUND ( 'NONE', #112, .T. ) ;
#43 = CARTESIAN_POINT ( 'NONE',  ( 0.1249999999999999861, 4.000000000000000000, 1.530808498934192125E-17 ) ) ;
#44 = LENGTH_MEASURE_WITH_UNIT ( LENGTH_MEASURE( 0.02539999999999999897 ), #302 );
#45 = EDGE_CURVE ( 'NONE', #268, #227, #113, .T. ) ;
#46 = DIRECTION ( 'NONE',  ( 0.000000000000000000, -0.000000000000000000, 1.000000000000000000 ) ) ;
#47 = PRODUCT_DEFINITION_SHAPE ( 'NONE', 'NONE',  #184 ) ;
#48 = CARTESIAN_POINT ( 'NONE',  ( -0.1250000000000002220, 4.000000000000000000, 0.000000000000000000 ) ) ;
#49 = MECHANICAL_DESIGN_GEOMETRIC_PRESENTATION_REPRESENTATION (  '', ( #99 ), #186 ) ;
#50 = DIMENSIONAL_EXPONENTS ( 1.000000000000000000, 0.000000000000000000, 0.000000000000000000, 0.000000000000000000, 0.000000000000000000, 0.000000000000000000, 0.000000000000000000 ) ;
#51 = PRODUCT ( '81369', '81369', '', ( #260 ) ) ;
#52 = MANIFOLD_SOLID_BREP ( 'Revolve - Tool Body (Straight Shanked)', #81 ) ;
#53 = ADVANCED_FACE ( 'NONE', ( #143 ), #160, .F. ) ;
#54 = ORIENTED_EDGE ( 'NONE', *, *, #305, .T. ) ;
#55 = AXIS2_PLACEMENT_3D ( 'NONE', #208, #147, #22 ) ;
#56 = FACE_OUTER_BOUND ( 'NONE', #93, .T. ) ;
#57 = SHAPE_DEFINITION_REPRESENTATION ( #47, #262 ) ;
#58 = PRESENTATION_STYLE_ASSIGNMENT (( #270 ) ) ;
#59 = SURFACE_SIDE_STYLE ('',( #225 ) ) ;
#60 = ORIENTED_EDGE ( 'NONE', *, *, #247, .T. ) ;
#61 = VERTEX_POINT ( 'NONE', #43 ) ;
#62 =( CONVERSION_BASED_UNIT ( 'INCH', #7 ) LENGTH_UNIT ( ) NAMED_UNIT ( #174 ) );
#63 = ORIENTED_EDGE ( 'NONE', *, *, #237, .T. ) ;
#64 = COLOUR_RGB ( '',0.7921568627450980005, 0.8196078431372548767, 0.9333333333333333481 ) ;
#65 =( CONVERSION_BASED_UNIT ( 'INCH', #299 ) LENGTH_UNIT ( ) NAMED_UNIT ( #193 ) );
#66 = DIRECTION ( 'NONE',  ( -5.442874662877122626E-17, 1.000000000000000000, -0.000000000000000000 ) ) ;
#67 = FILL_AREA_STYLE_COLOUR ( '', #117 ) ;
#68 = CARTESIAN_POINT ( 'NONE',  ( 0.1249999999999999861, 1.750000000000000000, 1.530808498934192125E-17 ) ) ;
#69 =( NAMED_UNIT ( * ) SI_UNIT ( $, .STERADIAN. ) SOLID_ANGLE_UNIT ( ) );
#70 = ADVANCED_FACE ( 'NONE', ( #240 ), #116, .F. ) ;
#71 = CARTESIAN_POINT ( 'NONE',  ( 0.000000000000000000, 1.750000000000000000, 0.000000000000000000 ) ) ;
#72 = CARTESIAN_POINT ( 'NONE',  ( -1.224646799147352714E-16, 4.000000000000000000, 0.000000000000000000 ) ) ;
#73 =( NAMED_UNIT ( * ) PLANE_ANGLE_UNIT ( ) SI_UNIT ( $, .RADIAN. ) );
#74 = EDGE_CURVE ( 'NONE', #38, #132, #27, .T. ) ;
#75 = FILL_AREA_STYLE ('',( #120 ) ) ;
#76 = VECTOR ( 'NONE', #123, 39.37007874015748143 ) ;
#77 = AXIS2_PLACEMENT_3D ( 'NONE', #226, #187, #280 ) ;
#78 = APPLICATION_CONTEXT ( 'automotive_design' ) ;
#79 = ORIENTED_EDGE ( 'NONE', *, *, #224, .F. ) ;
#80 = CARTESIAN_POINT ( 'NONE',  ( 0.000000000000000000, 1.750000000000000000, 0.000000000000000000 ) ) ;
#81 = CLOSED_SHELL ( 'NONE', ( #204, #70, #34, #53 ) ) ;
#82 = AXIS2_PLACEMENT_3D ( 'NONE', #128, #266, #291 ) ;
#83 = ORIENTED_EDGE ( 'NONE', *, *, #305, .F. ) ;
#84 = UNCERTAINTY_MEASURE_WITH_UNIT (LENGTH_MEASURE( 1.000000000000000082E-05 ), #171, 'distance_accuracy_value', 'NONE');
#85 =( NAMED_UNIT ( * ) PLANE_ANGLE_UNIT ( ) SI_UNIT ( $, .RADIAN. ) );
#86 = AXIS2_PLACEMENT_3D ( 'NONE', #136, #66, #206 ) ;
#87 = PLANE ( 'NONE',  #134 ) ;
#88 = VERTEX_POINT ( 'NONE', #98 ) ;
#89 = EDGE_LOOP ( 'NONE', ( #108, #189, #138, #246 ) ) ;
#90 = STYLED_ITEM ( 'NONE', ( #211 ), #195 ) ;
#91 = AXIS2_PLACEMENT_3D ( 'NONE', #244, #289, #122 ) ;
#92 = FACE_OUTER_BOUND ( 'NONE', #296, .T. ) ;
#93 = EDGE_LOOP ( 'NONE', ( #12, #30, #185, #39 ) ) ;
#94 = DIRECTION ( 'NONE',  ( -1.000000000000000000, 0.000000000000000000, 0.000000000000000000 ) ) ;
#95 = ORIENTED_EDGE ( 'NONE', *, *, #237, .F. ) ;
#96 = ADVANCED_FACE ( 'NONE', ( #190 ), #119, .T. ) ;
#97 =( NAMED_UNIT ( * ) SI_UNIT ( $, .STERADIAN. ) SOLID_ANGLE_UNIT ( ) );
#98 = CARTESIAN_POINT ( 'NONE',  ( 0.000000000000000000, 1.750000000000000000, -0.1249999999999999861 ) ) ;
#99 = STYLED_ITEM ( 'NONE', ( #202 ), #52 ) ;
#100 = SURFACE_STYLE_USAGE ( .BOTH. , #307 ) ;
#101 =( NAMED_UNIT ( * ) SI_UNIT ( $, .STERADIAN. ) SOLID_ANGLE_UNIT ( ) );
#102 =( GEOMETRIC_REPRESENTATION_CONTEXT ( 3 ) GLOBAL_UNCERTAINTY_ASSIGNED_CONTEXT ( ( #84 ) ) GLOBAL_UNIT_ASSIGNED_CONTEXT ( ( #171, #73, #101 ) ) REPRESENTATION_CONTEXT ( 'NONE', 'WORKASPACE' ) );
#103 = CARTESIAN_POINT ( 'NONE',  ( 0.000000000000000000, 0.000000000000000000, -0.1250000000000000000 ) ) ;
#104 = AXIS2_PLACEMENT_3D ( 'NONE', #235, #239, #304 ) ;
#105 = FILL_AREA_STYLE ('',( #245 ) ) ;
#106 = FACE_OUTER_BOUND ( 'NONE', #203, .T. ) ;
#107 = AXIS2_PLACEMENT_3D ( 'NONE', #72, #166, #213 ) ;
#108 = ORIENTED_EDGE ( 'NONE', *, *, #258, .T. ) ;
#109 = FILL_AREA_STYLE_COLOUR ( '', #64 ) ;
#110 = ORIENTED_EDGE ( 'NONE', *, *, #163, .T. ) ;
#111 = CARTESIAN_POINT ( 'NONE',  ( 0.1249999999999999167, 4.000000000000000000, 1.530808498934191817E-17 ) ) ;
#112 = EDGE_LOOP ( 'NONE', ( #14, #230, #79, #95 ) ) ;
#113 = CIRCLE ( 'NONE', #77, 0.1249999999999999861 ) ;
#114 = SURFACE_STYLE_FILL_AREA ( #75 ) ;
#115 = FACE_OUTER_BOUND ( 'NONE', #300, .T. ) ;
#116 = PLANE ( 'NONE',  #104 ) ;
#117 = COLOUR_RGB ( '',0.7921568627450980005, 0.8196078431372548767, 0.9333333333333333481 ) ;
#118 = DIRECTION ( 'NONE',  ( 0.000000000000000000, 0.000000000000000000, -1.000000000000000000 ) ) ;
#119 = CYLINDRICAL_SURFACE ( 'NONE', #82, 0.1250000000000000000 ) ;
#120 = FILL_AREA_STYLE_COLOUR ( '', #141 ) ;
#121 =( LENGTH_UNIT ( ) NAMED_UNIT ( * ) SI_UNIT ( $, .METRE. ) );
#122 = DIRECTION ( 'NONE',  ( 0.000000000000000000, 0.000000000000000000, -1.000000000000000000 ) ) ;
#123 = DIRECTION ( 'NONE',  ( -0.000000000000000000, -1.000000000000000000, -0.000000000000000000 ) ) ;
#124 = DIMENSIONAL_EXPONENTS ( 1.000000000000000000, 0.000000000000000000, 0.000000000000000000, 0.000000000000000000, 0.000000000000000000, 0.000000000000000000, 0.000000000000000000 ) ;
#125 = DIRECTION ( 'NONE',  ( -0.000000000000000000, -1.000000000000000000, -0.000000000000000000 ) ) ;
#126 = COLOUR_RGB ( '',1.000000000000000000, 0.000000000000000000, 0.000000000000000000 ) ;
#127 = PRESENTATION_LAYER_ASSIGNMENT (  '', '', ( #24 ) ) ;
#128 = CARTESIAN_POINT ( 'NONE',  ( 0.000000000000000000, 0.000000000000000000, 0.000000000000000000 ) ) ;
#129 = APPLICATION_PROTOCOL_DEFINITION ( 'draft international standard', 'automotive_design', 1998, #78 ) ;
#130 = DIRECTION ( 'NONE',  ( -5.442874662877122626E-17, 1.000000000000000000, -0.000000000000000000 ) ) ;
#131 = ORIENTED_EDGE ( 'NONE', *, *, #150, .F. ) ;
#132 = VERTEX_POINT ( 'NONE', #267 ) ;
#133 = ADVANCED_FACE ( 'NONE', ( #56 ), #155, .T. ) ;
#134 = AXIS2_PLACEMENT_3D ( 'NONE', #71, #192, #46 ) ;
#135 = FILL_AREA_STYLE ('',( #109 ) ) ;
#136 = CARTESIAN_POINT ( 'NONE',  ( -1.224646799147352714E-16, 4.000000000000000000, 0.000000000000000000 ) ) ;
#137 = DIRECTION ( 'NONE',  ( 0.000000000000000000, 0.000000000000000000, -1.000000000000000000 ) ) ;
#138 = ORIENTED_EDGE ( 'NONE', *, *, #163, .F. ) ;
#139 = DIRECTION ( 'NONE',  ( -0.000000000000000000, -1.000000000000000000, -0.000000000000000000 ) ) ;
#140 = STYLED_ITEM ( 'NONE', ( #58 ), #133 ) ;
#141 = COLOUR_RGB ( '',1.000000000000000000, 0.000000000000000000, 0.000000000000000000 ) ;
#142 = CARTESIAN_POINT ( 'NONE',  ( -0.1249999999999999861, 1.750000000000000000, 0.000000000000000000 ) ) ;
#143 = FACE_OUTER_BOUND ( 'NONE', #218, .T. ) ;
#144 = SURFACE_SIDE_STYLE ('',( #238 ) ) ;
#145 = AXIS2_PLACEMENT_3D ( 'NONE', #201, #295, #137 ) ;
#146 = CARTESIAN_POINT ( 'NONE',  ( 0.000000000000000000, 1.750000000000000000, 0.000000000000000000 ) ) ;
#147 = DIRECTION ( 'NONE',  ( 5.442874662877122010E-17, -1.000000000000000000, 0.000000000000000000 ) ) ;
#148 = DIMENSIONAL_EXPONENTS ( 1.000000000000000000, 0.000000000000000000, 0.000000000000000000, 0.000000000000000000, 0.000000000000000000, 0.000000000000000000, 0.000000000000000000 ) ;
#149 = DIRECTION ( 'NONE',  ( 0.000000000000000000, 0.000000000000000000, -1.000000000000000000 ) ) ;
#150 = EDGE_CURVE ( 'NONE', #268, #61, #229, .T. ) ;
#151 = DIRECTION ( 'NONE',  ( 0.000000000000000000, 0.000000000000000000, 1.000000000000000000 ) ) ;
#152 = AXIS2_PLACEMENT_3D ( 'NONE', #37, #251, #13 ) ;
#153 = DIRECTION ( 'NONE',  ( -1.000000000000000000, 0.000000000000000000, 0.000000000000000000 ) ) ;
#154 = EDGE_CURVE ( 'NONE', #227, #268, #232, .T. ) ;
#155 = CYLINDRICAL_SURFACE ( 'NONE', #23, 0.1250000000000000000 ) ;
#156 = PRESENTATION_LAYER_ASSIGNMENT (  '', '', ( #140 ) ) ;
#157 = EDGE_LOOP ( 'NONE', ( #205, #18 ) ) ;
#158 = MANIFOLD_SOLID_BREP ( 'Revolve - Cutting Edge', #220 ) ;
#159 = FILL_AREA_STYLE ('',( #274 ) ) ;
#160 = PLANE ( 'NONE',  #55 ) ;
#161 =( NAMED_UNIT ( * ) SI_UNIT ( $, .STERADIAN. ) SOLID_ANGLE_UNIT ( ) );
#162 = CARTESIAN_POINT ( 'NONE',  ( 1.530808498934191201E-17, 1.750000000000000000, 0.1249999999999999861 ) ) ;
#163 = EDGE_CURVE ( 'NONE', #183, #132, #250, .T. ) ;
#164 = FILL_AREA_STYLE ('',( #67 ) ) ;
#165 = CIRCLE ( 'NONE', #198, 0.1250000000000001110 ) ;
#166 = DIRECTION ( 'NONE',  ( -5.442874662877122626E-17, 1.000000000000000000, -0.000000000000000000 ) ) ;
#167 = CARTESIAN_POINT ( 'NONE',  ( -0.1250000000000001388, 4.000000000000000000, 0.000000000000000000 ) ) ;
#168 = DIRECTION ( 'NONE',  ( -5.442874662877122626E-17, 1.000000000000000000, -0.000000000000000000 ) ) ;
#169 = CARTESIAN_POINT ( 'NONE',  ( 1.530808498934191509E-17, 0.000000000000000000, 0.1250000000000000000 ) ) ;
#170 = MECHANICAL_DESIGN_GEOMETRIC_PRESENTATION_REPRESENTATION (  '', ( #90 ), #36 ) ;
#171 =( CONVERSION_BASED_UNIT ( 'INCH', #257 ) LENGTH_UNIT ( ) NAMED_UNIT ( #50 ) );
#172 =( GEOMETRIC_REPRESENTATION_CONTEXT ( 3 ) GLOBAL_UNCERTAINTY_ASSIGNED_CONTEXT ( ( #221 ) ) GLOBAL_UNIT_ASSIGNED_CONTEXT ( ( #269, #196, #216 ) ) REPRESENTATION_CONTEXT ( 'NONE', 'WORKASPACE' ) );
#173 =( NAMED_UNIT ( * ) PLANE_ANGLE_UNIT ( ) SI_UNIT ( $, .RADIAN. ) );
#174 = DIMENSIONAL_EXPONENTS ( 1.000000000000000000, 0.000000000000000000, 0.000000000000000000, 0.000000000000000000, 0.000000000000000000, 0.000000000000000000, 0.000000000000000000 ) ;
#175 = DIRECTION ( 'NONE',  ( 1.000000000000000000, 0.000000000000000000, 0.000000000000000000 ) ) ;
#176 = DIRECTION ( 'NONE',  ( -0.000000000000000000, -1.000000000000000000, -0.000000000000000000 ) ) ;
#177 =( GEOMETRIC_REPRESENTATION_CONTEXT ( 3 ) GLOBAL_UNCERTAINTY_ASSIGNED_CONTEXT ( ( #249 ) ) GLOBAL_UNIT_ASSIGNED_CONTEXT ( ( #62, #85, #182 ) ) REPRESENTATION_CONTEXT ( 'NONE', 'WORKASPACE' ) );
#178 =( NAMED_UNIT ( * ) SI_UNIT ( $, .STERADIAN. ) SOLID_ANGLE_UNIT ( ) );
#179 = SURFACE_SIDE_STYLE ('',( #199 ) ) ;
#180 = CARTESIAN_POINT ( 'NONE',  ( 0.000000000000000000, 0.000000000000000000, 0.000000000000000000 ) ) ;
#181 = PRODUCT_DEFINITION_CONTEXT ( 'detailed design', #41, 'design' ) ;
#182 =( NAMED_UNIT ( * ) SI_UNIT ( $, .STERADIAN. ) SOLID_ANGLE_UNIT ( ) );
#183 = VERTEX_POINT ( 'NONE', #276 ) ;
#184 = PRODUCT_DEFINITION ( 'UNKNOWN', '', #243, #181 ) ;
#185 = ORIENTED_EDGE ( 'NONE', *, *, #297, .T. ) ;
#186 =( GEOMETRIC_REPRESENTATION_CONTEXT ( 3 ) GLOBAL_UNCERTAINTY_ASSIGNED_CONTEXT ( ( #215 ) ) GLOBAL_UNIT_ASSIGNED_CONTEXT ( ( #283, #173, #69 ) ) REPRESENTATION_CONTEXT ( 'NONE', 'WORKASPACE' ) );
#187 = DIRECTION ( 'NONE',  ( -5.442874662877122626E-17, 1.000000000000000000, -0.000000000000000000 ) ) ;
#188 = CARTESIAN_POINT ( 'NONE',  ( 0.000000000000000000, 0.000000000000000000, 0.000000000000000000 ) ) ;
#189 = ORIENTED_EDGE ( 'NONE', *, *, #74, .T. ) ;
#190 = FACE_OUTER_BOUND ( 'NONE', #89, .T. ) ;
#191 = AXIS2_PLACEMENT_3D ( 'NONE', #188, #259, #281 ) ;
#192 = DIRECTION ( 'NONE',  ( 0.000000000000000000, 1.000000000000000000, 0.000000000000000000 ) ) ;
#193 = DIMENSIONAL_EXPONENTS ( 1.000000000000000000, 0.000000000000000000, 0.000000000000000000, 0.000000000000000000, 0.000000000000000000, 0.000000000000000000, 0.000000000000000000 ) ;
#194 = UNCERTAINTY_MEASURE_WITH_UNIT (LENGTH_MEASURE( 1.000000000000000082E-05 ), #65, 'distance_accuracy_value', 'NONE');
#195 = ADVANCED_FACE ( 'NONE', ( #92 ), #87, .T. ) ;
#196 =( NAMED_UNIT ( * ) PLANE_ANGLE_UNIT ( ) SI_UNIT ( $, .RADIAN. ) );
#197 = VECTOR ( 'NONE', #273, 39.37007874015748143 ) ;
#198 = AXIS2_PLACEMENT_3D ( 'NONE', #3, #130, #153 ) ;
#199 = SURFACE_STYLE_FILL_AREA ( #105 ) ;
#200 = DIRECTION ( 'NONE',  ( 0.000000000000000000, 0.000000000000000000, -1.000000000000000000 ) ) ;
#201 = CARTESIAN_POINT ( 'NONE',  ( 0.000000000000000000, 0.000000000000000000, 0.000000000000000000 ) ) ;
#202 = PRESENTATION_STYLE_ASSIGNMENT (( #40 ) ) ;
#203 = EDGE_LOOP ( 'NONE', ( #131, #35, #63, #83 ) ) ;
#204 = ADVANCED_FACE ( 'NONE', ( #42 ), #286, .T. ) ;
#205 = ORIENTED_EDGE ( 'NONE', *, *, #154, .F. ) ;
#206 = DIRECTION ( 'NONE',  ( -1.000000000000000000, 0.000000000000000000, 0.000000000000000000 ) ) ;
#207 = CIRCLE ( 'NONE', #255, 0.1249999999999999861 ) ;
#208 = CARTESIAN_POINT ( 'NONE',  ( 0.1249999999999999861, 4.000000000000000000, 0.000000000000000000 ) ) ;
#209 = FILL_AREA_STYLE ('',( #20 ) ) ;
#210 = PRESENTATION_LAYER_ASSIGNMENT (  '', '', ( #301 ) ) ;
#211 = PRESENTATION_STYLE_ASSIGNMENT (( #25 ) ) ;
#212 = LENGTH_MEASURE_WITH_UNIT ( LENGTH_MEASURE( 0.02539999999999999897 ), #252 );
#213 = DIRECTION ( 'NONE',  ( -1.000000000000000000, 0.000000000000000000, 0.000000000000000000 ) ) ;
#214 = DIMENSIONAL_EXPONENTS ( 1.000000000000000000, 0.000000000000000000, 0.000000000000000000, 0.000000000000000000, 0.000000000000000000, 0.000000000000000000, 0.000000000000000000 ) ;
#215 = UNCERTAINTY_MEASURE_WITH_UNIT (LENGTH_MEASURE( 1.000000000000000082E-05 ), #283, 'distance_accuracy_value', 'NONE');
#216 =( NAMED_UNIT ( * ) SI_UNIT ( $, .STERADIAN. ) SOLID_ANGLE_UNIT ( ) );
#217 = UNCERTAINTY_MEASURE_WITH_UNIT (LENGTH_MEASURE( 1.000000000000000082E-05 ), #287, 'distance_accuracy_value', 'NONE');
#218 = EDGE_LOOP ( 'NONE', ( #298, #54 ) ) ;
#219 = LENGTH_MEASURE_WITH_UNIT ( LENGTH_MEASURE( 0.02539999999999999897 ), #265 );
#220 = CLOSED_SHELL ( 'NONE', ( #96, #195, #133, #285 ) ) ;
#221 = UNCERTAINTY_MEASURE_WITH_UNIT (LENGTH_MEASURE( 1.000000000000000082E-05 ), #269, 'distance_accuracy_value', 'NONE');
#222 = COLOUR_RGB ( '',1.000000000000000000, 0.000000000000000000, 0.000000000000000000 ) ;
#223 = MECHANICAL_DESIGN_GEOMETRIC_PRESENTATION_REPRESENTATION (  '', ( #24 ), #102 ) ;
#224 = EDGE_CURVE ( 'NONE', #253, #61, #284, .T. ) ;
#225 = SURFACE_STYLE_FILL_AREA ( #135 ) ;
#226 = CARTESIAN_POINT ( 'NONE',  ( 0.000000000000000000, 1.750000000000000000, 0.000000000000000000 ) ) ;
#227 = VERTEX_POINT ( 'NONE', #142 ) ;
#228 = UNCERTAINTY_MEASURE_WITH_UNIT (LENGTH_MEASURE( 1.000000000000000082E-05 ), #261, 'distance_accuracy_value', 'NONE');
#229 = LINE ( 'NONE', #111, #197 ) ;
#230 = ORIENTED_EDGE ( 'NONE', *, *, #150, .T. ) ;
#231 = SURFACE_STYLE_USAGE ( .BOTH. , #59 ) ;
#232 = CIRCLE ( 'NONE', #152, 0.1249999999999999861 ) ;
#233 = DIRECTION ( 'NONE',  ( -5.442874662877122010E-17, 1.000000000000000000, -0.000000000000000000 ) ) ;
#234 = SURFACE_SIDE_STYLE ('',( #114 ) ) ;
#235 = CARTESIAN_POINT ( 'NONE',  ( 1.851555287236859217E-34, 1.750000000000000000, 0.000000000000000000 ) ) ;
#236 = PRESENTATION_LAYER_ASSIGNMENT (  '', '', ( #242 ) ) ;
#237 = EDGE_CURVE ( 'NONE', #227, #253, #309, .T. ) ;
#238 = SURFACE_STYLE_FILL_AREA ( #159 ) ;
#239 = DIRECTION ( 'NONE',  ( -5.442874662877122010E-17, 1.000000000000000000, 0.000000000000000000 ) ) ;
#240 = FACE_OUTER_BOUND ( 'NONE', #157, .T. ) ;
#241 = DIMENSIONAL_EXPONENTS ( 1.000000000000000000, 0.000000000000000000, 0.000000000000000000, 0.000000000000000000, 0.000000000000000000, 0.000000000000000000, 0.000000000000000000 ) ;
#242 = STYLED_ITEM ( 'NONE', ( #254 ), #158 ) ;
#243 = PRODUCT_DEFINITION_FORMATION_WITH_SPECIFIED_SOURCE ( 'ANY', '', #51, .NOT_KNOWN. ) ;
#244 = CARTESIAN_POINT ( 'NONE',  ( 0.000000000000000000, 0.000000000000000000, 0.000000000000000000 ) ) ;
#245 = FILL_AREA_STYLE_COLOUR ( '', #271 ) ;
#246 = ORIENTED_EDGE ( 'NONE', *, *, #297, .F. ) ;
#247 = EDGE_CURVE ( 'NONE', #132, #183, #294, .T. ) ;
#248 = PRESENTATION_LAYER_ASSIGNMENT (  '', '', ( #99 ) ) ;
#249 = UNCERTAINTY_MEASURE_WITH_UNIT (LENGTH_MEASURE( 1.000000000000000082E-05 ), #62, 'distance_accuracy_value', 'NONE');
#250 = CIRCLE ( 'NONE', #145, 0.1250000000000000000 ) ;
#251 = DIRECTION ( 'NONE',  ( -5.442874662877122626E-17, 1.000000000000000000, -0.000000000000000000 ) ) ;
#252 =( LENGTH_UNIT ( ) NAMED_UNIT ( * ) SI_UNIT ( $, .METRE. ) );
#253 = VERTEX_POINT ( 'NONE', #48 ) ;
#254 = PRESENTATION_STYLE_ASSIGNMENT (( #231 ) ) ;
#255 = AXIS2_PLACEMENT_3D ( 'NONE', #80, #176, #149 ) ;
#256 = PLANE ( 'NONE',  #91 ) ;
#257 = LENGTH_MEASURE_WITH_UNIT ( LENGTH_MEASURE( 0.02539999999999999897 ), #306 );
#258 = EDGE_CURVE ( 'NONE', #88, #38, #308, .T. ) ;
#259 = DIRECTION ( 'NONE',  ( -0.000000000000000000, -1.000000000000000000, -0.000000000000000000 ) ) ;
#260 = PRODUCT_CONTEXT ( 'NONE', #78, 'mechanical' ) ;
#261 =( CONVERSION_BASED_UNIT ( 'INCH', #263 ) LENGTH_UNIT ( ) NAMED_UNIT ( #148 ) );
#262 = ADVANCED_BREP_SHAPE_REPRESENTATION ( '81369', ( #158, #52, #279 ), #172 ) ;
#263 = LENGTH_MEASURE_WITH_UNIT ( LENGTH_MEASURE( 0.02539999999999999897 ), #121 );
#264 =( GEOMETRIC_REPRESENTATION_CONTEXT ( 3 ) GLOBAL_UNCERTAINTY_ASSIGNED_CONTEXT ( ( #194 ) ) GLOBAL_UNIT_ASSIGNED_CONTEXT ( ( #65, #11, #161 ) ) REPRESENTATION_CONTEXT ( 'NONE', 'WORKASPACE' ) );
#265 =( LENGTH_UNIT ( ) NAMED_UNIT ( * ) SI_UNIT ( $, .METRE. ) );
#266 = DIRECTION ( 'NONE',  ( -0.000000000000000000, -1.000000000000000000, -0.000000000000000000 ) ) ;
#267 = CARTESIAN_POINT ( 'NONE',  ( 1.530808498934191509E-17, 0.000000000000000000, 0.1250000000000000000 ) ) ;
#268 = VERTEX_POINT ( 'NONE', #68 ) ;
#269 =( CONVERSION_BASED_UNIT ( 'INCH', #219 ) LENGTH_UNIT ( ) NAMED_UNIT ( #214 ) );
#270 = SURFACE_STYLE_USAGE ( .BOTH. , #179 ) ;
#271 = COLOUR_RGB ( '',1.000000000000000000, 0.000000000000000000, 0.000000000000000000 ) ;
#272 = AXIS2_PLACEMENT_3D ( 'NONE', #146, #19, #118 ) ;
#273 = DIRECTION ( 'NONE',  ( -5.442874662877122010E-17, 1.000000000000000000, -0.000000000000000000 ) ) ;
#274 = FILL_AREA_STYLE_COLOUR ( '', #222 ) ;
#275 = SURFACE_SIDE_STYLE ('',( #9 ) ) ;
#276 = CARTESIAN_POINT ( 'NONE',  ( 0.000000000000000000, 0.000000000000000000, -0.1250000000000000000 ) ) ;
#277 = MECHANICAL_DESIGN_GEOMETRIC_PRESENTATION_REPRESENTATION (  '', ( #242 ), #264 ) ;
#278 = CYLINDRICAL_SURFACE ( 'NONE', #86, 0.1250000000000000278 ) ;
#279 = AXIS2_PLACEMENT_3D ( 'NONE', #288, #151, #175 ) ;
#280 = DIRECTION ( 'NONE',  ( -1.000000000000000000, 0.000000000000000000, 0.000000000000000000 ) ) ;
#281 = DIRECTION ( 'NONE',  ( 0.000000000000000000, 0.000000000000000000, -1.000000000000000000 ) ) ;
#282 = PRESENTATION_STYLE_ASSIGNMENT (( #303 ) ) ;
#283 =( CONVERSION_BASED_UNIT ( 'INCH', #212 ) LENGTH_UNIT ( ) NAMED_UNIT ( #124 ) );
#284 = CIRCLE ( 'NONE', #10, 0.1250000000000001110 ) ;
#285 = ADVANCED_FACE ( 'NONE', ( #115 ), #256, .T. ) ;
#286 = CYLINDRICAL_SURFACE ( 'NONE', #107, 0.1250000000000000278 ) ;
#287 =( CONVERSION_BASED_UNIT ( 'INCH', #44 ) LENGTH_UNIT ( ) NAMED_UNIT ( #241 ) );
#288 = CARTESIAN_POINT ( 'NONE',  ( 0.000000000000000000, 0.000000000000000000, 0.000000000000000000 ) ) ;
#289 = DIRECTION ( 'NONE',  ( 0.000000000000000000, -1.000000000000000000, -0.000000000000000000 ) ) ;
#290 = MECHANICAL_DESIGN_GEOMETRIC_PRESENTATION_REPRESENTATION (  '', ( #140 ), #177 ) ;
#291 = DIRECTION ( 'NONE',  ( 0.000000000000000000, 0.000000000000000000, -1.000000000000000000 ) ) ;
#292 = EDGE_CURVE ( 'NONE', #38, #88, #207, .T. ) ;
#293 = ORIENTED_EDGE ( 'NONE', *, *, #258, .F. ) ;
#294 = CIRCLE ( 'NONE', #191, 0.1250000000000000000 ) ;
#295 = DIRECTION ( 'NONE',  ( -0.000000000000000000, -1.000000000000000000, -0.000000000000000000 ) ) ;
#296 = EDGE_LOOP ( 'NONE', ( #293, #15 ) ) ;
#297 = EDGE_CURVE ( 'NONE', #88, #183, #31, .T. ) ;
#298 = ORIENTED_EDGE ( 'NONE', *, *, #224, .T. ) ;
#299 = LENGTH_MEASURE_WITH_UNIT ( LENGTH_MEASURE( 0.02539999999999999897 ), #8 );
#300 = EDGE_LOOP ( 'NONE', ( #110, #60 ) ) ;
#301 = STYLED_ITEM ( 'NONE', ( #26 ), #96 ) ;
#302 =( LENGTH_UNIT ( ) NAMED_UNIT ( * ) SI_UNIT ( $, .METRE. ) );
#303 = SURFACE_STYLE_USAGE ( .BOTH. , #234 ) ;
#304 = DIRECTION ( 'NONE',  ( -1.000000000000000000, -5.442874662877122010E-17, 0.000000000000000000 ) ) ;
#305 = EDGE_CURVE ( 'NONE', #61, #253, #165, .T. ) ;
#306 =( LENGTH_UNIT ( ) NAMED_UNIT ( * ) SI_UNIT ( $, .METRE. ) );
#307 = SURFACE_SIDE_STYLE ('',( #1 ) ) ;
#308 = CIRCLE ( 'NONE', #272, 0.1249999999999999861 ) ;
#309 = LINE ( 'NONE', #167, #32 ) ;
ENDSEC;
END-ISO-10303-21;
