ISO-10303-21;
HEADER;
FILE_DESCRIPTION (( 'STEP AP214' ),
    '1' );
FILE_NAME ('49346.STEP',
    '2023-06-30T22:01:39',
    ( '' ),
    ( '' ),
    'SwSTEP 2.0',
    'SolidWorks 2023',
    '' );
FILE_SCHEMA (( 'AUTOMOTIVE_DESIGN' ));
ENDSEC;

DATA;
#1 = DIRECTION ( 'NONE',  ( -1.000000000000000000, 0.000000000000000000, 0.000000000000000000 ) ) ;
#2 = DIRECTION ( 'NONE',  ( -0.000000000000000000, -1.000000000000000000, -0.000000000000000000 ) ) ;
#3 = FACE_OUTER_BOUND ( 'NONE', #64, .T. ) ;
#4 = SURFACE_SIDE_STYLE ('',( #7 ) ) ;
#5 = EDGE_LOOP ( 'NONE', ( #35, #316, #303, #344 ) ) ;
#6 = PRESENTATION_STYLE_ASSIGNMENT (( #217 ) ) ;
#7 = SURFACE_STYLE_FILL_AREA ( #12 ) ;
#8 = EDGE_LOOP ( 'NONE', ( #291, #122, #261, #65 ) ) ;
#9 = PRESENTATION_LAYER_ASSIGNMENT (  '', '', ( #246 ) ) ;
#10 = FACE_OUTER_BOUND ( 'NONE', #257, .T. ) ;
#11 = DIRECTION ( 'NONE',  ( -1.224646799147353207E-16, 1.000000000000000000, 0.000000000000000000 ) ) ;
#12 = FILL_AREA_STYLE ('',( #305 ) ) ;
#13 = DIMENSIONAL_EXPONENTS ( 1.000000000000000000, 0.000000000000000000, 0.000000000000000000, 0.000000000000000000, 0.000000000000000000, 0.000000000000000000, 0.000000000000000000 ) ;
#14 = PRODUCT ( '49346', '49346', '', ( #77 ) ) ;
#15 = APPLICATION_CONTEXT ( 'automotive_design' ) ;
#16 = CIRCLE ( 'NONE', #226, 0.3124999999999999445 ) ;
#17 = UNCERTAINTY_MEASURE_WITH_UNIT (LENGTH_MEASURE( 1.000000000000000082E-05 ), #234, 'distance_accuracy_value', 'NONE');
#18 = ADVANCED_FACE ( 'NONE', ( #10 ), #154, .T. ) ;
#19 = CARTESIAN_POINT ( 'NONE',  ( 0.000000000000000000, 0.000000000000000000, 0.000000000000000000 ) ) ;
#20 = DIRECTION ( 'NONE',  ( 0.000000000000000000, -0.000000000000000000, 1.000000000000000000 ) ) ;
#21 =( GEOMETRIC_REPRESENTATION_CONTEXT ( 3 ) GLOBAL_UNCERTAINTY_ASSIGNED_CONTEXT ( ( #278 ) ) GLOBAL_UNIT_ASSIGNED_CONTEXT ( ( #157, #58, #356 ) ) REPRESENTATION_CONTEXT ( 'NONE', 'WORKASPACE' ) );
#22 = CARTESIAN_POINT ( 'NONE',  ( 0.3124999999999997224, 3.500000000000000000, 3.827021247335476461E-17 ) ) ;
#23 = CARTESIAN_POINT ( 'NONE',  ( 2.143131898507868297E-16, 1.250000000000000000, 0.000000000000000000 ) ) ;
#24 = DIRECTION ( 'NONE',  ( 0.000000000000000000, 0.000000000000000000, 1.000000000000000000 ) ) ;
#25 = ORIENTED_EDGE ( 'NONE', *, *, #173, .F. ) ;
#26 =( NAMED_UNIT ( * ) SI_UNIT ( $, .STERADIAN. ) SOLID_ANGLE_UNIT ( ) );
#27 = CIRCLE ( 'NONE', #125, 0.3124999999999999445 ) ;
#28 = ORIENTED_EDGE ( 'NONE', *, *, #31, .F. ) ;
#29 = DIMENSIONAL_EXPONENTS ( 1.000000000000000000, 0.000000000000000000, 0.000000000000000000, 0.000000000000000000, 0.000000000000000000, 0.000000000000000000, 0.000000000000000000 ) ;
#30 = EDGE_LOOP ( 'NONE', ( #274, #28 ) ) ;
#31 = EDGE_CURVE ( 'NONE', #320, #219, #358, .T. ) ;
#32 = DIRECTION ( 'NONE',  ( 1.224646799147353207E-16, -1.000000000000000000, 0.000000000000000000 ) ) ;
#33 = APPLICATION_CONTEXT ( 'automotive_design' ) ;
#34 =( CONVERSION_BASED_UNIT ( 'INCH', #98 ) LENGTH_UNIT ( ) NAMED_UNIT ( #181 ) );
#35 = ORIENTED_EDGE ( 'NONE', *, *, #156, .T. ) ;
#36 = ORIENTED_EDGE ( 'NONE', *, *, #273, .F. ) ;
#37 = DIRECTION ( 'NONE',  ( -1.000000000000000000, -1.224646799147353207E-16, 0.000000000000000000 ) ) ;
#38 = DIRECTION ( 'NONE',  ( -1.000000000000000000, 0.000000000000000000, 0.000000000000000000 ) ) ;
#39 = EDGE_LOOP ( 'NONE', ( #348, #265, #325, #220 ) ) ;
#40 = DIRECTION ( 'NONE',  ( 0.000000000000000000, 0.000000000000000000, -1.000000000000000000 ) ) ;
#41 = ADVANCED_FACE ( 'NONE', ( #170 ), #83, .T. ) ;
#42 = VERTEX_POINT ( 'NONE', #236 ) ;
#43 = UNCERTAINTY_MEASURE_WITH_UNIT (LENGTH_MEASURE( 1.000000000000000082E-05 ), #34, 'distance_accuracy_value', 'NONE');
#44 = VECTOR ( 'NONE', #59, 39.37007874015748143 ) ;
#45 = CARTESIAN_POINT ( 'NONE',  ( 2.143131898507868297E-16, 1.250000000000000000, 0.000000000000000000 ) ) ;
#46 = EDGE_CURVE ( 'NONE', #180, #42, #298, .T. ) ;
#47 = CLOSED_SHELL ( 'NONE', ( #223, #148, #186, #18, #361 ) ) ;
#48 =( GEOMETRIC_REPRESENTATION_CONTEXT ( 3 ) GLOBAL_UNCERTAINTY_ASSIGNED_CONTEXT ( ( #17 ) ) GLOBAL_UNIT_ASSIGNED_CONTEXT ( ( #234, #110, #165 ) ) REPRESENTATION_CONTEXT ( 'NONE', 'WORKASPACE' ) );
#49 = EDGE_CURVE ( 'NONE', #248, #79, #307, .T. ) ;
#50 = CARTESIAN_POINT ( 'NONE',  ( -6.123233995736759873E-17, 3.500000000000000000, 0.000000000000000000 ) ) ;
#51 = ORIENTED_EDGE ( 'NONE', *, *, #156, .F. ) ;
#52 = MECHANICAL_DESIGN_GEOMETRIC_PRESENTATION_REPRESENTATION (  '', ( #246 ), #360 ) ;
#53 = DIRECTION ( 'NONE',  ( -1.224646799147353207E-16, 1.000000000000000000, -0.000000000000000000 ) ) ;
#54 = PRODUCT_DEFINITION_FORMATION_WITH_SPECIFIED_SOURCE ( 'ANY', '', #14, .NOT_KNOWN. ) ;
#55 = SURFACE_STYLE_USAGE ( .BOTH. , #349 ) ;
#56 = LENGTH_MEASURE_WITH_UNIT ( LENGTH_MEASURE( 0.02539999999999999897 ), #206 );
#57 =( NAMED_UNIT ( * ) PLANE_ANGLE_UNIT ( ) SI_UNIT ( $, .RADIAN. ) );
#58 =( NAMED_UNIT ( * ) PLANE_ANGLE_UNIT ( ) SI_UNIT ( $, .RADIAN. ) );
#59 = DIRECTION ( 'NONE',  ( -0.000000000000000000, -1.000000000000000000, -0.000000000000000000 ) ) ;
#60 = EDGE_CURVE ( 'NONE', #146, #232, #293, .T. ) ;
#61 = DIRECTION ( 'NONE',  ( -1.224646799147353207E-16, 1.000000000000000000, -0.000000000000000000 ) ) ;
#62 = ORIENTED_EDGE ( 'NONE', *, *, #70, .F. ) ;
#63 = LENGTH_MEASURE_WITH_UNIT ( LENGTH_MEASURE( 0.02539999999999999897 ), #191 );
#64 = EDGE_LOOP ( 'NONE', ( #144, #300, #204, #36, #62 ) ) ;
#65 = ORIENTED_EDGE ( 'NONE', *, *, #363, .F. ) ;
#66 = AXIS2_PLACEMENT_3D ( 'NONE', #19, #189, #193 ) ;
#67 = VECTOR ( 'NONE', #237, 39.37007874015748143 ) ;
#68 = UNCERTAINTY_MEASURE_WITH_UNIT (LENGTH_MEASURE( 1.000000000000000082E-05 ), #131, 'distance_accuracy_value', 'NONE');
#69 = CLOSED_SHELL ( 'NONE', ( #41, #97, #84, #75 ) ) ;
#70 = EDGE_CURVE ( 'NONE', #219, #212, #341, .T. ) ;
#71 = SURFACE_STYLE_FILL_AREA ( #333 ) ;
#72 = FILL_AREA_STYLE_COLOUR ( '', #368 ) ;
#73 = SURFACE_STYLE_USAGE ( .BOTH. , #197 ) ;
#74 = AXIS2_PLACEMENT_3D ( 'NONE', #205, #108, #136 ) ;
#75 = ADVANCED_FACE ( 'NONE', ( #317 ), #115, .F. ) ;
#76 = STYLED_ITEM ( 'NONE', ( #182 ), #281 ) ;
#77 = PRODUCT_CONTEXT ( 'NONE', #15, 'mechanical' ) ;
#78 = CARTESIAN_POINT ( 'NONE',  ( -3.827021247335478926E-17, 0.3125000000000000000, 0.000000000000000000 ) ) ;
#79 = VERTEX_POINT ( 'NONE', #240 ) ;
#80 = DIRECTION ( 'NONE',  ( -0.000000000000000000, -1.000000000000000000, -0.000000000000000000 ) ) ;
#81 = DIMENSIONAL_EXPONENTS ( 1.000000000000000000, 0.000000000000000000, 0.000000000000000000, 0.000000000000000000, 0.000000000000000000, 0.000000000000000000, 0.000000000000000000 ) ;
#82 = ORIENTED_EDGE ( 'NONE', *, *, #251, .T. ) ;
#83 = CYLINDRICAL_SURFACE ( 'NONE', #87, 0.3124999999999998335 ) ;
#84 = ADVANCED_FACE ( 'NONE', ( #345 ), #365, .T. ) ;
#85 = SURFACE_STYLE_FILL_AREA ( #372 ) ;
#86 = DIMENSIONAL_EXPONENTS ( 1.000000000000000000, 0.000000000000000000, 0.000000000000000000, 0.000000000000000000, 0.000000000000000000, 0.000000000000000000, 0.000000000000000000 ) ;
#87 = AXIS2_PLACEMENT_3D ( 'NONE', #50, #203, #367 ) ;
#88 = CARTESIAN_POINT ( 'NONE',  ( 0.000000000000000000, 0.000000000000000000, -0.3124999999999998890 ) ) ;
#89 = PRODUCT_DEFINITION ( 'UNKNOWN', '', #54, #286 ) ;
#90 =( LENGTH_UNIT ( ) NAMED_UNIT ( * ) SI_UNIT ( $, .METRE. ) );
#91 = EDGE_LOOP ( 'NONE', ( #25, #183, #268, #174 ) ) ;
#92 = DIRECTION ( 'NONE',  ( -1.000000000000000000, 0.000000000000000000, 0.000000000000000000 ) ) ;
#93 =( GEOMETRIC_REPRESENTATION_CONTEXT ( 3 ) GLOBAL_UNCERTAINTY_ASSIGNED_CONTEXT ( ( #328 ) ) GLOBAL_UNIT_ASSIGNED_CONTEXT ( ( #112, #179, #249 ) ) REPRESENTATION_CONTEXT ( 'NONE', 'WORKASPACE' ) );
#94 = DIMENSIONAL_EXPONENTS ( 1.000000000000000000, 0.000000000000000000, 0.000000000000000000, 0.000000000000000000, 0.000000000000000000, 0.000000000000000000, 0.000000000000000000 ) ;
#95 = DIRECTION ( 'NONE',  ( 0.000000000000000000, 0.000000000000000000, -1.000000000000000000 ) ) ;
#96 = PRESENTATION_STYLE_ASSIGNMENT (( #319 ) ) ;
#97 = ADVANCED_FACE ( 'NONE', ( #210 ), #124, .F. ) ;
#98 = LENGTH_MEASURE_WITH_UNIT ( LENGTH_MEASURE( 0.02539999999999999897 ), #324 );
#99 = PRESENTATION_LAYER_ASSIGNMENT (  '', '', ( #343 ) ) ;
#100 = DIRECTION ( 'NONE',  ( 0.000000000000000000, 1.000000000000000000, 0.000000000000000000 ) ) ;
#101 = SHAPE_DEFINITION_REPRESENTATION ( #357, #301 ) ;
#102 = APPLICATION_PROTOCOL_DEFINITION ( 'draft international standard', 'automotive_design', 1998, #15 ) ;
#103 = EDGE_LOOP ( 'NONE', ( #151, #318 ) ) ;
#104 = DIRECTION ( 'NONE',  ( 1.000000000000000000, 0.000000000000000000, 0.000000000000000000 ) ) ;
#105 = PRESENTATION_STYLE_ASSIGNMENT (( #235 ) ) ;
#106 = AXIS2_PLACEMENT_3D ( 'NONE', #120, #61, #352 ) ;
#107 = CIRCLE ( 'NONE', #280, 0.3125000000000000000 ) ;
#108 = DIRECTION ( 'NONE',  ( -1.224646799147353207E-16, 1.000000000000000000, -0.000000000000000000 ) ) ;
#109 = VERTEX_POINT ( 'NONE', #269 ) ;
#110 =( NAMED_UNIT ( * ) PLANE_ANGLE_UNIT ( ) SI_UNIT ( $, .RADIAN. ) );
#111 = DIMENSIONAL_EXPONENTS ( 1.000000000000000000, 0.000000000000000000, 0.000000000000000000, 0.000000000000000000, 0.000000000000000000, 0.000000000000000000, 0.000000000000000000 ) ;
#112 =( CONVERSION_BASED_UNIT ( 'INCH', #56 ) LENGTH_UNIT ( ) NAMED_UNIT ( #111 ) );
#113 = PRESENTATION_LAYER_ASSIGNMENT (  '', '', ( #140 ) ) ;
#114 = COLOUR_RGB ( '',1.000000000000000000, 0.000000000000000000, 0.000000000000000000 ) ;
#115 = PLANE ( 'NONE',  #230 ) ;
#116 = FILL_AREA_STYLE_COLOUR ( '', #238 ) ;
#117 = SURFACE_STYLE_FILL_AREA ( #342 ) ;
#118 = LINE ( 'NONE', #155, #44 ) ;
#119 = EDGE_LOOP ( 'NONE', ( #82, #229 ) ) ;
#120 = CARTESIAN_POINT ( 'NONE',  ( -6.123233995736759873E-17, 3.500000000000000000, 0.000000000000000000 ) ) ;
#121 = LINE ( 'NONE', #149, #67 ) ;
#122 = ORIENTED_EDGE ( 'NONE', *, *, #173, .T. ) ;
#123 = COLOUR_RGB ( '',1.000000000000000000, 0.000000000000000000, 0.000000000000000000 ) ;
#124 = PLANE ( 'NONE',  #279 ) ;
#125 = AXIS2_PLACEMENT_3D ( 'NONE', #289, #334, #338 ) ;
#126 = DIRECTION ( 'NONE',  ( -0.000000000000000000, -1.000000000000000000, -0.000000000000000000 ) ) ;
#127 = FILL_AREA_STYLE ('',( #116 ) ) ;
#128 = LENGTH_MEASURE_WITH_UNIT ( LENGTH_MEASURE( 0.02539999999999999897 ), #178 );
#129 = CARTESIAN_POINT ( 'NONE',  ( -3.827021247335478926E-17, 0.3125000000000000000, 0.000000000000000000 ) ) ;
#130 =( LENGTH_UNIT ( ) NAMED_UNIT ( * ) SI_UNIT ( $, .METRE. ) );
#131 =( CONVERSION_BASED_UNIT ( 'INCH', #128 ) LENGTH_UNIT ( ) NAMED_UNIT ( #373 ) );
#132 = AXIS2_PLACEMENT_3D ( 'NONE', #23, #53, #92 ) ;
#133 = AXIS2_PLACEMENT_3D ( 'NONE', #254, #143, #172 ) ;
#134 = FACE_OUTER_BOUND ( 'NONE', #5, .T. ) ;
#135 = CIRCLE ( 'NONE', #185, 0.3124999999999999445 ) ;
#136 = DIRECTION ( 'NONE',  ( -1.000000000000000000, 0.000000000000000000, 0.000000000000000000 ) ) ;
#137 = FILL_AREA_STYLE ('',( #262 ) ) ;
#138 = DIRECTION ( 'NONE',  ( -0.000000000000000000, -1.000000000000000000, -0.000000000000000000 ) ) ;
#139 = CARTESIAN_POINT ( 'NONE',  ( -6.123233995736758640E-17, 3.500000000000000000, 0.000000000000000000 ) ) ;
#140 = STYLED_ITEM ( 'NONE', ( #245 ), #18 ) ;
#141 = MECHANICAL_DESIGN_GEOMETRIC_PRESENTATION_REPRESENTATION (  '', ( #76 ), #147 ) ;
#142 = ORIENTED_EDGE ( 'NONE', *, *, #308, .F. ) ;
#143 = DIRECTION ( 'NONE',  ( -0.000000000000000000, -1.000000000000000000, -0.000000000000000000 ) ) ;
#144 = ORIENTED_EDGE ( 'NONE', *, *, #225, .T. ) ;
#145 = DIRECTION ( 'NONE',  ( 1.000000000000000000, 1.224646799147353207E-16, 0.000000000000000000 ) ) ;
#146 = VERTEX_POINT ( 'NONE', #266 ) ;
#147 =( GEOMETRIC_REPRESENTATION_CONTEXT ( 3 ) GLOBAL_UNCERTAINTY_ASSIGNED_CONTEXT ( ( #198 ) ) GLOBAL_UNIT_ASSIGNED_CONTEXT ( ( #150, #244, #302 ) ) REPRESENTATION_CONTEXT ( 'NONE', 'WORKASPACE' ) );
#148 = ADVANCED_FACE ( 'NONE', ( #3 ), #152, .T. ) ;
#149 = CARTESIAN_POINT ( 'NONE',  ( -0.3124999999999998890, 3.500000000000000000, 0.000000000000000000 ) ) ;
#150 =( CONVERSION_BASED_UNIT ( 'INCH', #63 ) LENGTH_UNIT ( ) NAMED_UNIT ( #29 ) );
#151 = ORIENTED_EDGE ( 'NONE', *, *, #202, .F. ) ;
#152 = CYLINDRICAL_SURFACE ( 'NONE', #66, 0.3124999999999998890 ) ;
#153 = CARTESIAN_POINT ( 'NONE',  ( 0.000000000000000000, 0.3125000000000000555, 0.000000000000000000 ) ) ;
#154 = CYLINDRICAL_SURFACE ( 'NONE', #354, 0.3124999999999998890 ) ;
#155 = CARTESIAN_POINT ( 'NONE',  ( 3.827021247335477078E-17, 0.000000000000000000, 0.3124999999999998890 ) ) ;
#156 = EDGE_CURVE ( 'NONE', #369, #146, #27, .T. ) ;
#157 =( CONVERSION_BASED_UNIT ( 'INCH', #277 ) LENGTH_UNIT ( ) NAMED_UNIT ( #86 ) );
#158 = STYLED_ITEM ( 'NONE', ( #218 ), #186 ) ;
#159 = SURFACE_SIDE_STYLE ('',( #243 ) ) ;
#160 =( CONVERSION_BASED_UNIT ( 'INCH', #215 ) LENGTH_UNIT ( ) NAMED_UNIT ( #13 ) );
#161 = UNCERTAINTY_MEASURE_WITH_UNIT (LENGTH_MEASURE( 1.000000000000000082E-05 ), #160, 'distance_accuracy_value', 'NONE');
#162 = AXIS2_PLACEMENT_3D ( 'NONE', #177, #80, #313 ) ;
#163 = CIRCLE ( 'NONE', #216, 0.3124999999999999445 ) ;
#164 = UNCERTAINTY_MEASURE_WITH_UNIT (LENGTH_MEASURE( 1.000000000000000082E-05 ), #211, 'distance_accuracy_value', 'NONE');
#165 =( NAMED_UNIT ( * ) SI_UNIT ( $, .STERADIAN. ) SOLID_ANGLE_UNIT ( ) );
#166 = CARTESIAN_POINT ( 'NONE',  ( 0.000000000000000000, 1.250000000000000000, -0.3124999999999998890 ) ) ;
#167 = MECHANICAL_DESIGN_GEOMETRIC_PRESENTATION_REPRESENTATION (  '', ( #355 ), #309 ) ;
#168 = AXIS2_PLACEMENT_3D ( 'NONE', #332, #190, #267 ) ;
#169 =( NAMED_UNIT ( * ) SI_UNIT ( $, .STERADIAN. ) SOLID_ANGLE_UNIT ( ) );
#170 = FACE_OUTER_BOUND ( 'NONE', #8, .T. ) ;
#171 = PLANE ( 'NONE',  #207 ) ;
#172 = DIRECTION ( 'NONE',  ( 0.000000000000000000, 0.000000000000000000, -1.000000000000000000 ) ) ;
#173 = EDGE_CURVE ( 'NONE', #248, #180, #314, .T. ) ;
#174 = ORIENTED_EDGE ( 'NONE', *, *, #46, .F. ) ;
#175 = COLOUR_RGB ( '',0.7921568627450980005, 0.8196078431372548767, 0.9333333333333333481 ) ;
#176 = DIRECTION ( 'NONE',  ( 1.224646799147353207E-16, -0.000000000000000000, 1.000000000000000000 ) ) ;
#177 = CARTESIAN_POINT ( 'NONE',  ( 0.000000000000000000, 1.250000000000000000, 0.000000000000000000 ) ) ;
#178 =( LENGTH_UNIT ( ) NAMED_UNIT ( * ) SI_UNIT ( $, .METRE. ) );
#179 =( NAMED_UNIT ( * ) PLANE_ANGLE_UNIT ( ) SI_UNIT ( $, .RADIAN. ) );
#180 = VERTEX_POINT ( 'NONE', #311 ) ;
#181 = DIMENSIONAL_EXPONENTS ( 1.000000000000000000, 0.000000000000000000, 0.000000000000000000, 0.000000000000000000, 0.000000000000000000, 0.000000000000000000, 0.000000000000000000 ) ;
#182 = PRESENTATION_STYLE_ASSIGNMENT (( #241 ) ) ;
#183 = ORIENTED_EDGE ( 'NONE', *, *, #49, .T. ) ;
#184 = VECTOR ( 'NONE', #209, 39.37007874015748143 ) ;
#185 = AXIS2_PLACEMENT_3D ( 'NONE', #139, #256, #1 ) ;
#186 = ADVANCED_FACE ( 'NONE', ( #283 ), #171, .T. ) ;
#187 = CARTESIAN_POINT ( 'NONE',  ( 2.143131898507868297E-16, 1.250000000000000000, 0.000000000000000000 ) ) ;
#188 = ORIENTED_EDGE ( 'NONE', *, *, #31, .T. ) ;
#189 = DIRECTION ( 'NONE',  ( -0.000000000000000000, -1.000000000000000000, -0.000000000000000000 ) ) ;
#190 = DIRECTION ( 'NONE',  ( 0.000000000000000000, 0.000000000000000000, 1.000000000000000000 ) ) ;
#191 =( LENGTH_UNIT ( ) NAMED_UNIT ( * ) SI_UNIT ( $, .METRE. ) );
#192 = SURFACE_SIDE_STYLE ('',( #242 ) ) ;
#193 = DIRECTION ( 'NONE',  ( 0.000000000000000000, 0.000000000000000000, -1.000000000000000000 ) ) ;
#194 = VECTOR ( 'NONE', #200, 39.37007874015748143 ) ;
#195 = COLOUR_RGB ( '',1.000000000000000000, 0.000000000000000000, 0.000000000000000000 ) ;
#196 =( NAMED_UNIT ( * ) PLANE_ANGLE_UNIT ( ) SI_UNIT ( $, .RADIAN. ) );
#197 = SURFACE_SIDE_STYLE ('',( #71 ) ) ;
#198 = UNCERTAINTY_MEASURE_WITH_UNIT (LENGTH_MEASURE( 1.000000000000000082E-05 ), #150, 'distance_accuracy_value', 'NONE');
#199 = DIRECTION ( 'NONE',  ( 0.000000000000000000, 0.000000000000000000, 1.000000000000000000 ) ) ;
#200 = DIRECTION ( 'NONE',  ( -1.224646799147353207E-16, 1.000000000000000000, -0.000000000000000000 ) ) ;
#201 = SPHERICAL_SURFACE ( 'NONE', #250, 0.3125000000000000000 ) ;
#202 = EDGE_CURVE ( 'NONE', #79, #248, #255, .T. ) ;
#203 = DIRECTION ( 'NONE',  ( -1.224646799147353207E-16, 1.000000000000000000, -0.000000000000000000 ) ) ;
#204 = ORIENTED_EDGE ( 'NONE', *, *, #340, .F. ) ;
#205 = CARTESIAN_POINT ( 'NONE',  ( -6.123233995736758640E-17, 3.500000000000000000, 0.000000000000000000 ) ) ;
#206 =( LENGTH_UNIT ( ) NAMED_UNIT ( * ) SI_UNIT ( $, .METRE. ) );
#207 = AXIS2_PLACEMENT_3D ( 'NONE', #252, #100, #20 ) ;
#208 = AXIS2_PLACEMENT_3D ( 'NONE', #288, #199, #104 ) ;
#209 = DIRECTION ( 'NONE',  ( -0.000000000000000000, -1.000000000000000000, -0.000000000000000000 ) ) ;
#210 = FACE_OUTER_BOUND ( 'NONE', #103, .T. ) ;
#211 =( CONVERSION_BASED_UNIT ( 'INCH', #364 ) LENGTH_UNIT ( ) NAMED_UNIT ( #81 ) );
#212 = VERTEX_POINT ( 'NONE', #282 ) ;
#213 = FACE_OUTER_BOUND ( 'NONE', #39, .T. ) ;
#214 = PRODUCT_RELATED_PRODUCT_CATEGORY ( 'part', '', ( #14 ) ) ;
#215 = LENGTH_MEASURE_WITH_UNIT ( LENGTH_MEASURE( 0.02539999999999999897 ), #323 );
#216 = AXIS2_PLACEMENT_3D ( 'NONE', #153, #346, #40 ) ;
#217 = SURFACE_STYLE_USAGE ( .BOTH. , #272 ) ;
#218 = PRESENTATION_STYLE_ASSIGNMENT (( #55 ) ) ;
#219 = VERTEX_POINT ( 'NONE', #166 ) ;
#220 = ORIENTED_EDGE ( 'NONE', *, *, #285, .T. ) ;
#221 =( NAMED_UNIT ( * ) SI_UNIT ( $, .STERADIAN. ) SOLID_ANGLE_UNIT ( ) );
#222 = PRESENTATION_LAYER_ASSIGNMENT (  '', '', ( #76 ) ) ;
#223 = ADVANCED_FACE ( 'NONE', ( #134 ), #201, .T. ) ;
#224 = DIRECTION ( 'NONE',  ( -1.224646799147353207E-16, 1.000000000000000000, -0.000000000000000000 ) ) ;
#225 = EDGE_CURVE ( 'NONE', #219, #320, #239, .T. ) ;
#226 = AXIS2_PLACEMENT_3D ( 'NONE', #260, #2, #322 ) ;
#227 = FILL_AREA_STYLE_COLOUR ( '', #114 ) ;
#228 = APPLICATION_PROTOCOL_DEFINITION ( 'draft international standard', 'automotive_design', 1998, #33 ) ;
#229 = ORIENTED_EDGE ( 'NONE', *, *, #46, .T. ) ;
#230 = AXIS2_PLACEMENT_3D ( 'NONE', #296, #32, #145 ) ;
#231 = COLOUR_RGB ( '',0.7921568627450980005, 0.8196078431372548767, 0.9333333333333333481 ) ;
#232 = VERTEX_POINT ( 'NONE', #264 ) ;
#233 = CARTESIAN_POINT ( 'NONE',  ( 0.000000000000000000, 0.000000000000000000, 0.000000000000000000 ) ) ;
#234 =( CONVERSION_BASED_UNIT ( 'INCH', #370 ) LENGTH_UNIT ( ) NAMED_UNIT ( #94 ) );
#235 = SURFACE_STYLE_USAGE ( .BOTH. , #339 ) ;
#236 = CARTESIAN_POINT ( 'NONE',  ( -0.3125000000000000000, 3.500000000000000000, 0.000000000000000000 ) ) ;
#237 = DIRECTION ( 'NONE',  ( -1.224646799147353207E-16, 1.000000000000000000, -0.000000000000000000 ) ) ;
#238 = COLOUR_RGB ( '',1.000000000000000000, 0.000000000000000000, 0.000000000000000000 ) ;
#239 = CIRCLE ( 'NONE', #133, 0.3124999999999998890 ) ;
#240 = CARTESIAN_POINT ( 'NONE',  ( -0.3124999999999994449, 1.250000000000000000, 0.000000000000000000 ) ) ;
#241 = SURFACE_STYLE_USAGE ( .BOTH. , #4 ) ;
#242 = SURFACE_STYLE_FILL_AREA ( #127 ) ;
#243 = SURFACE_STYLE_FILL_AREA ( #353 ) ;
#244 =( NAMED_UNIT ( * ) PLANE_ANGLE_UNIT ( ) SI_UNIT ( $, .RADIAN. ) );
#245 = PRESENTATION_STYLE_ASSIGNMENT (( #306 ) ) ;
#246 = STYLED_ITEM ( 'NONE', ( #96 ), #361 ) ;
#247 = DIRECTION ( 'NONE',  ( 0.000000000000000000, 0.000000000000000000, -1.000000000000000000 ) ) ;
#248 = VERTEX_POINT ( 'NONE', #295 ) ;
#249 =( NAMED_UNIT ( * ) SI_UNIT ( $, .STERADIAN. ) SOLID_ANGLE_UNIT ( ) );
#250 = AXIS2_PLACEMENT_3D ( 'NONE', #78, #24, #290 ) ;
#251 = EDGE_CURVE ( 'NONE', #42, #180, #135, .T. ) ;
#252 = CARTESIAN_POINT ( 'NONE',  ( 0.000000000000000000, 1.250000000000000000, 0.000000000000000000 ) ) ;
#253 = SPHERICAL_SURFACE ( 'NONE', #168, 0.3125000000000000000 ) ;
#254 = CARTESIAN_POINT ( 'NONE',  ( 0.000000000000000000, 1.250000000000000000, 0.000000000000000000 ) ) ;
#255 = CIRCLE ( 'NONE', #337, 0.3124999999999996669 ) ;
#256 = DIRECTION ( 'NONE',  ( -1.224646799147353207E-16, 1.000000000000000000, -0.000000000000000000 ) ) ;
#257 = EDGE_LOOP ( 'NONE', ( #312, #188, #263, #142, #51 ) ) ;
#258 = DIRECTION ( 'NONE',  ( 0.000000000000000000, 0.000000000000000000, -1.000000000000000000 ) ) ;
#259 = MECHANICAL_DESIGN_GEOMETRIC_PRESENTATION_REPRESENTATION (  '', ( #330 ), #21 ) ;
#260 = CARTESIAN_POINT ( 'NONE',  ( 0.000000000000000000, 0.3125000000000000555, 0.000000000000000000 ) ) ;
#261 = ORIENTED_EDGE ( 'NONE', *, *, #251, .F. ) ;
#262 = FILL_AREA_STYLE_COLOUR ( '', #175 ) ;
#263 = ORIENTED_EDGE ( 'NONE', *, *, #70, .T. ) ;
#264 = CARTESIAN_POINT ( 'NONE',  ( -1.913510623667739463E-17, 0.000000000000000000, 0.000000000000000000 ) ) ;
#265 = ORIENTED_EDGE ( 'NONE', *, *, #308, .T. ) ;
#266 = CARTESIAN_POINT ( 'NONE',  ( -0.3125000000000000000, 0.3125000000000000555, 3.827021247335477694E-17 ) ) ;
#267 = DIRECTION ( 'NONE',  ( 1.000000000000000000, 0.000000000000000000, 0.000000000000000000 ) ) ;
#268 = ORIENTED_EDGE ( 'NONE', *, *, #363, .T. ) ;
#269 = CARTESIAN_POINT ( 'NONE',  ( 0.3124999999999999445, 0.3125000000000000555, 0.000000000000000000 ) ) ;
#270 = CARTESIAN_POINT ( 'NONE',  ( 3.827021247335477078E-17, 1.250000000000000000, 0.3124999999999998890 ) ) ;
#271 = MANIFOLD_SOLID_BREP ( 'Revolve - Cutting Edge', #47 ) ;
#272 = SURFACE_SIDE_STYLE ('',( #117 ) ) ;
#273 = EDGE_CURVE ( 'NONE', #212, #109, #16, .T. ) ;
#274 = ORIENTED_EDGE ( 'NONE', *, *, #225, .F. ) ;
#275 = CARTESIAN_POINT ( 'NONE',  ( 0.000000000000000000, 0.3125000000000000555, 0.000000000000000000 ) ) ;
#276 = PRESENTATION_LAYER_ASSIGNMENT (  '', '', ( #158 ) ) ;
#277 = LENGTH_MEASURE_WITH_UNIT ( LENGTH_MEASURE( 0.02539999999999999897 ), #321 );
#278 = UNCERTAINTY_MEASURE_WITH_UNIT (LENGTH_MEASURE( 1.000000000000000082E-05 ), #157, 'distance_accuracy_value', 'NONE');
#279 = AXIS2_PLACEMENT_3D ( 'NONE', #187, #11, #37 ) ;
#280 = AXIS2_PLACEMENT_3D ( 'NONE', #129, #95, #38 ) ;
#281 = MANIFOLD_SOLID_BREP ( 'Revolve - Tool Body (Straight Shanked)', #69 ) ;
#282 = CARTESIAN_POINT ( 'NONE',  ( 0.000000000000000000, 0.3125000000000000555, -0.3124999999999999445 ) ) ;
#283 = FACE_OUTER_BOUND ( 'NONE', #30, .T. ) ;
#284 = PRESENTATION_STYLE_ASSIGNMENT (( #73 ) ) ;
#285 = EDGE_CURVE ( 'NONE', #109, #232, #107, .T. ) ;
#286 = PRODUCT_DEFINITION_CONTEXT ( 'detailed design', #33, 'design' ) ;
#287 = MECHANICAL_DESIGN_GEOMETRIC_PRESENTATION_REPRESENTATION (  '', ( #343 ), #93 ) ;
#288 = CARTESIAN_POINT ( 'NONE',  ( 0.000000000000000000, 0.000000000000000000, 0.000000000000000000 ) ) ;
#289 = CARTESIAN_POINT ( 'NONE',  ( 0.000000000000000000, 0.3125000000000000555, 0.000000000000000000 ) ) ;
#290 = DIRECTION ( 'NONE',  ( 1.000000000000000000, 0.000000000000000000, 0.000000000000000000 ) ) ;
#291 = ORIENTED_EDGE ( 'NONE', *, *, #202, .T. ) ;
#292 =( NAMED_UNIT ( * ) PLANE_ANGLE_UNIT ( ) SI_UNIT ( $, .RADIAN. ) );
#293 = CIRCLE ( 'NONE', #336, 0.3125000000000000000 ) ;
#294 = DIRECTION ( 'NONE',  ( 1.000000000000000000, 0.000000000000000000, -1.224646799147353207E-16 ) ) ;
#295 = CARTESIAN_POINT ( 'NONE',  ( 0.3124999999999998890, 1.250000000000000000, 3.827021247335477078E-17 ) ) ;
#296 = CARTESIAN_POINT ( 'NONE',  ( 0.3124999999999998890, 3.500000000000000000, 0.000000000000000000 ) ) ;
#297 = FILL_AREA_STYLE_COLOUR ( '', #123 ) ;
#298 = CIRCLE ( 'NONE', #74, 0.3124999999999999445 ) ;
#299 = FILL_AREA_STYLE_COLOUR ( '', #195 ) ;
#300 = ORIENTED_EDGE ( 'NONE', *, *, #329, .T. ) ;
#301 = ADVANCED_BREP_SHAPE_REPRESENTATION ( '49346', ( #271, #281, #208 ), #48 ) ;
#302 =( NAMED_UNIT ( * ) SI_UNIT ( $, .STERADIAN. ) SOLID_ANGLE_UNIT ( ) );
#303 = ORIENTED_EDGE ( 'NONE', *, *, #285, .F. ) ;
#304 = CARTESIAN_POINT ( 'NONE',  ( 3.827021247335477694E-17, 0.3125000000000000555, 0.3124999999999999445 ) ) ;
#305 = FILL_AREA_STYLE_COLOUR ( '', #231 ) ;
#306 = SURFACE_STYLE_USAGE ( .BOTH. , #192 ) ;
#307 = CIRCLE ( 'NONE', #132, 0.3124999999999996669 ) ;
#308 = EDGE_CURVE ( 'NONE', #146, #212, #163, .T. ) ;
#309 =( GEOMETRIC_REPRESENTATION_CONTEXT ( 3 ) GLOBAL_UNCERTAINTY_ASSIGNED_CONTEXT ( ( #164 ) ) GLOBAL_UNIT_ASSIGNED_CONTEXT ( ( #211, #292, #169 ) ) REPRESENTATION_CONTEXT ( 'NONE', 'WORKASPACE' ) );
#310 = CIRCLE ( 'NONE', #351, 0.3124999999999999445 ) ;
#311 = CARTESIAN_POINT ( 'NONE',  ( 0.3124999999999998890, 3.500000000000000000, 3.827021247335477078E-17 ) ) ;
#312 = ORIENTED_EDGE ( 'NONE', *, *, #329, .F. ) ;
#313 = DIRECTION ( 'NONE',  ( 0.000000000000000000, 0.000000000000000000, -1.000000000000000000 ) ) ;
#314 = LINE ( 'NONE', #22, #194 ) ;
#315 = PRESENTATION_LAYER_ASSIGNMENT (  '', '', ( #330 ) ) ;
#316 = ORIENTED_EDGE ( 'NONE', *, *, #60, .T. ) ;
#317 = FACE_OUTER_BOUND ( 'NONE', #119, .T. ) ;
#318 = ORIENTED_EDGE ( 'NONE', *, *, #49, .F. ) ;
#319 = SURFACE_STYLE_USAGE ( .BOTH. , #159 ) ;
#320 = VERTEX_POINT ( 'NONE', #270 ) ;
#321 =( LENGTH_UNIT ( ) NAMED_UNIT ( * ) SI_UNIT ( $, .METRE. ) );
#322 = DIRECTION ( 'NONE',  ( 0.000000000000000000, 0.000000000000000000, -1.000000000000000000 ) ) ;
#323 =( LENGTH_UNIT ( ) NAMED_UNIT ( * ) SI_UNIT ( $, .METRE. ) );
#324 =( LENGTH_UNIT ( ) NAMED_UNIT ( * ) SI_UNIT ( $, .METRE. ) );
#325 = ORIENTED_EDGE ( 'NONE', *, *, #273, .T. ) ;
#326 = MECHANICAL_DESIGN_GEOMETRIC_PRESENTATION_REPRESENTATION (  '', ( #140 ), #350 ) ;
#327 = PRESENTATION_LAYER_ASSIGNMENT (  '', '', ( #355 ) ) ;
#328 = UNCERTAINTY_MEASURE_WITH_UNIT (LENGTH_MEASURE( 1.000000000000000082E-05 ), #112, 'distance_accuracy_value', 'NONE');
#329 = EDGE_CURVE ( 'NONE', #320, #369, #118, .T. ) ;
#330 = STYLED_ITEM ( 'NONE', ( #6 ), #148 ) ;
#331 = MECHANICAL_DESIGN_GEOMETRIC_PRESENTATION_REPRESENTATION (  '', ( #158 ), #359 ) ;
#332 = CARTESIAN_POINT ( 'NONE',  ( -3.827021247335478926E-17, 0.3125000000000000000, 0.000000000000000000 ) ) ;
#333 = FILL_AREA_STYLE ('',( #227 ) ) ;
#334 = DIRECTION ( 'NONE',  ( -0.000000000000000000, -1.000000000000000000, -0.000000000000000000 ) ) ;
#335 =( NAMED_UNIT ( * ) SI_UNIT ( $, .STERADIAN. ) SOLID_ANGLE_UNIT ( ) );
#336 = AXIS2_PLACEMENT_3D ( 'NONE', #371, #176, #294 ) ;
#337 = AXIS2_PLACEMENT_3D ( 'NONE', #45, #224, #362 ) ;
#338 = DIRECTION ( 'NONE',  ( 0.000000000000000000, 0.000000000000000000, -1.000000000000000000 ) ) ;
#339 = SURFACE_SIDE_STYLE ('',( #366 ) ) ;
#340 = EDGE_CURVE ( 'NONE', #109, #369, #310, .T. ) ;
#341 = LINE ( 'NONE', #88, #184 ) ;
#342 = FILL_AREA_STYLE ('',( #297 ) ) ;
#343 = STYLED_ITEM ( 'NONE', ( #105 ), #271 ) ;
#344 = ORIENTED_EDGE ( 'NONE', *, *, #340, .T. ) ;
#345 = FACE_OUTER_BOUND ( 'NONE', #91, .T. ) ;
#346 = DIRECTION ( 'NONE',  ( -0.000000000000000000, -1.000000000000000000, -0.000000000000000000 ) ) ;
#347 =( NAMED_UNIT ( * ) PLANE_ANGLE_UNIT ( ) SI_UNIT ( $, .RADIAN. ) );
#348 = ORIENTED_EDGE ( 'NONE', *, *, #60, .F. ) ;
#349 = SURFACE_SIDE_STYLE ('',( #85 ) ) ;
#350 =( GEOMETRIC_REPRESENTATION_CONTEXT ( 3 ) GLOBAL_UNCERTAINTY_ASSIGNED_CONTEXT ( ( #161 ) ) GLOBAL_UNIT_ASSIGNED_CONTEXT ( ( #160, #57, #26 ) ) REPRESENTATION_CONTEXT ( 'NONE', 'WORKASPACE' ) );
#351 = AXIS2_PLACEMENT_3D ( 'NONE', #275, #126, #247 ) ;
#352 = DIRECTION ( 'NONE',  ( -1.000000000000000000, 0.000000000000000000, 0.000000000000000000 ) ) ;
#353 = FILL_AREA_STYLE ('',( #299 ) ) ;
#354 = AXIS2_PLACEMENT_3D ( 'NONE', #233, #138, #258 ) ;
#355 = STYLED_ITEM ( 'NONE', ( #284 ), #223 ) ;
#356 =( NAMED_UNIT ( * ) SI_UNIT ( $, .STERADIAN. ) SOLID_ANGLE_UNIT ( ) );
#357 = PRODUCT_DEFINITION_SHAPE ( 'NONE', 'NONE',  #89 ) ;
#358 = CIRCLE ( 'NONE', #162, 0.3124999999999998890 ) ;
#359 =( GEOMETRIC_REPRESENTATION_CONTEXT ( 3 ) GLOBAL_UNCERTAINTY_ASSIGNED_CONTEXT ( ( #68 ) ) GLOBAL_UNIT_ASSIGNED_CONTEXT ( ( #131, #196, #335 ) ) REPRESENTATION_CONTEXT ( 'NONE', 'WORKASPACE' ) );
#360 =( GEOMETRIC_REPRESENTATION_CONTEXT ( 3 ) GLOBAL_UNCERTAINTY_ASSIGNED_CONTEXT ( ( #43 ) ) GLOBAL_UNIT_ASSIGNED_CONTEXT ( ( #34, #347, #221 ) ) REPRESENTATION_CONTEXT ( 'NONE', 'WORKASPACE' ) );
#361 = ADVANCED_FACE ( 'NONE', ( #213 ), #253, .T. ) ;
#362 = DIRECTION ( 'NONE',  ( -1.000000000000000000, 0.000000000000000000, 0.000000000000000000 ) ) ;
#363 = EDGE_CURVE ( 'NONE', #79, #42, #121, .T. ) ;
#364 = LENGTH_MEASURE_WITH_UNIT ( LENGTH_MEASURE( 0.02539999999999999897 ), #90 );
#365 = CYLINDRICAL_SURFACE ( 'NONE', #106, 0.3124999999999998335 ) ;
#366 = SURFACE_STYLE_FILL_AREA ( #137 ) ;
#367 = DIRECTION ( 'NONE',  ( -1.000000000000000000, 0.000000000000000000, 0.000000000000000000 ) ) ;
#368 = COLOUR_RGB ( '',1.000000000000000000, 0.000000000000000000, 0.000000000000000000 ) ;
#369 = VERTEX_POINT ( 'NONE', #304 ) ;
#370 = LENGTH_MEASURE_WITH_UNIT ( LENGTH_MEASURE( 0.02539999999999999897 ), #130 );
#371 = CARTESIAN_POINT ( 'NONE',  ( -3.827021247335478926E-17, 0.3125000000000000000, 0.000000000000000000 ) ) ;
#372 = FILL_AREA_STYLE ('',( #72 ) ) ;
#373 = DIMENSIONAL_EXPONENTS ( 1.000000000000000000, 0.000000000000000000, 0.000000000000000000, 0.000000000000000000, 0.000000000000000000, 0.000000000000000000, 0.000000000000000000 ) ;
ENDSEC;
END-ISO-10303-21;
