ISO-10303-21;
HEADER;
FILE_DESCRIPTION (( 'STEP AP214' ),
    '1' );
FILE_NAME ('Micro_GEM-156-3X.STEP',
    '2021-09-01T19:51:02',
    ( '' ),
    ( '' ),
    'SwSTEP 2.0',
    'SolidWorks 2020',
    '' );
FILE_SCHEMA (( 'AUTOMOTIVE_DESIGN' ));
ENDSEC;

DATA;
#1 = APPLICATION_PROTOCOL_DEFINITION ( 'draft international standard', 'automotive_design', 1998, #267 ) ;
#2 = CARTESIAN_POINT ( 'NONE',  ( -0.09374999999999991673, 0.0000000000000000000, 0.6521984875871288390 ) ) ;
#3 = ORIENTED_EDGE ( 'NONE', *, *, #190, .T. ) ;
#4 = VERTEX_POINT ( 'NONE', #261 ) ;
#5 = FILL_AREA_STYLE ('',( #133 ) ) ;
#6 = LINE ( 'NONE', #195, #199 ) ;
#7 = LINE ( 'NONE', #211, #245 ) ;
#8 = AXIS2_PLACEMENT_3D ( 'NONE', #21, #71, #109 ) ;
#9 = DIRECTION ( 'NONE',  ( 1.000000000000000000, 0.0000000000000000000, 0.0000000000000000000 ) ) ;
#10 = LINE ( 'NONE', #252, #73 ) ;
#11 = CARTESIAN_POINT ( 'NONE',  ( 6.894761479199598081E-17, 0.0000000000000000000, 0.5629999999999999449 ) ) ;
#12 = CIRCLE ( 'NONE', #47, 0.07802190000000000514 ) ;
#13 = ADVANCED_FACE ( 'NONE', ( #238 ), #182, .T. ) ;
#14 = DIRECTION ( 'NONE',  ( 1.000000000000000000, 0.0000000000000000000, 0.0000000000000000000 ) ) ;
#15 = DIRECTION ( 'NONE',  ( 1.000000000000000000, 0.0000000000000000000, 0.0000000000000000000 ) ) ;
#16 = DIRECTION ( 'NONE',  ( -1.000000000000000000, 0.0000000000000000000, 0.0000000000000000000 ) ) ;
#17 = EDGE_CURVE ( 'NONE', #41, #181, #7, .T. ) ;
#18 = AXIS2_PLACEMENT_3D ( 'NONE', #113, #91, #70 ) ;
#19 = PRESENTATION_LAYER_ASSIGNMENT (  '', '', ( #191 ) ) ;
#20 = LINE ( 'NONE', #106, #146 ) ;
#21 = CARTESIAN_POINT ( 'NONE',  ( 6.894761479199598081E-17, 0.0000000000000000000, 0.5629999999999999449 ) ) ;
#22 = EDGE_LOOP ( 'NONE', ( #255, #30, #135, #264 ) ) ;
#23 = EDGE_CURVE ( 'NONE', #60, #185, #178, .T. ) ;
#24 = COLOUR_RGB ( '',0.7921568627450980005, 0.8196078431372548767, 0.9333333333333333481 ) ;
#25 = EDGE_LOOP ( 'NONE', ( #258, #192, #234, #141 ) ) ;
#26 = ORIENTED_EDGE ( 'NONE', *, *, #277, .T. ) ;
#27 = CYLINDRICAL_SURFACE ( 'NONE', #222, 0.09375000000000001388 ) ;
#28 = EDGE_LOOP ( 'NONE', ( #166, #125, #37, #208 ) ) ;
#29 = CLOSED_SHELL ( 'NONE', ( #83, #250, #13, #53, #202, #94, #160, #220, #244, #38 ) ) ;
#30 = ORIENTED_EDGE ( 'NONE', *, *, #48, .T. ) ;
#31 = SHAPE_DEFINITION_REPRESENTATION ( #76, #269 ) ;
#32 = CARTESIAN_POINT ( 'NONE',  ( 0.0000000000000000000, 0.0000000000000000000, 1.984999999999999654 ) ) ;
#33 = AXIS2_PLACEMENT_3D ( 'NONE', #227, #225, #9 ) ;
#34 = PRODUCT_RELATED_PRODUCT_CATEGORY ( 'part', '', ( #99 ) ) ;
#35 = CARTESIAN_POINT ( 'NONE',  ( 0.0000000000000000000, 0.0000000000000000000, 2.000000000000000000 ) ) ;
#36 = SURFACE_SIDE_STYLE ('',( #114 ) ) ;
#37 = ORIENTED_EDGE ( 'NONE', *, *, #17, .T. ) ;
#38 = ADVANCED_FACE ( 'NONE', ( #51 ), #242, .F. ) ;
#39 = FACE_OUTER_BOUND ( 'NONE', #232, .T. ) ;
#40 = ORIENTED_EDGE ( 'NONE', *, *, #136, .T. ) ;
#41 = VERTEX_POINT ( 'NONE', #266 ) ;
#42 = CARTESIAN_POINT ( 'NONE',  ( 0.09375000000000001388, 1.148106374200643863E-17, 2.000000000000000000 ) ) ;
#43 = ORIENTED_EDGE ( 'NONE', *, *, #23, .T. ) ;
#44 = FACE_OUTER_BOUND ( 'NONE', #66, .T. ) ;
#45 = PRODUCT_DEFINITION ( 'UNKNOWN', '', #257, #89 ) ;
#46 = AXIS2_PLACEMENT_3D ( 'NONE', #175, #196, #219 ) ;
#47 = AXIS2_PLACEMENT_3D ( 'NONE', #116, #142, #120 ) ;
#48 = EDGE_CURVE ( 'NONE', #4, #185, #52, .T. ) ;
#49 = PRESENTATION_STYLE_ASSIGNMENT (( #172 ) ) ;
#50 = DIRECTION ( 'NONE',  ( -1.000000000000000000, 0.0000000000000000000, 1.224646799147353207E-16 ) ) ;
#51 = FACE_OUTER_BOUND ( 'NONE', #86, .T. ) ;
#52 = LINE ( 'NONE', #42, #217 ) ;
#53 = ADVANCED_FACE ( 'NONE', ( #233 ), #27, .T. ) ;
#54 = EDGE_CURVE ( 'NONE', #105, #185, #6, .T. ) ;
#55 = LINE ( 'NONE', #62, #147 ) ;
#56 = DIRECTION ( 'NONE',  ( -1.224646799147353207E-16, -0.0000000000000000000, -1.000000000000000000 ) ) ;
#57 = DIRECTION ( 'NONE',  ( 1.224646799147353207E-16, 0.0000000000000000000, 1.000000000000000000 ) ) ;
#58 = AXIS2_PLACEMENT_3D ( 'NONE', #213, #173, #50 ) ;
#59 = VECTOR ( 'NONE', #276, 39.37007874015748143 ) ;
#60 = VERTEX_POINT ( 'NONE', #2 ) ;
#61 = PLANE ( 'NONE',  #273 ) ;
#62 = CARTESIAN_POINT ( 'NONE',  ( -0.07802189999999993575, 9.554927009839488851E-18, 0.5629999999999999449 ) ) ;
#63 = DIRECTION ( 'NONE',  ( -1.224646799147353207E-16, -0.0000000000000000000, -1.000000000000000000 ) ) ;
#64 = ORIENTED_EDGE ( 'NONE', *, *, #54, .F. ) ;
#65 = AXIS2_PLACEMENT_3D ( 'NONE', #170, #96, #198 ) ;
#66 = EDGE_LOOP ( 'NONE', ( #187, #153, #288, #122 ) ) ;
#67 = CARTESIAN_POINT ( 'NONE',  ( 0.0000000000000000000, 0.0000000000000000000, 1.984999999999999654 ) ) ;
#68 = ORIENTED_EDGE ( 'NONE', *, *, #200, .T. ) ;
#69 = FILL_AREA_STYLE_COLOUR ( '', #204 ) ;
#70 = DIRECTION ( 'NONE',  ( 1.000000000000000000, 0.0000000000000000000, -0.0000000000000000000 ) ) ;
#71 = DIRECTION ( 'NONE',  ( 1.224646799147353207E-16, 0.0000000000000000000, 1.000000000000000000 ) ) ;
#72 = UNCERTAINTY_MEASURE_WITH_UNIT (LENGTH_MEASURE( 1.000000000000000082E-05 ), #74, 'distance_accuracy_value', 'NONE');
#73 = VECTOR ( 'NONE', #270, 39.37007874015748143 ) ;
#74 =( CONVERSION_BASED_UNIT ( 'INCH', #145 ) LENGTH_UNIT ( ) NAMED_UNIT ( #236 ) );
#75 = ORIENTED_EDGE ( 'NONE', *, *, #184, .F. ) ;
#76 = PRODUCT_DEFINITION_SHAPE ( 'NONE', 'NONE',  #45 ) ;
#77 = LENGTH_MEASURE_WITH_UNIT ( LENGTH_MEASURE( 0.02539999999999999897 ), #279 );
#78 = DIRECTION ( 'NONE',  ( -0.0000000000000000000, -0.0000000000000000000, -1.000000000000000000 ) ) ;
#79 = FACE_OUTER_BOUND ( 'NONE', #280, .T. ) ;
#80 = CIRCLE ( 'NONE', #123, 0.09375000000000001388 ) ;
#81 = VERTEX_POINT ( 'NONE', #90 ) ;
#82 = LINE ( 'NONE', #272, #59 ) ;
#83 = ADVANCED_FACE ( 'NONE', ( #44 ), #117, .T. ) ;
#84 = ORIENTED_EDGE ( 'NONE', *, *, #277, .F. ) ;
#85 = EDGE_CURVE ( 'NONE', #181, #4, #80, .T. ) ;
#86 = EDGE_LOOP ( 'NONE', ( #68, #26 ) ) ;
#87 = AXIS2_PLACEMENT_3D ( 'NONE', #11, #56, #253 ) ;
#88 = FACE_OUTER_BOUND ( 'NONE', #140, .T. ) ;
#89 = PRODUCT_DEFINITION_CONTEXT ( 'detailed design', #163, 'design' ) ;
#90 = CARTESIAN_POINT ( 'NONE',  ( -0.07802190000000000514, 0.0000000000000000000, 1.910985401967897770E-17 ) ) ;
#91 = DIRECTION ( 'NONE',  ( 0.0000000000000000000, 0.0000000000000000000, 1.000000000000000000 ) ) ;
#92 = ORIENTED_EDGE ( 'NONE', *, *, #128, .T. ) ;
#93 = AXIS2_PLACEMENT_3D ( 'NONE', #177, #174, #241 ) ;
#94 = ADVANCED_FACE ( 'NONE', ( #203 ), #61, .T. ) ;
#95 =( NAMED_UNIT ( * ) PLANE_ANGLE_UNIT ( ) SI_UNIT ( $, .RADIAN. ) );
#96 = DIRECTION ( 'NONE',  ( -1.224646799147353207E-16, -0.0000000000000000000, -1.000000000000000000 ) ) ;
#97 = AXIS2_PLACEMENT_3D ( 'NONE', #98, #158, #205 ) ;
#98 = CARTESIAN_POINT ( 'NONE',  ( 1.170141077868652023E-33, 0.0000000000000000000, 9.554927009839488851E-18 ) ) ;
#99 = PRODUCT ( 'Micro_GEM-156-3X', 'Micro_GEM-156-3X', '', ( #224 ) ) ;
#100 =( LENGTH_UNIT ( ) NAMED_UNIT ( * ) SI_UNIT ( $, .METRE. ) );
#101 = AXIS2_PLACEMENT_3D ( 'NONE', #67, #119, #243 ) ;
#102 = EDGE_CURVE ( 'NONE', #181, #60, #20, .T. ) ;
#103 = CARTESIAN_POINT ( 'NONE',  ( 0.0000000000000000000, 0.0000000000000000000, 2.000000000000000000 ) ) ;
#104 =( GEOMETRIC_REPRESENTATION_CONTEXT ( 3 ) GLOBAL_UNCERTAINTY_ASSIGNED_CONTEXT ( ( #108 ) ) GLOBAL_UNIT_ASSIGNED_CONTEXT ( ( #249, #130, #201 ) ) REPRESENTATION_CONTEXT ( 'NONE', 'WORKASPACE' ) );
#105 = VERTEX_POINT ( 'NONE', #298 ) ;
#106 = CARTESIAN_POINT ( 'NONE',  ( -0.09375000000000001388, 0.0000000000000000000, 2.000000000000000000 ) ) ;
#107 = VERTEX_POINT ( 'NONE', #259 ) ;
#108 = UNCERTAINTY_MEASURE_WITH_UNIT (LENGTH_MEASURE( 1.000000000000000082E-05 ), #249, 'distance_accuracy_value', 'NONE');
#109 = DIRECTION ( 'NONE',  ( 1.000000000000000000, 0.0000000000000000000, 0.0000000000000000000 ) ) ;
#110 = CARTESIAN_POINT ( 'NONE',  ( 0.07874999999999980627, 9.644093543285380530E-18, 2.000000000000000000 ) ) ;
#111 = DIRECTION ( 'NONE',  ( 0.1736481776669313304, 0.0000000000000000000, 0.9848077530122077983 ) ) ;
#112 = AXIS2_PLACEMENT_3D ( 'NONE', #186, #63, #157 ) ;
#113 = CARTESIAN_POINT ( 'NONE',  ( 0.0000000000000000000, 0.0000000000000000000, 0.0000000000000000000 ) ) ;
#114 = SURFACE_STYLE_FILL_AREA ( #5 ) ;
#115 = UNCERTAINTY_MEASURE_WITH_UNIT (LENGTH_MEASURE( 1.000000000000000082E-05 ), #126, 'distance_accuracy_value', 'NONE');
#116 = CARTESIAN_POINT ( 'NONE',  ( 1.170141077868652023E-33, 0.0000000000000000000, 9.554927009839488851E-18 ) ) ;
#117 = CYLINDRICAL_SURFACE ( 'NONE', #58, 0.07802190000000000514 ) ;
#118 = ORIENTED_EDGE ( 'NONE', *, *, #290, .T. ) ;
#119 = DIRECTION ( 'NONE',  ( 0.0000000000000000000, 0.0000000000000000000, -1.000000000000000000 ) ) ;
#120 = DIRECTION ( 'NONE',  ( -1.000000000000000000, 0.0000000000000000000, 1.224646799147353207E-16 ) ) ;
#121 = DIRECTION ( 'NONE',  ( -0.0000000000000000000, -0.0000000000000000000, -1.000000000000000000 ) ) ;
#122 = ORIENTED_EDGE ( 'NONE', *, *, #148, .F. ) ;
#123 = AXIS2_PLACEMENT_3D ( 'NONE', #32, #134, #14 ) ;
#124 = AXIS2_PLACEMENT_3D ( 'NONE', #103, #78, #294 ) ;
#125 = ORIENTED_EDGE ( 'NONE', *, *, #136, .F. ) ;
#126 =( CONVERSION_BASED_UNIT ( 'INCH', #77 ) LENGTH_UNIT ( ) NAMED_UNIT ( #237 ) );
#127 = CONICAL_SURFACE ( 'NONE', #8, 0.07802190000000000514, 0.1745329251994338360 ) ;
#128 = EDGE_CURVE ( 'NONE', #185, #60, #155, .T. ) ;
#129 = CARTESIAN_POINT ( 'NONE',  ( 0.09375000000000009714, 1.148106374200644787E-17, 0.6521984875871288390 ) ) ;
#130 =( NAMED_UNIT ( * ) PLANE_ANGLE_UNIT ( ) SI_UNIT ( $, .RADIAN. ) );
#131 = EDGE_CURVE ( 'NONE', #4, #181, #291, .T. ) ;
#132 = CARTESIAN_POINT ( 'NONE',  ( 0.07802190000000000514, 9.554927009839488851E-18, 0.0000000000000000000 ) ) ;
#133 = FILL_AREA_STYLE_COLOUR ( '', #24 ) ;
#134 = DIRECTION ( 'NONE',  ( 0.0000000000000000000, 0.0000000000000000000, -1.000000000000000000 ) ) ;
#135 = ORIENTED_EDGE ( 'NONE', *, *, #23, .F. ) ;
#136 = EDGE_CURVE ( 'NONE', #41, #144, #226, .T. ) ;
#137 = SURFACE_STYLE_USAGE ( .BOTH. , #36 ) ;
#138 = DIRECTION ( 'NONE',  ( 1.000000000000000000, 0.0000000000000000000, -0.0000000000000000000 ) ) ;
#139 = AXIS2_PLACEMENT_3D ( 'NONE', #215, #197, #289 ) ;
#140 = EDGE_LOOP ( 'NONE', ( #193, #299, #43, #64 ) ) ;
#141 = ORIENTED_EDGE ( 'NONE', *, *, #128, .F. ) ;
#142 = DIRECTION ( 'NONE',  ( -1.224646799147353207E-16, -0.0000000000000000000, -1.000000000000000000 ) ) ;
#143 = CARTESIAN_POINT ( 'NONE',  ( 0.0000000000000000000, 0.0000000000000000000, 2.000000000000000000 ) ) ;
#144 = VERTEX_POINT ( 'NONE', #176 ) ;
#145 = LENGTH_MEASURE_WITH_UNIT ( LENGTH_MEASURE( 0.02539999999999999897 ), #284 );
#146 = VECTOR ( 'NONE', #207, 39.37007874015748143 ) ;
#147 = VECTOR ( 'NONE', #162, 39.37007874015747433 ) ;
#148 = EDGE_CURVE ( 'NONE', #107, #81, #10, .T. ) ;
#149 = DIRECTION ( 'NONE',  ( 1.000000000000000000, 0.0000000000000000000, 0.0000000000000000000 ) ) ;
#150 = DIMENSIONAL_EXPONENTS ( 1.000000000000000000, 0.0000000000000000000, 0.0000000000000000000, 0.0000000000000000000, 0.0000000000000000000, 0.0000000000000000000, 0.0000000000000000000 ) ;
#151 = DIRECTION ( 'NONE',  ( -0.0000000000000000000, -0.0000000000000000000, -1.000000000000000000 ) ) ;
#152 = MECHANICAL_DESIGN_GEOMETRIC_PRESENTATION_REPRESENTATION (  '', ( #191 ), #231 ) ;
#153 = ORIENTED_EDGE ( 'NONE', *, *, #189, .T. ) ;
#154 = MANIFOLD_SOLID_BREP ( 'Cut-Revolve1', #29 ) ;
#155 = CIRCLE ( 'NONE', #240, 0.09375000000000001388 ) ;
#156 = CIRCLE ( 'NONE', #33, 0.07874999999999980627 ) ;
#157 = DIRECTION ( 'NONE',  ( -1.000000000000000000, 0.0000000000000000000, 1.224646799147353207E-16 ) ) ;
#158 = DIRECTION ( 'NONE',  ( -1.224646799147353207E-16, -0.0000000000000000000, -1.000000000000000000 ) ) ;
#159 = PRESENTATION_LAYER_ASSIGNMENT (  '', '', ( #246 ) ) ;
#160 = ADVANCED_FACE ( 'NONE', ( #180 ), #292, .T. ) ;
#161 = CARTESIAN_POINT ( 'NONE',  ( 0.0000000000000000000, 0.0000000000000000000, 2.000000000000000000 ) ) ;
#162 = DIRECTION ( 'NONE',  ( -0.1736481776669311639, 2.126576849575782392E-17, 0.9848077530122080203 ) ) ;
#163 = APPLICATION_CONTEXT ( 'automotive_design' ) ;
#164 = VERTEX_POINT ( 'NONE', #132 ) ;
#165 = DIRECTION ( 'NONE',  ( 0.0000000000000000000, 0.0000000000000000000, 1.000000000000000000 ) ) ;
#166 = ORIENTED_EDGE ( 'NONE', *, *, #290, .F. ) ;
#167 = EDGE_CURVE ( 'NONE', #107, #105, #251, .T. ) ;
#168 =( NAMED_UNIT ( * ) PLANE_ANGLE_UNIT ( ) SI_UNIT ( $, .RADIAN. ) );
#169 = DIRECTION ( 'NONE',  ( -1.000000000000000000, 0.0000000000000000000, 0.0000000000000000000 ) ) ;
#170 = CARTESIAN_POINT ( 'NONE',  ( 7.987127902323220081E-17, 0.0000000000000000000, 0.6521984875871288390 ) ) ;
#171 = DIRECTION ( 'NONE',  ( 0.7071067811865463515, 8.659560562354916834E-17, -0.7071067811865486830 ) ) ;
#172 = SURFACE_STYLE_USAGE ( .BOTH. , #212 ) ;
#173 = DIRECTION ( 'NONE',  ( -1.224646799147353207E-16, -0.0000000000000000000, -1.000000000000000000 ) ) ;
#174 = DIRECTION ( 'NONE',  ( 0.0000000000000000000, 0.0000000000000000000, 1.000000000000000000 ) ) ;
#175 = CARTESIAN_POINT ( 'NONE',  ( 0.0000000000000000000, 0.0000000000000000000, 2.000000000000000000 ) ) ;
#176 = CARTESIAN_POINT ( 'NONE',  ( 0.07874999999999980627, 1.056257864264590573E-17, 2.000000000000000000 ) ) ;
#177 = CARTESIAN_POINT ( 'NONE',  ( 0.0000000000000000000, 0.0000000000000000000, 0.0000000000000000000 ) ) ;
#178 = CIRCLE ( 'NONE', #65, 0.09375000000000001388 ) ;
#179 = CARTESIAN_POINT ( 'NONE',  ( 6.894761479199598081E-17, 0.0000000000000000000, 0.5629999999999999449 ) ) ;
#180 = FACE_OUTER_BOUND ( 'NONE', #28, .T. ) ;
#181 = VERTEX_POINT ( 'NONE', #256 ) ;
#182 = CONICAL_SURFACE ( 'NONE', #46, 0.07874999999999980627, 0.7853981633974466137 ) ;
#183 = DIRECTION ( 'NONE',  ( -1.224646799147353207E-16, -0.0000000000000000000, -1.000000000000000000 ) ) ;
#184 = EDGE_CURVE ( 'NONE', #105, #107, #275, .T. ) ;
#185 = VERTEX_POINT ( 'NONE', #129 ) ;
#186 = CARTESIAN_POINT ( 'NONE',  ( 0.0000000000000000000, 0.0000000000000000000, 0.0000000000000000000 ) ) ;
#187 = ORIENTED_EDGE ( 'NONE', *, *, #167, .T. ) ;
#188 = EDGE_LOOP ( 'NONE', ( #40, #3 ) ) ;
#189 = EDGE_CURVE ( 'NONE', #105, #164, #82, .T. ) ;
#190 = EDGE_CURVE ( 'NONE', #144, #41, #156, .T. ) ;
#191 = STYLED_ITEM ( 'NONE', ( #49 ), #269 ) ;
#192 = ORIENTED_EDGE ( 'NONE', *, *, #131, .T. ) ;
#193 = ORIENTED_EDGE ( 'NONE', *, *, #167, .F. ) ;
#194 = ORIENTED_EDGE ( 'NONE', *, *, #184, .T. ) ;
#195 = CARTESIAN_POINT ( 'NONE',  ( 0.07802190000000007453, 0.0000000000000000000, 0.5629999999999999449 ) ) ;
#196 = DIRECTION ( 'NONE',  ( 0.0000000000000000000, 0.0000000000000000000, -1.000000000000000000 ) ) ;
#197 = DIRECTION ( 'NONE',  ( 0.0000000000000000000, 0.0000000000000000000, 1.000000000000000000 ) ) ;
#198 = DIRECTION ( 'NONE',  ( 1.000000000000000000, 0.0000000000000000000, 0.0000000000000000000 ) ) ;
#199 = VECTOR ( 'NONE', #111, 39.37007874015748143 ) ;
#200 = EDGE_CURVE ( 'NONE', #81, #164, #281, .T. ) ;
#201 =( NAMED_UNIT ( * ) SI_UNIT ( $, .STERADIAN. ) SOLID_ANGLE_UNIT ( ) );
#202 = ADVANCED_FACE ( 'NONE', ( #228 ), #254, .T. ) ;
#203 = FACE_OUTER_BOUND ( 'NONE', #188, .T. ) ;
#204 = COLOUR_RGB ( '',0.7921568627450980005, 0.8196078431372548767, 0.9333333333333333481 ) ;
#205 = DIRECTION ( 'NONE',  ( -1.000000000000000000, 0.0000000000000000000, 1.224646799147353207E-16 ) ) ;
#206 = EDGE_LOOP ( 'NONE', ( #214, #118, #297, #263 ) ) ;
#207 = DIRECTION ( 'NONE',  ( -0.0000000000000000000, -0.0000000000000000000, -1.000000000000000000 ) ) ;
#208 = ORIENTED_EDGE ( 'NONE', *, *, #131, .F. ) ;
#209 = LINE ( 'NONE', #110, #223 ) ;
#210 = MECHANICAL_DESIGN_GEOMETRIC_PRESENTATION_REPRESENTATION (  '', ( #246 ), #104 ) ;
#211 = CARTESIAN_POINT ( 'NONE',  ( -0.07874999999999980627, 0.0000000000000000000, 2.000000000000000000 ) ) ;
#212 = SURFACE_SIDE_STYLE ('',( #286 ) ) ;
#213 = CARTESIAN_POINT ( 'NONE',  ( 0.0000000000000000000, 0.0000000000000000000, 0.0000000000000000000 ) ) ;
#214 = ORIENTED_EDGE ( 'NONE', *, *, #190, .F. ) ;
#215 = CARTESIAN_POINT ( 'NONE',  ( 0.0000000000000000000, 0.0000000000000000000, 2.000000000000000000 ) ) ;
#216 =( NAMED_UNIT ( * ) SI_UNIT ( $, .STERADIAN. ) SOLID_ANGLE_UNIT ( ) );
#217 = VECTOR ( 'NONE', #151, 39.37007874015748143 ) ;
#218 = AXIS2_PLACEMENT_3D ( 'NONE', #35, #230, #16 ) ;
#219 = DIRECTION ( 'NONE',  ( -1.000000000000000000, 0.0000000000000000000, 0.0000000000000000000 ) ) ;
#220 = ADVANCED_FACE ( 'NONE', ( #79 ), #262, .T. ) ;
#221 = APPLICATION_PROTOCOL_DEFINITION ( 'draft international standard', 'automotive_design', 1998, #163 ) ;
#222 = AXIS2_PLACEMENT_3D ( 'NONE', #143, #121, #169 ) ;
#223 = VECTOR ( 'NONE', #171, 39.37007874015748143 ) ;
#224 = PRODUCT_CONTEXT ( 'NONE', #267, 'mechanical' ) ;
#225 = DIRECTION ( 'NONE',  ( 0.0000000000000000000, 0.0000000000000000000, 1.000000000000000000 ) ) ;
#226 = CIRCLE ( 'NONE', #139, 0.07874999999999980627 ) ;
#227 = CARTESIAN_POINT ( 'NONE',  ( 0.0000000000000000000, 0.0000000000000000000, 2.000000000000000000 ) ) ;
#228 = FACE_OUTER_BOUND ( 'NONE', #25, .T. ) ;
#229 = ORIENTED_EDGE ( 'NONE', *, *, #54, .T. ) ;
#230 = DIRECTION ( 'NONE',  ( 0.0000000000000000000, 0.0000000000000000000, -1.000000000000000000 ) ) ;
#231 =( GEOMETRIC_REPRESENTATION_CONTEXT ( 3 ) GLOBAL_UNCERTAINTY_ASSIGNED_CONTEXT ( ( #115 ) ) GLOBAL_UNIT_ASSIGNED_CONTEXT ( ( #126, #95, #247 ) ) REPRESENTATION_CONTEXT ( 'NONE', 'WORKASPACE' ) );
#232 = EDGE_LOOP ( 'NONE', ( #282, #194, #283, #84 ) ) ;
#233 = FACE_OUTER_BOUND ( 'NONE', #22, .T. ) ;
#234 = ORIENTED_EDGE ( 'NONE', *, *, #102, .T. ) ;
#235 = CARTESIAN_POINT ( 'NONE',  ( 7.987127902323220081E-17, 0.0000000000000000000, 0.6521984875871288390 ) ) ;
#236 = DIMENSIONAL_EXPONENTS ( 1.000000000000000000, 0.0000000000000000000, 0.0000000000000000000, 0.0000000000000000000, 0.0000000000000000000, 0.0000000000000000000, 0.0000000000000000000 ) ;
#237 = DIMENSIONAL_EXPONENTS ( 1.000000000000000000, 0.0000000000000000000, 0.0000000000000000000, 0.0000000000000000000, 0.0000000000000000000, 0.0000000000000000000, 0.0000000000000000000 ) ;
#238 = FACE_OUTER_BOUND ( 'NONE', #206, .T. ) ;
#239 = EDGE_CURVE ( 'NONE', #107, #60, #55, .T. ) ;
#240 = AXIS2_PLACEMENT_3D ( 'NONE', #235, #285, #149 ) ;
#241 = DIRECTION ( 'NONE',  ( 1.000000000000000000, 0.0000000000000000000, 0.0000000000000000000 ) ) ;
#242 = PLANE ( 'NONE',  #18 ) ;
#243 = DIRECTION ( 'NONE',  ( 1.000000000000000000, 0.0000000000000000000, 0.0000000000000000000 ) ) ;
#244 = ADVANCED_FACE ( 'NONE', ( #39 ), #296, .T. ) ;
#245 = VECTOR ( 'NONE', #265, 39.37007874015748143 ) ;
#246 = STYLED_ITEM ( 'NONE', ( #248 ), #154 ) ;
#247 =( NAMED_UNIT ( * ) SI_UNIT ( $, .STERADIAN. ) SOLID_ANGLE_UNIT ( ) );
#248 = PRESENTATION_STYLE_ASSIGNMENT (( #137 ) ) ;
#249 =( CONVERSION_BASED_UNIT ( 'INCH', #293 ) LENGTH_UNIT ( ) NAMED_UNIT ( #150 ) );
#250 = ADVANCED_FACE ( 'NONE', ( #88 ), #127, .T. ) ;
#251 = CIRCLE ( 'NONE', #287, 0.07802190000000000514 ) ;
#252 = CARTESIAN_POINT ( 'NONE',  ( -0.07802190000000000514, 0.0000000000000000000, 9.554927009839488851E-18 ) ) ;
#253 = DIRECTION ( 'NONE',  ( -1.000000000000000000, 0.0000000000000000000, 0.0000000000000000000 ) ) ;
#254 = CYLINDRICAL_SURFACE ( 'NONE', #124, 0.09375000000000001388 ) ;
#255 = ORIENTED_EDGE ( 'NONE', *, *, #85, .T. ) ;
#256 = CARTESIAN_POINT ( 'NONE',  ( -0.09375000000000001388, 0.0000000000000000000, 1.984999999999999654 ) ) ;
#257 = PRODUCT_DEFINITION_FORMATION_WITH_SPECIFIED_SOURCE ( 'ANY', '', #99, .NOT_KNOWN. ) ;
#258 = ORIENTED_EDGE ( 'NONE', *, *, #48, .F. ) ;
#259 = CARTESIAN_POINT ( 'NONE',  ( -0.07802189999999993575, 1.051799537592296220E-17, 0.5629999999999999449 ) ) ;
#260 = FILL_AREA_STYLE ('',( #69 ) ) ;
#261 = CARTESIAN_POINT ( 'NONE',  ( 0.09375000000000001388, 1.148106374200643863E-17, 1.984999999999999654 ) ) ;
#262 = CONICAL_SURFACE ( 'NONE', #268, 0.07802190000000000514, 0.1745329251994338360 ) ;
#263 = ORIENTED_EDGE ( 'NONE', *, *, #17, .F. ) ;
#264 = ORIENTED_EDGE ( 'NONE', *, *, #102, .F. ) ;
#265 = DIRECTION ( 'NONE',  ( -0.7071067811865463515, 0.0000000000000000000, -0.7071067811865486830 ) ) ;
#266 = CARTESIAN_POINT ( 'NONE',  ( -0.07874999999999980627, 0.0000000000000000000, 2.000000000000000000 ) ) ;
#267 = APPLICATION_CONTEXT ( 'automotive_design' ) ;
#268 = AXIS2_PLACEMENT_3D ( 'NONE', #179, #57, #15 ) ;
#269 = ADVANCED_BREP_SHAPE_REPRESENTATION ( 'Micro_GEM-156-3X', ( #154, #93 ), #295 ) ;
#270 = DIRECTION ( 'NONE',  ( -1.224646799147353207E-16, -0.0000000000000000000, -1.000000000000000000 ) ) ;
#271 = DIRECTION ( 'NONE',  ( -1.000000000000000000, 0.0000000000000000000, 0.0000000000000000000 ) ) ;
#272 = CARTESIAN_POINT ( 'NONE',  ( 0.07802190000000000514, 9.554927009839488851E-18, -9.554927009839488851E-18 ) ) ;
#273 = AXIS2_PLACEMENT_3D ( 'NONE', #161, #165, #138 ) ;
#274 = ORIENTED_EDGE ( 'NONE', *, *, #239, .F. ) ;
#275 = CIRCLE ( 'NONE', #87, 0.07802190000000000514 ) ;
#276 = DIRECTION ( 'NONE',  ( -1.224646799147353207E-16, -0.0000000000000000000, -1.000000000000000000 ) ) ;
#277 = EDGE_CURVE ( 'NONE', #164, #81, #12, .T. ) ;
#278 = CARTESIAN_POINT ( 'NONE',  ( 6.894761479199598081E-17, 0.0000000000000000000, 0.5629999999999999449 ) ) ;
#279 =( LENGTH_UNIT ( ) NAMED_UNIT ( * ) SI_UNIT ( $, .METRE. ) );
#280 = EDGE_LOOP ( 'NONE', ( #274, #75, #229, #92 ) ) ;
#281 = CIRCLE ( 'NONE', #97, 0.07802190000000000514 ) ;
#282 = ORIENTED_EDGE ( 'NONE', *, *, #189, .F. ) ;
#283 = ORIENTED_EDGE ( 'NONE', *, *, #148, .T. ) ;
#284 =( LENGTH_UNIT ( ) NAMED_UNIT ( * ) SI_UNIT ( $, .METRE. ) );
#285 = DIRECTION ( 'NONE',  ( -1.224646799147353207E-16, -0.0000000000000000000, -1.000000000000000000 ) ) ;
#286 = SURFACE_STYLE_FILL_AREA ( #260 ) ;
#287 = AXIS2_PLACEMENT_3D ( 'NONE', #278, #183, #271 ) ;
#288 = ORIENTED_EDGE ( 'NONE', *, *, #200, .F. ) ;
#289 = DIRECTION ( 'NONE',  ( 1.000000000000000000, 0.0000000000000000000, 0.0000000000000000000 ) ) ;
#290 = EDGE_CURVE ( 'NONE', #144, #4, #209, .T. ) ;
#291 = CIRCLE ( 'NONE', #101, 0.09375000000000001388 ) ;
#292 = CONICAL_SURFACE ( 'NONE', #218, 0.07874999999999980627, 0.7853981633974466137 ) ;
#293 = LENGTH_MEASURE_WITH_UNIT ( LENGTH_MEASURE( 0.02539999999999999897 ), #100 );
#294 = DIRECTION ( 'NONE',  ( -1.000000000000000000, 0.0000000000000000000, 0.0000000000000000000 ) ) ;
#295 =( GEOMETRIC_REPRESENTATION_CONTEXT ( 3 ) GLOBAL_UNCERTAINTY_ASSIGNED_CONTEXT ( ( #72 ) ) GLOBAL_UNIT_ASSIGNED_CONTEXT ( ( #74, #168, #216 ) ) REPRESENTATION_CONTEXT ( 'NONE', 'WORKASPACE' ) );
#296 = CYLINDRICAL_SURFACE ( 'NONE', #112, 0.07802190000000000514 ) ;
#297 = ORIENTED_EDGE ( 'NONE', *, *, #85, .F. ) ;
#298 = CARTESIAN_POINT ( 'NONE',  ( 0.07802190000000007453, 0.0000000000000000000, 0.5629999999999999449 ) ) ;
#299 = ORIENTED_EDGE ( 'NONE', *, *, #239, .T. ) ;
ENDSEC;
END-ISO-10303-21;
