ISO-10303-21;
HEADER;
FILE_DESCRIPTION (( 'STEP AP214' ),
    '1' );
FILE_NAME ('Micro_SFPM-020-40.STEP',
    '2021-09-02T06:41:08',
    ( '' ),
    ( '' ),
    'SwSTEP 2.0',
    'SolidWorks 2020',
    '' );
FILE_SCHEMA (( 'AUTOMOTIVE_DESIGN' ));
ENDSEC;

DATA;
#1 = PRESENTATION_LAYER_ASSIGNMENT (  '', '', ( #202 ) ) ;
#2 = LINE ( 'NONE', #162, #130 ) ;
#3 = DIRECTION ( 'NONE',  ( -1.000000000000000000, 0.0000000000000000000, 1.224646799147352961E-16 ) ) ;
#4 = ADVANCED_FACE ( 'NONE', ( #131 ), #173, .T. ) ;
#5 = FACE_OUTER_BOUND ( 'NONE', #178, .T. ) ;
#6 = VERTEX_POINT ( 'NONE', #18 ) ;
#7 = EDGE_CURVE ( 'NONE', #261, #228, #215, .T. ) ;
#8 = EDGE_LOOP ( 'NONE', ( #13, #42, #85, #66 ) ) ;
#9 = DIRECTION ( 'NONE',  ( 0.0000000000000000000, 0.0000000000000000000, -1.000000000000000000 ) ) ;
#10 = VECTOR ( 'NONE', #229, 39.37007874015748143 ) ;
#11 =( GEOMETRIC_REPRESENTATION_CONTEXT ( 3 ) GLOBAL_UNCERTAINTY_ASSIGNED_CONTEXT ( ( #106 ) ) GLOBAL_UNIT_ASSIGNED_CONTEXT ( ( #56, #213, #281 ) ) REPRESENTATION_CONTEXT ( 'NONE', 'WORKASPACE' ) );
#12 =( CONVERSION_BASED_UNIT ( 'INCH', #83 ) LENGTH_UNIT ( ) NAMED_UNIT ( #233 ) );
#13 = ORIENTED_EDGE ( 'NONE', *, *, #82, .F. ) ;
#14 = LINE ( 'NONE', #155, #149 ) ;
#15 = CIRCLE ( 'NONE', #253, 0.03933062999999999837 ) ;
#16 = DIRECTION ( 'NONE',  ( -1.000000000000000000, 0.0000000000000000000, 1.224646799147352961E-16 ) ) ;
#17 = MECHANICAL_DESIGN_GEOMETRIC_PRESENTATION_REPRESENTATION (  '', ( #202 ), #248 ) ;
#18 = CARTESIAN_POINT ( 'NONE',  ( -0.03933062999999992898, 6.024382343079789657E-18, 0.5511810000000000320 ) ) ;
#19 = FACE_OUTER_BOUND ( 'NONE', #129, .T. ) ;
#20 = ORIENTED_EDGE ( 'NONE', *, *, #292, .F. ) ;
#21 = FACE_OUTER_BOUND ( 'NONE', #269, .T. ) ;
#22 = PRODUCT_RELATED_PRODUCT_CATEGORY ( 'part', '', ( #197 ) ) ;
#23 = AXIS2_PLACEMENT_3D ( 'NONE', #35, #164, #186 ) ;
#24 = CARTESIAN_POINT ( 'NONE',  ( 0.03933062999999999837, 4.816613013794885432E-18, 0.0000000000000000000 ) ) ;
#25 = DIRECTION ( 'NONE',  ( 1.224646799147353207E-16, 0.0000000000000000000, 1.000000000000000000 ) ) ;
#26 = CYLINDRICAL_SURFACE ( 'NONE', #115, 0.05905500000000001720 ) ;
#27 = CONICAL_SURFACE ( 'NONE', #257, 0.04405499999999960142, 0.7853981633974355114 ) ;
#28 = AXIS2_PLACEMENT_3D ( 'NONE', #79, #9, #58 ) ;
#29 = DIRECTION ( 'NONE',  ( -0.7071067811865384689, 0.0000000000000000000, -0.7071067811865565655 ) ) ;
#30 = UNCERTAINTY_MEASURE_WITH_UNIT (LENGTH_MEASURE( 1.000000000000000082E-05 ), #122, 'distance_accuracy_value', 'NONE');
#31 = FILL_AREA_STYLE_COLOUR ( '', #49 ) ;
#32 = LENGTH_MEASURE_WITH_UNIT ( LENGTH_MEASURE( 0.02539999999999999897 ), #81 );
#33 = EDGE_CURVE ( 'NONE', #6, #156, #63, .T. ) ;
#34 = DIRECTION ( 'NONE',  ( 0.0000000000000000000, 0.0000000000000000000, 1.000000000000000000 ) ) ;
#35 = CARTESIAN_POINT ( 'NONE',  ( 5.898649710075393742E-34, 0.0000000000000000000, 4.816613013794885432E-18 ) ) ;
#36 = VECTOR ( 'NONE', #169, 39.37007874015748143 ) ;
#37 = CARTESIAN_POINT ( 'NONE',  ( 0.0000000000000000000, 0.0000000000000000000, 2.952755999999999936 ) ) ;
#38 = VERTEX_POINT ( 'NONE', #150 ) ;
#39 = DIRECTION ( 'NONE',  ( 0.0000000000000000000, 0.0000000000000000000, -1.000000000000000000 ) ) ;
#40 = CIRCLE ( 'NONE', #77, 0.05905500000000001720 ) ;
#41 = ORIENTED_EDGE ( 'NONE', *, *, #255, .T. ) ;
#42 = ORIENTED_EDGE ( 'NONE', *, *, #70, .F. ) ;
#43 = DIRECTION ( 'NONE',  ( 1.000000000000000000, 0.0000000000000000000, 0.0000000000000000000 ) ) ;
#44 = ORIENTED_EDGE ( 'NONE', *, *, #272, .T. ) ;
#45 = CARTESIAN_POINT ( 'NONE',  ( 0.04405499999999960142, 6.313666573004155588E-18, 2.952755999999999936 ) ) ;
#46 = CARTESIAN_POINT ( 'NONE',  ( 0.05905500000000001720, 7.232151672364695422E-18, 2.952755999999999936 ) ) ;
#47 = EDGE_CURVE ( 'NONE', #243, #62, #259, .T. ) ;
#48 = AXIS2_PLACEMENT_3D ( 'NONE', #285, #67, #16 ) ;
#49 = COLOUR_RGB ( '',0.7921568627450980005, 0.8196078431372548767, 0.9333333333333333481 ) ;
#50 = FACE_OUTER_BOUND ( 'NONE', #138, .T. ) ;
#51 = ORIENTED_EDGE ( 'NONE', *, *, #33, .T. ) ;
#52 = LINE ( 'NONE', #274, #124 ) ;
#53 = CARTESIAN_POINT ( 'NONE',  ( 0.03933063000000006082, 0.0000000000000000000, 0.5511810000000000320 ) ) ;
#54 = AXIS2_PLACEMENT_3D ( 'NONE', #203, #230, #185 ) ;
#55 = ADVANCED_BREP_SHAPE_REPRESENTATION ( 'Micro_SFPM-020-40', ( #295, #284 ), #11 ) ;
#56 =( CONVERSION_BASED_UNIT ( 'INCH', #32 ) LENGTH_UNIT ( ) NAMED_UNIT ( #148 ) );
#57 = PRESENTATION_LAYER_ASSIGNMENT (  '', '', ( #170 ) ) ;
#58 = DIRECTION ( 'NONE',  ( 1.000000000000000000, 0.0000000000000000000, 0.0000000000000000000 ) ) ;
#59 = FILL_AREA_STYLE_COLOUR ( '', #188 ) ;
#60 = DIRECTION ( 'NONE',  ( 1.000000000000000000, 0.0000000000000000000, 0.0000000000000000000 ) ) ;
#61 = APPLICATION_CONTEXT ( 'automotive_design' ) ;
#62 = VERTEX_POINT ( 'NONE', #111 ) ;
#63 = LINE ( 'NONE', #113, #36 ) ;
#64 = ADVANCED_FACE ( 'NONE', ( #223 ), #27, .T. ) ;
#65 = ORIENTED_EDGE ( 'NONE', *, *, #165, .F. ) ;
#66 = ORIENTED_EDGE ( 'NONE', *, *, #194, .T. ) ;
#67 = DIRECTION ( 'NONE',  ( -1.224646799147353207E-16, -0.0000000000000000000, -1.000000000000000000 ) ) ;
#68 = ORIENTED_EDGE ( 'NONE', *, *, #194, .F. ) ;
#69 = EDGE_LOOP ( 'NONE', ( #290, #226, #51, #237 ) ) ;
#70 = EDGE_CURVE ( 'NONE', #105, #6, #211, .T. ) ;
#71 = CARTESIAN_POINT ( 'NONE',  ( 0.05905500000000010741, 7.232151672364707748E-18, 0.6630434609844124694 ) ) ;
#72 = ORIENTED_EDGE ( 'NONE', *, *, #168, .T. ) ;
#73 = DIRECTION ( 'NONE',  ( 0.0000000000000000000, 0.0000000000000000000, -1.000000000000000000 ) ) ;
#74 = CIRCLE ( 'NONE', #201, 0.05905500000000001720 ) ;
#75 = FACE_OUTER_BOUND ( 'NONE', #265, .T. ) ;
#76 = DIRECTION ( 'NONE',  ( -1.224646799147353207E-16, -0.0000000000000000000, -1.000000000000000000 ) ) ;
#77 = AXIS2_PLACEMENT_3D ( 'NONE', #297, #73, #249 ) ;
#78 = PRODUCT_DEFINITION_FORMATION_WITH_SPECIFIED_SOURCE ( 'ANY', '', #197, .NOT_KNOWN. ) ;
#79 = CARTESIAN_POINT ( 'NONE',  ( 0.0000000000000000000, 0.0000000000000000000, 2.937755999999999368 ) ) ;
#80 = SURFACE_STYLE_FILL_AREA ( #189 ) ;
#81 =( LENGTH_UNIT ( ) NAMED_UNIT ( * ) SI_UNIT ( $, .METRE. ) );
#82 = EDGE_CURVE ( 'NONE', #6, #62, #14, .T. ) ;
#83 = LENGTH_MEASURE_WITH_UNIT ( LENGTH_MEASURE( 0.02539999999999999897 ), #99 );
#84 = DIRECTION ( 'NONE',  ( 0.0000000000000000000, 0.0000000000000000000, 1.000000000000000000 ) ) ;
#85 = ORIENTED_EDGE ( 'NONE', *, *, #250, .T. ) ;
#86 = ORIENTED_EDGE ( 'NONE', *, *, #250, .F. ) ;
#87 = DIRECTION ( 'NONE',  ( -0.1736481776669311639, 2.126576849575783008E-17, 0.9848077530122080203 ) ) ;
#88 = AXIS2_PLACEMENT_3D ( 'NONE', #276, #92, #93 ) ;
#89 = ORIENTED_EDGE ( 'NONE', *, *, #292, .T. ) ;
#90 = FACE_OUTER_BOUND ( 'NONE', #161, .T. ) ;
#91 = ORIENTED_EDGE ( 'NONE', *, *, #255, .F. ) ;
#92 = DIRECTION ( 'NONE',  ( 1.224646799147353207E-16, 0.0000000000000000000, 1.000000000000000000 ) ) ;
#93 = DIRECTION ( 'NONE',  ( 1.000000000000000000, 0.0000000000000000000, 0.0000000000000000000 ) ) ;
#94 = EDGE_CURVE ( 'NONE', #228, #261, #127, .T. ) ;
#95 = AXIS2_PLACEMENT_3D ( 'NONE', #97, #208, #98 ) ;
#96 = CIRCLE ( 'NONE', #28, 0.05905500000000001720 ) ;
#97 = CARTESIAN_POINT ( 'NONE',  ( 0.0000000000000000000, 0.0000000000000000000, 2.952755999999999936 ) ) ;
#98 = DIRECTION ( 'NONE',  ( -1.000000000000000000, 0.0000000000000000000, 0.0000000000000000000 ) ) ;
#99 =( LENGTH_UNIT ( ) NAMED_UNIT ( * ) SI_UNIT ( $, .METRE. ) );
#100 = EDGE_CURVE ( 'NONE', #62, #196, #108, .T. ) ;
#101 = SURFACE_STYLE_USAGE ( .BOTH. , #145 ) ;
#102 =( NAMED_UNIT ( * ) PLANE_ANGLE_UNIT ( ) SI_UNIT ( $, .RADIAN. ) );
#103 = ADVANCED_FACE ( 'NONE', ( #19 ), #109, .T. ) ;
#104 = AXIS2_PLACEMENT_3D ( 'NONE', #222, #288, #192 ) ;
#105 = VERTEX_POINT ( 'NONE', #246 ) ;
#106 = UNCERTAINTY_MEASURE_WITH_UNIT (LENGTH_MEASURE( 1.000000000000000082E-05 ), #56, 'distance_accuracy_value', 'NONE');
#107 = ORIENTED_EDGE ( 'NONE', *, *, #7, .T. ) ;
#108 = CIRCLE ( 'NONE', #267, 0.05905500000000001720 ) ;
#109 = CYLINDRICAL_SURFACE ( 'NONE', #247, 0.03933062999999999837 ) ;
#110 = ORIENTED_EDGE ( 'NONE', *, *, #165, .T. ) ;
#111 = CARTESIAN_POINT ( 'NONE',  ( -0.05905499999999992700, 0.0000000000000000000, 0.6630434609844124694 ) ) ;
#112 = ORIENTED_EDGE ( 'NONE', *, *, #47, .F. ) ;
#113 = CARTESIAN_POINT ( 'NONE',  ( -0.03933062999999999837, 0.0000000000000000000, 4.816613013794885432E-18 ) ) ;
#114 = ORIENTED_EDGE ( 'NONE', *, *, #7, .F. ) ;
#115 = AXIS2_PLACEMENT_3D ( 'NONE', #225, #121, #136 ) ;
#116 = CARTESIAN_POINT ( 'NONE',  ( 5.898649710075393742E-34, 0.0000000000000000000, 4.816613013794885432E-18 ) ) ;
#117 = DIRECTION ( 'NONE',  ( -1.224646799147353207E-16, -0.0000000000000000000, -1.000000000000000000 ) ) ;
#118 = DIRECTION ( 'NONE',  ( 1.000000000000000000, 0.0000000000000000000, 0.0000000000000000000 ) ) ;
#119 = DIRECTION ( 'NONE',  ( -1.224646799147353207E-16, -0.0000000000000000000, -1.000000000000000000 ) ) ;
#120 = VECTOR ( 'NONE', #239, 39.37007874015748143 ) ;
#121 = DIRECTION ( 'NONE',  ( -0.0000000000000000000, -0.0000000000000000000, -1.000000000000000000 ) ) ;
#122 =( CONVERSION_BASED_UNIT ( 'INCH', #123 ) LENGTH_UNIT ( ) NAMED_UNIT ( #190 ) );
#123 = LENGTH_MEASURE_WITH_UNIT ( LENGTH_MEASURE( 0.02539999999999999897 ), #236 );
#124 = VECTOR ( 'NONE', #29, 39.37007874015748143 ) ;
#125 = PRODUCT_DEFINITION_CONTEXT ( 'detailed design', #61, 'design' ) ;
#126 = SURFACE_STYLE_USAGE ( .BOTH. , #146 ) ;
#127 = CIRCLE ( 'NONE', #180, 0.04405499999999960142 ) ;
#128 = DIRECTION ( 'NONE',  ( 1.000000000000000000, 0.0000000000000000000, 0.0000000000000000000 ) ) ;
#129 = EDGE_LOOP ( 'NONE', ( #41, #132, #191, #204 ) ) ;
#130 = VECTOR ( 'NONE', #140, 39.37007874015748143 ) ;
#131 = FACE_OUTER_BOUND ( 'NONE', #69, .T. ) ;
#132 = ORIENTED_EDGE ( 'NONE', *, *, #220, .T. ) ;
#133 = ORIENTED_EDGE ( 'NONE', *, *, #235, .F. ) ;
#134 = CYLINDRICAL_SURFACE ( 'NONE', #283, 0.05905500000000001720 ) ;
#135 = ORIENTED_EDGE ( 'NONE', *, *, #168, .F. ) ;
#136 = DIRECTION ( 'NONE',  ( -1.000000000000000000, 0.0000000000000000000, 0.0000000000000000000 ) ) ;
#137 =( GEOMETRIC_REPRESENTATION_CONTEXT ( 3 ) GLOBAL_UNCERTAINTY_ASSIGNED_CONTEXT ( ( #30 ) ) GLOBAL_UNIT_ASSIGNED_CONTEXT ( ( #122, #102, #256 ) ) REPRESENTATION_CONTEXT ( 'NONE', 'WORKASPACE' ) );
#138 = EDGE_LOOP ( 'NONE', ( #91, #218, #298, #86 ) ) ;
#139 = CARTESIAN_POINT ( 'NONE',  ( 6.750020474008372993E-17, 0.0000000000000000000, 0.5511810000000000320 ) ) ;
#140 = DIRECTION ( 'NONE',  ( 0.7071067811865384689, 8.659560562354821925E-17, -0.7071067811865565655 ) ) ;
#141 = DIRECTION ( 'NONE',  ( 0.1736481776669313581, 0.0000000000000000000, 0.9848077530122077983 ) ) ;
#142 = EDGE_CURVE ( 'NONE', #182, #156, #207, .T. ) ;
#143 = SURFACE_STYLE_FILL_AREA ( #166 ) ;
#144 = CONICAL_SURFACE ( 'NONE', #88, 0.03933062999999999837, 0.1745329251994338637 ) ;
#145 = SURFACE_SIDE_STYLE ('',( #143 ) ) ;
#146 = SURFACE_SIDE_STYLE ('',( #80 ) ) ;
#147 = PRODUCT_CONTEXT ( 'NONE', #152, 'mechanical' ) ;
#148 = DIMENSIONAL_EXPONENTS ( 1.000000000000000000, 0.0000000000000000000, 0.0000000000000000000, 0.0000000000000000000, 0.0000000000000000000, 0.0000000000000000000, 0.0000000000000000000 ) ;
#149 = VECTOR ( 'NONE', #87, 39.37007874015747433 ) ;
#150 = CARTESIAN_POINT ( 'NONE',  ( 0.05905500000000001720, 7.232151672364695422E-18, 2.937755999999999368 ) ) ;
#151 = ORIENTED_EDGE ( 'NONE', *, *, #142, .T. ) ;
#152 = APPLICATION_CONTEXT ( 'automotive_design' ) ;
#153 = DIRECTION ( 'NONE',  ( 0.0000000000000000000, 0.0000000000000000000, 1.000000000000000000 ) ) ;
#154 = CIRCLE ( 'NONE', #23, 0.03933062999999999837 ) ;
#155 = CARTESIAN_POINT ( 'NONE',  ( -0.03933062999999992898, 4.816613013794885432E-18, 0.5511810000000000320 ) ) ;
#156 = VERTEX_POINT ( 'NONE', #209 ) ;
#157 = CARTESIAN_POINT ( 'NONE',  ( -0.05905500000000001720, 0.0000000000000000000, 2.937755999999999368 ) ) ;
#158 = PLANE ( 'NONE',  #54 ) ;
#159 = CONICAL_SURFACE ( 'NONE', #95, 0.04405499999999960142, 0.7853981633974355114 ) ;
#160 = CARTESIAN_POINT ( 'NONE',  ( 0.0000000000000000000, 0.0000000000000000000, 2.952755999999999936 ) ) ;
#161 = EDGE_LOOP ( 'NONE', ( #133, #89, #200, #68 ) ) ;
#162 = CARTESIAN_POINT ( 'NONE',  ( 0.04405499999999960142, 5.395181473643616524E-18, 2.952755999999999936 ) ) ;
#163 = LINE ( 'NONE', #46, #10 ) ;
#164 = DIRECTION ( 'NONE',  ( -1.224646799147353207E-16, -0.0000000000000000000, -1.000000000000000000 ) ) ;
#165 = EDGE_CURVE ( 'NONE', #228, #243, #52, .T. ) ;
#166 = FILL_AREA_STYLE ('',( #31 ) ) ;
#167 = PRODUCT_DEFINITION_SHAPE ( 'NONE', 'NONE',  #296 ) ;
#168 = EDGE_CURVE ( 'NONE', #261, #38, #2, .T. ) ;
#169 = DIRECTION ( 'NONE',  ( -1.224646799147353207E-16, -0.0000000000000000000, -1.000000000000000000 ) ) ;
#170 = STYLED_ITEM ( 'NONE', ( #254 ), #295 ) ;
#171 = CARTESIAN_POINT ( 'NONE',  ( 0.0000000000000000000, 0.0000000000000000000, 2.952755999999999936 ) ) ;
#172 = ORIENTED_EDGE ( 'NONE', *, *, #94, .T. ) ;
#173 = CYLINDRICAL_SURFACE ( 'NONE', #48, 0.03933062999999999837 ) ;
#174 = AXIS2_PLACEMENT_3D ( 'NONE', #116, #251, #3 ) ;
#175 = EDGE_LOOP ( 'NONE', ( #135, #270, #110, #20 ) ) ;
#176 = EDGE_LOOP ( 'NONE', ( #44, #221, #293, #112 ) ) ;
#177 = DIRECTION ( 'NONE',  ( -0.0000000000000000000, -0.0000000000000000000, -1.000000000000000000 ) ) ;
#178 = EDGE_LOOP ( 'NONE', ( #172, #107 ) ) ;
#179 = CARTESIAN_POINT ( 'NONE',  ( 6.750020474008372993E-17, 0.0000000000000000000, 0.5511810000000000320 ) ) ;
#180 = AXIS2_PLACEMENT_3D ( 'NONE', #171, #153, #244 ) ;
#181 = DIRECTION ( 'NONE',  ( -1.000000000000000000, 0.0000000000000000000, 0.0000000000000000000 ) ) ;
#182 = VERTEX_POINT ( 'NONE', #24 ) ;
#183 = LINE ( 'NONE', #275, #273 ) ;
#184 = ADVANCED_FACE ( 'NONE', ( #21 ), #159, .T. ) ;
#185 = DIRECTION ( 'NONE',  ( 1.000000000000000000, 0.0000000000000000000, -0.0000000000000000000 ) ) ;
#186 = DIRECTION ( 'NONE',  ( -1.000000000000000000, 0.0000000000000000000, 1.224646799147352961E-16 ) ) ;
#187 = AXIS2_PLACEMENT_3D ( 'NONE', #37, #84, #128 ) ;
#188 = COLOUR_RGB ( '',0.7921568627450980005, 0.8196078431372548767, 0.9333333333333333481 ) ;
#189 = FILL_AREA_STYLE ('',( #59 ) ) ;
#190 = DIMENSIONAL_EXPONENTS ( 1.000000000000000000, 0.0000000000000000000, 0.0000000000000000000, 0.0000000000000000000, 0.0000000000000000000, 0.0000000000000000000, 0.0000000000000000000 ) ;
#191 = ORIENTED_EDGE ( 'NONE', *, *, #282, .F. ) ;
#192 = DIRECTION ( 'NONE',  ( -1.000000000000000000, 0.0000000000000000000, 0.0000000000000000000 ) ) ;
#193 =( NAMED_UNIT ( * ) SI_UNIT ( $, .STERADIAN. ) SOLID_ANGLE_UNIT ( ) );
#194 = EDGE_CURVE ( 'NONE', #196, #62, #74, .T. ) ;
#195 = CARTESIAN_POINT ( 'NONE',  ( 0.0000000000000000000, 0.0000000000000000000, 0.0000000000000000000 ) ) ;
#196 = VERTEX_POINT ( 'NONE', #71 ) ;
#197 = PRODUCT ( 'Micro_SFPM-020-40', 'Micro_SFPM-020-40', '', ( #147 ) ) ;
#198 = CARTESIAN_POINT ( 'NONE',  ( 8.119940521901437606E-17, 0.0000000000000000000, 0.6630434609844124694 ) ) ;
#199 = DIRECTION ( 'NONE',  ( -1.000000000000000000, 0.0000000000000000000, 0.0000000000000000000 ) ) ;
#200 = ORIENTED_EDGE ( 'NONE', *, *, #47, .T. ) ;
#201 = AXIS2_PLACEMENT_3D ( 'NONE', #271, #119, #205 ) ;
#202 = STYLED_ITEM ( 'NONE', ( #214 ), #55 ) ;
#203 = CARTESIAN_POINT ( 'NONE',  ( 0.0000000000000000000, 0.0000000000000000000, 0.0000000000000000000 ) ) ;
#204 = ORIENTED_EDGE ( 'NONE', *, *, #33, .F. ) ;
#205 = DIRECTION ( 'NONE',  ( 1.000000000000000000, 0.0000000000000000000, 0.0000000000000000000 ) ) ;
#206 = FACE_OUTER_BOUND ( 'NONE', #176, .T. ) ;
#207 = CIRCLE ( 'NONE', #174, 0.03933062999999999837 ) ;
#208 = DIRECTION ( 'NONE',  ( 0.0000000000000000000, 0.0000000000000000000, -1.000000000000000000 ) ) ;
#209 = CARTESIAN_POINT ( 'NONE',  ( -0.03933062999999999837, 0.0000000000000000000, 9.633226027589770864E-18 ) ) ;
#210 = ADVANCED_FACE ( 'NONE', ( #75 ), #158, .F. ) ;
#211 = CIRCLE ( 'NONE', #104, 0.03933062999999999837 ) ;
#212 = AXIS2_PLACEMENT_3D ( 'NONE', #139, #25, #118 ) ;
#213 =( NAMED_UNIT ( * ) PLANE_ANGLE_UNIT ( ) SI_UNIT ( $, .RADIAN. ) );
#214 = PRESENTATION_STYLE_ASSIGNMENT (( #126 ) ) ;
#215 = CIRCLE ( 'NONE', #187, 0.04405499999999960142 ) ;
#216 = ADVANCED_FACE ( 'NONE', ( #206 ), #26, .T. ) ;
#217 = VECTOR ( 'NONE', #141, 39.37007874015748143 ) ;
#218 = ORIENTED_EDGE ( 'NONE', *, *, #82, .T. ) ;
#219 = CARTESIAN_POINT ( 'NONE',  ( -0.05905500000000001720, 0.0000000000000000000, 2.952755999999999936 ) ) ;
#220 = EDGE_CURVE ( 'NONE', #105, #182, #183, .T. ) ;
#221 = ORIENTED_EDGE ( 'NONE', *, *, #235, .T. ) ;
#222 = CARTESIAN_POINT ( 'NONE',  ( 6.750020474008372993E-17, 0.0000000000000000000, 0.5511810000000000320 ) ) ;
#223 = FACE_OUTER_BOUND ( 'NONE', #175, .T. ) ;
#224 = CLOSED_SHELL ( 'NONE', ( #103, #278, #184, #216, #268, #287, #64, #240, #4, #210 ) ) ;
#225 = CARTESIAN_POINT ( 'NONE',  ( 0.0000000000000000000, 0.0000000000000000000, 2.952755999999999936 ) ) ;
#226 = ORIENTED_EDGE ( 'NONE', *, *, #70, .T. ) ;
#227 = DIRECTION ( 'NONE',  ( -1.000000000000000000, 0.0000000000000000000, 0.0000000000000000000 ) ) ;
#228 = VERTEX_POINT ( 'NONE', #294 ) ;
#229 = DIRECTION ( 'NONE',  ( -0.0000000000000000000, -0.0000000000000000000, -1.000000000000000000 ) ) ;
#230 = DIRECTION ( 'NONE',  ( 0.0000000000000000000, 0.0000000000000000000, 1.000000000000000000 ) ) ;
#231 = DIRECTION ( 'NONE',  ( -1.000000000000000000, 0.0000000000000000000, 1.224646799147352961E-16 ) ) ;
#232 = CARTESIAN_POINT ( 'NONE',  ( 0.0000000000000000000, 0.0000000000000000000, 2.952755999999999936 ) ) ;
#233 = DIMENSIONAL_EXPONENTS ( 1.000000000000000000, 0.0000000000000000000, 0.0000000000000000000, 0.0000000000000000000, 0.0000000000000000000, 0.0000000000000000000, 0.0000000000000000000 ) ;
#234 = DIRECTION ( 'NONE',  ( 1.000000000000000000, 0.0000000000000000000, -0.0000000000000000000 ) ) ;
#235 = EDGE_CURVE ( 'NONE', #38, #196, #163, .T. ) ;
#236 =( LENGTH_UNIT ( ) NAMED_UNIT ( * ) SI_UNIT ( $, .METRE. ) );
#237 = ORIENTED_EDGE ( 'NONE', *, *, #142, .F. ) ;
#238 = APPLICATION_PROTOCOL_DEFINITION ( 'draft international standard', 'automotive_design', 1998, #61 ) ;
#239 = DIRECTION ( 'NONE',  ( -0.0000000000000000000, -0.0000000000000000000, -1.000000000000000000 ) ) ;
#240 = ADVANCED_FACE ( 'NONE', ( #252 ), #144, .T. ) ;
#241 = CARTESIAN_POINT ( 'NONE',  ( 0.0000000000000000000, 0.0000000000000000000, 2.952755999999999936 ) ) ;
#242 = DIRECTION ( 'NONE',  ( -1.224646799147353207E-16, -0.0000000000000000000, -1.000000000000000000 ) ) ;
#243 = VERTEX_POINT ( 'NONE', #157 ) ;
#244 = DIRECTION ( 'NONE',  ( 1.000000000000000000, 0.0000000000000000000, 0.0000000000000000000 ) ) ;
#245 = LINE ( 'NONE', #53, #217 ) ;
#246 = CARTESIAN_POINT ( 'NONE',  ( 0.03933063000000006082, 0.0000000000000000000, 0.5511810000000000320 ) ) ;
#247 = AXIS2_PLACEMENT_3D ( 'NONE', #195, #291, #231 ) ;
#248 =( GEOMETRIC_REPRESENTATION_CONTEXT ( 3 ) GLOBAL_UNCERTAINTY_ASSIGNED_CONTEXT ( ( #299 ) ) GLOBAL_UNIT_ASSIGNED_CONTEXT ( ( #12, #263, #193 ) ) REPRESENTATION_CONTEXT ( 'NONE', 'WORKASPACE' ) );
#249 = DIRECTION ( 'NONE',  ( 1.000000000000000000, 0.0000000000000000000, 0.0000000000000000000 ) ) ;
#250 = EDGE_CURVE ( 'NONE', #105, #196, #245, .T. ) ;
#251 = DIRECTION ( 'NONE',  ( -1.224646799147353207E-16, -0.0000000000000000000, -1.000000000000000000 ) ) ;
#252 = FACE_OUTER_BOUND ( 'NONE', #8, .T. ) ;
#253 = AXIS2_PLACEMENT_3D ( 'NONE', #179, #117, #181 ) ;
#254 = PRESENTATION_STYLE_ASSIGNMENT (( #101 ) ) ;
#255 = EDGE_CURVE ( 'NONE', #6, #105, #15, .T. ) ;
#256 =( NAMED_UNIT ( * ) SI_UNIT ( $, .STERADIAN. ) SOLID_ANGLE_UNIT ( ) );
#257 = AXIS2_PLACEMENT_3D ( 'NONE', #241, #39, #199 ) ;
#258 = APPLICATION_PROTOCOL_DEFINITION ( 'draft international standard', 'automotive_design', 1998, #152 ) ;
#259 = LINE ( 'NONE', #219, #120 ) ;
#260 = MECHANICAL_DESIGN_GEOMETRIC_PRESENTATION_REPRESENTATION (  '', ( #170 ), #137 ) ;
#261 = VERTEX_POINT ( 'NONE', #45 ) ;
#262 = CARTESIAN_POINT ( 'NONE',  ( 0.0000000000000000000, 0.0000000000000000000, 0.0000000000000000000 ) ) ;
#263 =( NAMED_UNIT ( * ) PLANE_ANGLE_UNIT ( ) SI_UNIT ( $, .RADIAN. ) );
#264 = ORIENTED_EDGE ( 'NONE', *, *, #282, .T. ) ;
#265 = EDGE_LOOP ( 'NONE', ( #264, #151 ) ) ;
#266 = SHAPE_DEFINITION_REPRESENTATION ( #167, #55 ) ;
#267 = AXIS2_PLACEMENT_3D ( 'NONE', #198, #242, #43 ) ;
#268 = ADVANCED_FACE ( 'NONE', ( #90 ), #134, .T. ) ;
#269 = EDGE_LOOP ( 'NONE', ( #114, #72, #277, #65 ) ) ;
#270 = ORIENTED_EDGE ( 'NONE', *, *, #94, .F. ) ;
#271 = CARTESIAN_POINT ( 'NONE',  ( 8.119940521901437606E-17, 0.0000000000000000000, 0.6630434609844124694 ) ) ;
#272 = EDGE_CURVE ( 'NONE', #243, #38, #40, .T. ) ;
#273 = VECTOR ( 'NONE', #76, 39.37007874015748143 ) ;
#274 = CARTESIAN_POINT ( 'NONE',  ( -0.04405499999999960142, 0.0000000000000000000, 2.952755999999999936 ) ) ;
#275 = CARTESIAN_POINT ( 'NONE',  ( 0.03933062999999999837, 4.816613013794885432E-18, -4.816613013794885432E-18 ) ) ;
#276 = CARTESIAN_POINT ( 'NONE',  ( 6.750020474008372993E-17, 0.0000000000000000000, 0.5511810000000000320 ) ) ;
#277 = ORIENTED_EDGE ( 'NONE', *, *, #272, .F. ) ;
#278 = ADVANCED_FACE ( 'NONE', ( #50 ), #279, .T. ) ;
#279 = CONICAL_SURFACE ( 'NONE', #212, 0.03933062999999999837, 0.1745329251994338637 ) ;
#280 = PLANE ( 'NONE',  #289 ) ;
#281 =( NAMED_UNIT ( * ) SI_UNIT ( $, .STERADIAN. ) SOLID_ANGLE_UNIT ( ) );
#282 = EDGE_CURVE ( 'NONE', #156, #182, #154, .T. ) ;
#283 = AXIS2_PLACEMENT_3D ( 'NONE', #160, #177, #227 ) ;
#284 = AXIS2_PLACEMENT_3D ( 'NONE', #262, #286, #60 ) ;
#285 = CARTESIAN_POINT ( 'NONE',  ( 0.0000000000000000000, 0.0000000000000000000, 0.0000000000000000000 ) ) ;
#286 = DIRECTION ( 'NONE',  ( 0.0000000000000000000, 0.0000000000000000000, 1.000000000000000000 ) ) ;
#287 = ADVANCED_FACE ( 'NONE', ( #5 ), #280, .T. ) ;
#288 = DIRECTION ( 'NONE',  ( -1.224646799147353207E-16, -0.0000000000000000000, -1.000000000000000000 ) ) ;
#289 = AXIS2_PLACEMENT_3D ( 'NONE', #232, #34, #234 ) ;
#290 = ORIENTED_EDGE ( 'NONE', *, *, #220, .F. ) ;
#291 = DIRECTION ( 'NONE',  ( -1.224646799147353207E-16, -0.0000000000000000000, -1.000000000000000000 ) ) ;
#292 = EDGE_CURVE ( 'NONE', #38, #243, #96, .T. ) ;
#293 = ORIENTED_EDGE ( 'NONE', *, *, #100, .F. ) ;
#294 = CARTESIAN_POINT ( 'NONE',  ( -0.04405499999999960142, 0.0000000000000000000, 2.952755999999999936 ) ) ;
#295 = MANIFOLD_SOLID_BREP ( 'Cut-Revolve1', #224 ) ;
#296 = PRODUCT_DEFINITION ( 'UNKNOWN', '', #78, #125 ) ;
#297 = CARTESIAN_POINT ( 'NONE',  ( 0.0000000000000000000, 0.0000000000000000000, 2.937755999999999368 ) ) ;
#298 = ORIENTED_EDGE ( 'NONE', *, *, #100, .T. ) ;
#299 = UNCERTAINTY_MEASURE_WITH_UNIT (LENGTH_MEASURE( 1.000000000000000082E-05 ), #12, 'distance_accuracy_value', 'NONE');
ENDSEC;
END-ISO-10303-21;
