ISO-10303-21;
HEADER;
FILE_DESCRIPTION (( 'STEP AP214' ),
    '1' );
FILE_NAME ('Micro_BMR-032-2.STEP',
    '2021-09-03T14:05:22',
    ( '' ),
    ( '' ),
    'SwSTEP 2.0',
    'SolidWorks 2020',
    '' );
FILE_SCHEMA (( 'AUTOMOTIVE_DESIGN' ));
ENDSEC;

DATA;
#1 = CARTESIAN_POINT ( 'NONE',  ( -0.06249999999999997918, 0.0000000000000000000, 0.3598053451213360510 ) ) ;
#2 = CYLINDRICAL_SURFACE ( 'NONE', #152, 0.01598400000000000168 ) ;
#3 = AXIS2_PLACEMENT_3D ( 'NONE', #222, #113, #317 ) ;
#4 = VECTOR ( 'NONE', #179, 39.37007874015748143 ) ;
#5 = DIRECTION ( 'NONE',  ( -1.000000000000000000, 0.0000000000000000000, 0.0000000000000000000 ) ) ;
#6 = AXIS2_PLACEMENT_3D ( 'NONE', #24, #300, #319 ) ;
#7 = PRODUCT_DEFINITION ( 'UNKNOWN', '', #320, #259 ) ;
#8 = CARTESIAN_POINT ( 'NONE',  ( 0.04750000000000064587, 6.735557395310483192E-18, 1.500000000000000222 ) ) ;
#9 = FACE_OUTER_BOUND ( 'NONE', #14, .T. ) ;
#10 = ORIENTED_EDGE ( 'NONE', *, *, #58, .T. ) ;
#11 = EDGE_LOOP ( 'NONE', ( #211, #164, #196, #63 ) ) ;
#12 = EDGE_CURVE ( 'NONE', #285, #260, #221, .T. ) ;
#13 = FILL_AREA_STYLE_COLOUR ( '', #293 ) ;
#14 = EDGE_LOOP ( 'NONE', ( #213, #234, #269, #35 ) ) ;
#15 = ORIENTED_EDGE ( 'NONE', *, *, #169, .T. ) ;
#16 = CONICAL_SURFACE ( 'NONE', #210, 0.04750000000000064587, 0.7853981633974466137 ) ;
#17 = ORIENTED_EDGE ( 'NONE', *, *, #12, .F. ) ;
#18 = CARTESIAN_POINT ( 'NONE',  ( 0.0000000000000000000, 0.0000000000000000000, 1.500000000000000222 ) ) ;
#19 = DIRECTION ( 'NONE',  ( -1.000000000000000000, 0.0000000000000000000, 0.0000000000000000000 ) ) ;
#20 = EDGE_CURVE ( 'NONE', #62, #285, #220, .T. ) ;
#21 = AXIS2_PLACEMENT_3D ( 'NONE', #144, #93, #200 ) ;
#22 =( GEOMETRIC_REPRESENTATION_CONTEXT ( 3 ) GLOBAL_UNCERTAINTY_ASSIGNED_CONTEXT ( ( #161 ) ) GLOBAL_UNIT_ASSIGNED_CONTEXT ( ( #30, #102, #264 ) ) REPRESENTATION_CONTEXT ( 'NONE', 'WORKASPACE' ) );
#23 = CARTESIAN_POINT ( 'NONE',  ( 0.0000000000000000000, 0.0000000000000000000, 1.485000000000000764 ) ) ;
#24 = CARTESIAN_POINT ( 'NONE',  ( 1.957475443757130046E-18, 0.0000000000000000000, 0.01598400000000000168 ) ) ;
#25 = CARTESIAN_POINT ( 'NONE',  ( -0.01598400000000000168, 0.0000000000000000000, 0.01598400000000000515 ) ) ;
#26 = EDGE_CURVE ( 'NONE', #192, #140, #239, .T. ) ;
#27 = AXIS2_PLACEMENT_3D ( 'NONE', #143, #145, #321 ) ;
#28 = DIRECTION ( 'NONE',  ( -1.000000000000000000, 0.0000000000000000000, 0.0000000000000000000 ) ) ;
#29 = FILL_AREA_STYLE_COLOUR ( '', #314 ) ;
#30 =( CONVERSION_BASED_UNIT ( 'INCH', #154 ) LENGTH_UNIT ( ) NAMED_UNIT ( #310 ) );
#31 = DIRECTION ( 'NONE',  ( -1.000000000000000000, 0.0000000000000000000, 1.224646799147353454E-16 ) ) ;
#32 = ADVANCED_FACE ( 'NONE', ( #147 ), #42, .T. ) ;
#33 = CARTESIAN_POINT ( 'NONE',  ( -0.01598399999999998780, 4.805758969214044758E-18, 0.09600000000000000200 ) ) ;
#34 = DIRECTION ( 'NONE',  ( 1.000000000000000000, 0.0000000000000000000, 0.0000000000000000000 ) ) ;
#35 = ORIENTED_EDGE ( 'NONE', *, *, #83, .T. ) ;
#36 = ORIENTED_EDGE ( 'NONE', *, *, #44, .F. ) ;
#37 = PRODUCT_CONTEXT ( 'NONE', #256, 'mechanical' ) ;
#38 = ORIENTED_EDGE ( 'NONE', *, *, #76, .T. ) ;
#39 = EDGE_LOOP ( 'NONE', ( #160, #236, #187, #86 ) ) ;
#40 = EDGE_CURVE ( 'NONE', #189, #286, #324, .T. ) ;
#41 = VECTOR ( 'NONE', #78, 39.37007874015748143 ) ;
#42 = CYLINDRICAL_SURFACE ( 'NONE', #170, 0.06250000000000002776 ) ;
#43 = FACE_OUTER_BOUND ( 'NONE', #107, .T. ) ;
#44 = EDGE_CURVE ( 'NONE', #189, #260, #177, .T. ) ;
#45 = DIRECTION ( 'NONE',  ( -0.7071067811865462405, 0.0000000000000000000, -0.7071067811865486830 ) ) ;
#46 = CIRCLE ( 'NONE', #146, 0.06250000000000002776 ) ;
#47 = DIRECTION ( 'NONE',  ( 1.224646799147353207E-16, 1.000000000000000000, -0.0000000000000000000 ) ) ;
#48 = DIRECTION ( 'NONE',  ( 0.0000000000000000000, 0.0000000000000000000, -1.000000000000000000 ) ) ;
#49 = ADVANCED_FACE ( 'NONE', ( #173 ), #223, .T. ) ;
#50 = DIRECTION ( 'NONE',  ( 0.0000000000000000000, 0.0000000000000000000, -1.000000000000000000 ) ) ;
#51 = VECTOR ( 'NONE', #306, 39.37007874015748143 ) ;
#52 =( NAMED_UNIT ( * ) PLANE_ANGLE_UNIT ( ) SI_UNIT ( $, .RADIAN. ) );
#53 = ADVANCED_FACE ( 'NONE', ( #199 ), #117, .T. ) ;
#54 = DIRECTION ( 'NONE',  ( 0.7071067811865462405, 8.659560562354916834E-17, -0.7071067811865486830 ) ) ;
#55 = CARTESIAN_POINT ( 'NONE',  ( 0.01598400000000001209, 0.0000000000000000000, 0.09600000000000000200 ) ) ;
#56 = CARTESIAN_POINT ( 'NONE',  ( 1.957475443757130046E-18, 0.0000000000000000000, 0.01598400000000000168 ) ) ;
#57 = ORIENTED_EDGE ( 'NONE', *, *, #247, .F. ) ;
#58 = EDGE_CURVE ( 'NONE', #136, #140, #106, .T. ) ;
#59 = ORIENTED_EDGE ( 'NONE', *, *, #237, .T. ) ;
#60 = ORIENTED_EDGE ( 'NONE', *, *, #26, .T. ) ;
#61 =( GEOMETRIC_REPRESENTATION_CONTEXT ( 3 ) GLOBAL_UNCERTAINTY_ASSIGNED_CONTEXT ( ( #235 ) ) GLOBAL_UNIT_ASSIGNED_CONTEXT ( ( #190, #108, #312 ) ) REPRESENTATION_CONTEXT ( 'NONE', 'WORKASPACE' ) );
#62 = VERTEX_POINT ( 'NONE', #69 ) ;
#63 = ORIENTED_EDGE ( 'NONE', *, *, #91, .F. ) ;
#64 = SURFACE_STYLE_USAGE ( .BOTH. , #291 ) ;
#65 = CYLINDRICAL_SURFACE ( 'NONE', #21, 0.01598400000000000168 ) ;
#66 = CIRCLE ( 'NONE', #225, 0.06250000000000002776 ) ;
#67 = DIRECTION ( 'NONE',  ( 0.0000000000000000000, 0.0000000000000000000, -1.000000000000000000 ) ) ;
#68 = DIRECTION ( 'NONE',  ( 1.000000000000000000, 0.0000000000000000000, -0.0000000000000000000 ) ) ;
#69 = CARTESIAN_POINT ( 'NONE',  ( -0.04750000000000064587, 0.0000000000000000000, 1.500000000000000222 ) ) ;
#70 = CIRCLE ( 'NONE', #305, 0.01598400000000000168 ) ;
#71 = CARTESIAN_POINT ( 'NONE',  ( 0.06250000000000002776, 7.654042494670959086E-18, 1.485000000000000764 ) ) ;
#72 = CARTESIAN_POINT ( 'NONE',  ( 2.936213165635694876E-18, 0.0000000000000000000, 0.0000000000000000000 ) ) ;
#73 = CARTESIAN_POINT ( 'NONE',  ( -0.01598400000000000168, 0.0000000000000000000, 1.957475443757130046E-18 ) ) ;
#74 = DIRECTION ( 'NONE',  ( 1.000000000000000000, 0.0000000000000000000, 0.0000000000000000000 ) ) ;
#75 = CARTESIAN_POINT ( 'NONE',  ( 0.01598400000000001209, 0.0000000000000000000, 0.09600000000000000200 ) ) ;
#76 = EDGE_CURVE ( 'NONE', #62, #241, #191, .T. ) ;
#77 = PRESENTATION_LAYER_ASSIGNMENT (  '', '', ( #283 ) ) ;
#78 = DIRECTION ( 'NONE',  ( -1.224646799147353454E-16, -0.0000000000000000000, -1.000000000000000000 ) ) ;
#79 = LINE ( 'NONE', #73, #41 ) ;
#80 = CARTESIAN_POINT ( 'NONE',  ( 0.0000000000000000000, 0.0000000000000000000, 0.0000000000000000000 ) ) ;
#81 = CONICAL_SURFACE ( 'NONE', #172, 0.01598400000000000168, 0.1745329251994338915 ) ;
#82 = ORIENTED_EDGE ( 'NONE', *, *, #40, .T. ) ;
#83 = EDGE_CURVE ( 'NONE', #140, #192, #287, .T. ) ;
#84 = VERTEX_POINT ( 'NONE', #71 ) ;
#85 = EDGE_LOOP ( 'NONE', ( #159, #10, #215 ) ) ;
#86 = ORIENTED_EDGE ( 'NONE', *, *, #272, .F. ) ;
#87 = ORIENTED_EDGE ( 'NONE', *, *, #183, .F. ) ;
#88 = FACE_OUTER_BOUND ( 'NONE', #11, .T. ) ;
#89 = DIRECTION ( 'NONE',  ( 0.0000000000000000000, 0.0000000000000000000, 1.000000000000000000 ) ) ;
#90 = CARTESIAN_POINT ( 'NONE',  ( -0.01598399999999998780, 1.957475443757129275E-18, 0.09600000000000000200 ) ) ;
#91 = EDGE_CURVE ( 'NONE', #84, #285, #46, .T. ) ;
#92 = CIRCLE ( 'NONE', #254, 0.01598400000000000168 ) ;
#93 = DIRECTION ( 'NONE',  ( -1.224646799147353454E-16, -0.0000000000000000000, -1.000000000000000000 ) ) ;
#94 = DIRECTION ( 'NONE',  ( 0.0000000000000000000, 1.000000000000000000, 0.0000000000000000000 ) ) ;
#95 = EDGE_CURVE ( 'NONE', #260, #232, #315, .T. ) ;
#96 = DIRECTION ( 'NONE',  ( -0.1736481776669311916, 2.126576849575783316E-17, 0.9848077530122080203 ) ) ;
#97 = AXIS2_PLACEMENT_3D ( 'NONE', #323, #268, #121 ) ;
#98 = VECTOR ( 'NONE', #54, 39.37007874015748854 ) ;
#99 = PRESENTATION_STYLE_ASSIGNMENT (( #204 ) ) ;
#100 = DIRECTION ( 'NONE',  ( 1.000000000000000000, 0.0000000000000000000, 0.0000000000000000000 ) ) ;
#101 = DIRECTION ( 'NONE',  ( -0.0000000000000000000, -0.0000000000000000000, -1.000000000000000000 ) ) ;
#102 =( NAMED_UNIT ( * ) PLANE_ANGLE_UNIT ( ) SI_UNIT ( $, .RADIAN. ) );
#103 = ADVANCED_FACE ( 'NONE', ( #88 ), #255, .T. ) ;
#104 = DIRECTION ( 'NONE',  ( 0.0000000000000000000, 0.0000000000000000000, -1.000000000000000000 ) ) ;
#105 = FACE_OUTER_BOUND ( 'NONE', #311, .T. ) ;
#106 = CIRCLE ( 'NONE', #245, 0.01598400000000000168 ) ;
#107 = EDGE_LOOP ( 'NONE', ( #82, #258, #60, #238 ) ) ;
#108 =( NAMED_UNIT ( * ) PLANE_ANGLE_UNIT ( ) SI_UNIT ( $, .RADIAN. ) );
#109 = ORIENTED_EDGE ( 'NONE', *, *, #247, .T. ) ;
#110 = PRODUCT_DEFINITION_SHAPE ( 'NONE', 'NONE',  #7 ) ;
#111 = EDGE_LOOP ( 'NONE', ( #242, #313, #284 ) ) ;
#112 = AXIS2_PLACEMENT_3D ( 'NONE', #198, #67, #292 ) ;
#113 = DIRECTION ( 'NONE',  ( -1.224646799147353454E-16, -0.0000000000000000000, -1.000000000000000000 ) ) ;
#114 = PRESENTATION_STYLE_ASSIGNMENT (( #64 ) ) ;
#115 = ORIENTED_EDGE ( 'NONE', *, *, #95, .T. ) ;
#116 = APPLICATION_CONTEXT ( 'automotive_design' ) ;
#117 = PLANE ( 'NONE',  #129 ) ;
#118 = AXIS2_PLACEMENT_3D ( 'NONE', #126, #302, #226 ) ;
#119 = DIRECTION ( 'NONE',  ( 1.224646799147353454E-16, 0.0000000000000000000, 1.000000000000000000 ) ) ;
#120 = ADVANCED_FACE ( 'NONE', ( #43 ), #65, .T. ) ;
#121 = DIRECTION ( 'NONE',  ( -1.000000000000000000, 0.0000000000000000000, 1.335245398554933230E-16 ) ) ;
#122 = ADVANCED_BREP_SHAPE_REPRESENTATION ( 'Micro_BMR-032-2', ( #135, #277 ), #22 ) ;
#123 =( LENGTH_UNIT ( ) NAMED_UNIT ( * ) SI_UNIT ( $, .METRE. ) );
#124 =( NAMED_UNIT ( * ) SI_UNIT ( $, .STERADIAN. ) SOLID_ANGLE_UNIT ( ) );
#125 = DIRECTION ( 'NONE',  ( 0.0000000000000000000, 0.0000000000000000000, 1.000000000000000000 ) ) ;
#126 = CARTESIAN_POINT ( 'NONE',  ( 0.0000000000000000000, 0.0000000000000000000, 1.500000000000000222 ) ) ;
#127 = PRODUCT_RELATED_PRODUCT_CATEGORY ( 'part', '', ( #165 ) ) ;
#128 = FACE_OUTER_BOUND ( 'NONE', #273, .T. ) ;
#129 = AXIS2_PLACEMENT_3D ( 'NONE', #148, #201, #68 ) ;
#130 = DIRECTION ( 'NONE',  ( -1.224646799147353454E-16, -0.0000000000000000000, -1.000000000000000000 ) ) ;
#131 = UNCERTAINTY_MEASURE_WITH_UNIT (LENGTH_MEASURE( 1.000000000000000082E-05 ), #276, 'distance_accuracy_value', 'NONE');
#132 = ADVANCED_FACE ( 'NONE', ( #296 ), #176, .T. ) ;
#133 = CARTESIAN_POINT ( 'NONE',  ( 0.0000000000000000000, 0.0000000000000000000, 1.500000000000000222 ) ) ;
#134 = ORIENTED_EDGE ( 'NONE', *, *, #20, .F. ) ;
#135 = MANIFOLD_SOLID_BREP ( 'Fillet1', #299 ) ;
#136 = VERTEX_POINT ( 'NONE', #72 ) ;
#137 = SHAPE_DEFINITION_REPRESENTATION ( #110, #122 ) ;
#138 = ORIENTED_EDGE ( 'NONE', *, *, #95, .F. ) ;
#139 = EDGE_LOOP ( 'NONE', ( #109, #15, #138, #17 ) ) ;
#140 = VERTEX_POINT ( 'NONE', #25 ) ;
#141 = ADVANCED_FACE ( 'NONE', ( #178 ), #274, .T. ) ;
#142 = FILL_AREA_STYLE ('',( #13 ) ) ;
#143 = CARTESIAN_POINT ( 'NONE',  ( 1.175660927181459403E-17, 0.0000000000000000000, 0.09600000000000000200 ) ) ;
#144 = CARTESIAN_POINT ( 'NONE',  ( 0.0000000000000000000, 0.0000000000000000000, 0.0000000000000000000 ) ) ;
#145 = DIRECTION ( 'NONE',  ( -1.224646799147353454E-16, -0.0000000000000000000, -1.000000000000000000 ) ) ;
#146 = AXIS2_PLACEMENT_3D ( 'NONE', #23, #48, #248 ) ;
#147 = FACE_OUTER_BOUND ( 'NONE', #139, .T. ) ;
#148 = CARTESIAN_POINT ( 'NONE',  ( 0.0000000000000000000, 0.0000000000000000000, 1.500000000000000222 ) ) ;
#149 = LINE ( 'NONE', #249, #217 ) ;
#150 = DIRECTION ( 'NONE',  ( 1.224646799147353454E-16, 0.0000000000000000000, 1.000000000000000000 ) ) ;
#151 = MECHANICAL_DESIGN_GEOMETRIC_PRESENTATION_REPRESENTATION (  '', ( #163 ), #61 ) ;
#152 = AXIS2_PLACEMENT_3D ( 'NONE', #80, #182, #31 ) ;
#153 = SURFACE_SIDE_STYLE ('',( #228 ) ) ;
#154 = LENGTH_MEASURE_WITH_UNIT ( LENGTH_MEASURE( 0.02539999999999999897 ), #278 );
#155 = DIRECTION ( 'NONE',  ( 1.000000000000000000, 0.0000000000000000000, 0.0000000000000000000 ) ) ;
#156 = FACE_OUTER_BOUND ( 'NONE', #111, .T. ) ;
#157 = VECTOR ( 'NONE', #295, 39.37007874015748143 ) ;
#158 = LINE ( 'NONE', #252, #4 ) ;
#159 = ORIENTED_EDGE ( 'NONE', *, *, #216, .F. ) ;
#160 = ORIENTED_EDGE ( 'NONE', *, *, #169, .F. ) ;
#161 = UNCERTAINTY_MEASURE_WITH_UNIT (LENGTH_MEASURE( 1.000000000000000082E-05 ), #30, 'distance_accuracy_value', 'NONE');
#162 = AXIS2_PLACEMENT_3D ( 'NONE', #18, #219, #244 ) ;
#163 = STYLED_ITEM ( 'NONE', ( #114 ), #122 ) ;
#164 = ORIENTED_EDGE ( 'NONE', *, *, #76, .F. ) ;
#165 = PRODUCT ( 'Micro_BMR-032-2', 'Micro_BMR-032-2', '', ( #37 ) ) ;
#166 = APPLICATION_PROTOCOL_DEFINITION ( 'draft international standard', 'automotive_design', 1998, #116 ) ;
#167 = ORIENTED_EDGE ( 'NONE', *, *, #40, .F. ) ;
#168 = ORIENTED_EDGE ( 'NONE', *, *, #316, .T. ) ;
#169 = EDGE_CURVE ( 'NONE', #84, #232, #149, .T. ) ;
#170 = AXIS2_PLACEMENT_3D ( 'NONE', #243, #322, #19 ) ;
#171 = CARTESIAN_POINT ( 'NONE',  ( -0.04750000000000064587, 0.0000000000000000000, 1.500000000000000222 ) ) ;
#172 = AXIS2_PLACEMENT_3D ( 'NONE', #229, #150, #227 ) ;
#173 = FACE_OUTER_BOUND ( 'NONE', #85, .T. ) ;
#174 = CARTESIAN_POINT ( 'NONE',  ( 1.175660927181459403E-17, 0.0000000000000000000, 0.09600000000000000200 ) ) ;
#175 = DIRECTION ( 'NONE',  ( 1.000000000000000000, 0.0000000000000000000, 0.0000000000000000000 ) ) ;
#176 = CONICAL_SURFACE ( 'NONE', #294, 0.01598400000000000168, 0.1745329251994338915 ) ;
#177 = LINE ( 'NONE', #90, #209 ) ;
#178 = FACE_OUTER_BOUND ( 'NONE', #39, .T. ) ;
#179 = DIRECTION ( 'NONE',  ( -1.224646799147353454E-16, -0.0000000000000000000, -1.000000000000000000 ) ) ;
#180 = CARTESIAN_POINT ( 'NONE',  ( 0.0000000000000000000, 0.0000000000000000000, 1.500000000000000222 ) ) ;
#181 = AXIS2_PLACEMENT_3D ( 'NONE', #133, #125, #100 ) ;
#182 = DIRECTION ( 'NONE',  ( -1.224646799147353454E-16, -0.0000000000000000000, -1.000000000000000000 ) ) ;
#183 = EDGE_CURVE ( 'NONE', #286, #232, #325, .T. ) ;
#184 = CARTESIAN_POINT ( 'NONE',  ( 0.0000000000000000000, 0.0000000000000000000, 1.485000000000000764 ) ) ;
#185 = DIRECTION ( 'NONE',  ( 0.0000000000000000000, 0.0000000000000000000, -1.000000000000000000 ) ) ;
#186 = ORIENTED_EDGE ( 'NONE', *, *, #188, .F. ) ;
#187 = ORIENTED_EDGE ( 'NONE', *, *, #12, .T. ) ;
#188 = EDGE_CURVE ( 'NONE', #286, #189, #70, .T. ) ;
#189 = VERTEX_POINT ( 'NONE', #33 ) ;
#190 =( CONVERSION_BASED_UNIT ( 'INCH', #214 ) LENGTH_UNIT ( ) NAMED_UNIT ( #263 ) );
#191 = CIRCLE ( 'NONE', #162, 0.04750000000000064587 ) ;
#192 = VERTEX_POINT ( 'NONE', #303 ) ;
#193 = DIMENSIONAL_EXPONENTS ( 1.000000000000000000, 0.0000000000000000000, 0.0000000000000000000, 0.0000000000000000000, 0.0000000000000000000, 0.0000000000000000000, 0.0000000000000000000 ) ;
#194 = APPLICATION_PROTOCOL_DEFINITION ( 'draft international standard', 'automotive_design', 1998, #256 ) ;
#195 = EDGE_CURVE ( 'NONE', #189, #140, #79, .T. ) ;
#196 = ORIENTED_EDGE ( 'NONE', *, *, #20, .T. ) ;
#197 = SURFACE_STYLE_FILL_AREA ( #142 ) ;
#198 = CARTESIAN_POINT ( 'NONE',  ( 0.0000000000000000000, 0.0000000000000000000, 1.500000000000000222 ) ) ;
#199 = FACE_OUTER_BOUND ( 'NONE', #290, .T. ) ;
#200 = DIRECTION ( 'NONE',  ( -1.000000000000000000, 0.0000000000000000000, 1.224646799147353454E-16 ) ) ;
#201 = DIRECTION ( 'NONE',  ( 0.0000000000000000000, 0.0000000000000000000, 1.000000000000000000 ) ) ;
#202 = ADVANCED_FACE ( 'NONE', ( #9 ), #2, .T. ) ;
#203 = LENGTH_MEASURE_WITH_UNIT ( LENGTH_MEASURE( 0.02539999999999999897 ), #123 );
#204 = SURFACE_STYLE_USAGE ( .BOTH. , #153 ) ;
#205 = CARTESIAN_POINT ( 'NONE',  ( 0.06250000000000006939, 7.654042494670963708E-18, 0.3598053451213360510 ) ) ;
#206 = PRESENTATION_LAYER_ASSIGNMENT (  '', '', ( #163 ) ) ;
#207 = CARTESIAN_POINT ( 'NONE',  ( -0.06250000000000002776, 0.0000000000000000000, 1.485000000000000764 ) ) ;
#208 = EDGE_LOOP ( 'NONE', ( #167, #289, #115, #87 ) ) ;
#209 = VECTOR ( 'NONE', #96, 39.37007874015747433 ) ;
#210 = AXIS2_PLACEMENT_3D ( 'NONE', #180, #50, #28 ) ;
#211 = ORIENTED_EDGE ( 'NONE', *, *, #237, .F. ) ;
#212 = ADVANCED_FACE ( 'NONE', ( #105 ), #81, .T. ) ;
#213 = ORIENTED_EDGE ( 'NONE', *, *, #224, .F. ) ;
#214 = LENGTH_MEASURE_WITH_UNIT ( LENGTH_MEASURE( 0.02539999999999999897 ), #267 );
#215 = ORIENTED_EDGE ( 'NONE', *, *, #26, .F. ) ;
#216 = EDGE_CURVE ( 'NONE', #136, #192, #92, .T. ) ;
#217 = VECTOR ( 'NONE', #101, 39.37007874015748143 ) ;
#218 = ORIENTED_EDGE ( 'NONE', *, *, #183, .T. ) ;
#219 = DIRECTION ( 'NONE',  ( 0.0000000000000000000, 0.0000000000000000000, 1.000000000000000000 ) ) ;
#220 = LINE ( 'NONE', #171, #282 ) ;
#221 = LINE ( 'NONE', #270, #157 ) ;
#222 = CARTESIAN_POINT ( 'NONE',  ( 4.406344642189530902E-17, 0.0000000000000000000, 0.3598053451213360510 ) ) ;
#223 = SPHERICAL_SURFACE ( 'NONE', #230, 0.01598400000000000168 ) ;
#224 = EDGE_CURVE ( 'NONE', #286, #192, #158, .T. ) ;
#225 = AXIS2_PLACEMENT_3D ( 'NONE', #280, #130, #307 ) ;
#226 = DIRECTION ( 'NONE',  ( -1.000000000000000000, 0.0000000000000000000, 0.0000000000000000000 ) ) ;
#227 = DIRECTION ( 'NONE',  ( 1.000000000000000000, 0.0000000000000000000, 0.0000000000000000000 ) ) ;
#228 = SURFACE_STYLE_FILL_AREA ( #304 ) ;
#229 = CARTESIAN_POINT ( 'NONE',  ( 1.175660927181459403E-17, 0.0000000000000000000, 0.09600000000000000200 ) ) ;
#230 = AXIS2_PLACEMENT_3D ( 'NONE', #246, #94, #175 ) ;
#231 = DIRECTION ( 'NONE',  ( -1.224646799147353454E-16, -0.0000000000000000000, -1.000000000000000000 ) ) ;
#232 = VERTEX_POINT ( 'NONE', #205 ) ;
#233 = AXIS2_PLACEMENT_3D ( 'NONE', #184, #185, #155 ) ;
#234 = ORIENTED_EDGE ( 'NONE', *, *, #188, .T. ) ;
#235 = UNCERTAINTY_MEASURE_WITH_UNIT (LENGTH_MEASURE( 1.000000000000000082E-05 ), #190, 'distance_accuracy_value', 'NONE');
#236 = ORIENTED_EDGE ( 'NONE', *, *, #91, .T. ) ;
#237 = EDGE_CURVE ( 'NONE', #241, #84, #281, .T. ) ;
#238 = ORIENTED_EDGE ( 'NONE', *, *, #195, .F. ) ;
#239 = CIRCLE ( 'NONE', #97, 0.01598400000000000168 ) ;
#240 = AXIS2_PLACEMENT_3D ( 'NONE', #275, #253, #34 ) ;
#241 = VERTEX_POINT ( 'NONE', #8 ) ;
#242 = ORIENTED_EDGE ( 'NONE', *, *, #58, .F. ) ;
#243 = CARTESIAN_POINT ( 'NONE',  ( 0.0000000000000000000, 0.0000000000000000000, 1.500000000000000222 ) ) ;
#244 = DIRECTION ( 'NONE',  ( 1.000000000000000000, 0.0000000000000000000, 0.0000000000000000000 ) ) ;
#245 = AXIS2_PLACEMENT_3D ( 'NONE', #271, #47, #298 ) ;
#246 = CARTESIAN_POINT ( 'NONE',  ( 1.957475443757130046E-18, 0.0000000000000000000, 0.01598400000000000168 ) ) ;
#247 = EDGE_CURVE ( 'NONE', #285, #84, #309, .T. ) ;
#248 = DIRECTION ( 'NONE',  ( 1.000000000000000000, 0.0000000000000000000, 0.0000000000000000000 ) ) ;
#249 = CARTESIAN_POINT ( 'NONE',  ( 0.06250000000000002776, 7.654042494670959086E-18, 1.500000000000000222 ) ) ;
#250 = MECHANICAL_DESIGN_GEOMETRIC_PRESENTATION_REPRESENTATION (  '', ( #283 ), #261 ) ;
#251 = CARTESIAN_POINT ( 'NONE',  ( 0.04750000000000064587, 5.817072295950006528E-18, 1.500000000000000222 ) ) ;
#252 = CARTESIAN_POINT ( 'NONE',  ( 0.01598400000000000168, 1.957475443757129660E-18, -1.957475443757130046E-18 ) ) ;
#253 = DIRECTION ( 'NONE',  ( 0.0000000000000000000, 1.000000000000000000, 0.0000000000000000000 ) ) ;
#254 = AXIS2_PLACEMENT_3D ( 'NONE', #56, #279, #104 ) ;
#255 = CONICAL_SURFACE ( 'NONE', #112, 0.04750000000000064587, 0.7853981633974466137 ) ;
#256 = APPLICATION_CONTEXT ( 'automotive_design' ) ;
#257 = SPHERICAL_SURFACE ( 'NONE', #240, 0.01598400000000000168 ) ;
#258 = ORIENTED_EDGE ( 'NONE', *, *, #224, .T. ) ;
#259 = PRODUCT_DEFINITION_CONTEXT ( 'detailed design', #116, 'design' ) ;
#260 = VERTEX_POINT ( 'NONE', #1 ) ;
#261 =( GEOMETRIC_REPRESENTATION_CONTEXT ( 3 ) GLOBAL_UNCERTAINTY_ASSIGNED_CONTEXT ( ( #131 ) ) GLOBAL_UNIT_ASSIGNED_CONTEXT ( ( #276, #52, #124 ) ) REPRESENTATION_CONTEXT ( 'NONE', 'WORKASPACE' ) );
#262 = ADVANCED_FACE ( 'NONE', ( #128 ), #16, .T. ) ;
#263 = DIMENSIONAL_EXPONENTS ( 1.000000000000000000, 0.0000000000000000000, 0.0000000000000000000, 0.0000000000000000000, 0.0000000000000000000, 0.0000000000000000000, 0.0000000000000000000 ) ;
#264 =( NAMED_UNIT ( * ) SI_UNIT ( $, .STERADIAN. ) SOLID_ANGLE_UNIT ( ) );
#265 = ORIENTED_EDGE ( 'NONE', *, *, #272, .T. ) ;
#266 = CIRCLE ( 'NONE', #181, 0.04750000000000064587 ) ;
#267 =( LENGTH_UNIT ( ) NAMED_UNIT ( * ) SI_UNIT ( $, .METRE. ) );
#268 = DIRECTION ( 'NONE',  ( 1.224646799147353454E-16, 0.0000000000000000000, 1.000000000000000000 ) ) ;
#269 = ORIENTED_EDGE ( 'NONE', *, *, #195, .T. ) ;
#270 = CARTESIAN_POINT ( 'NONE',  ( -0.06250000000000002776, 0.0000000000000000000, 1.500000000000000222 ) ) ;
#271 = CARTESIAN_POINT ( 'NONE',  ( 1.957475443757130046E-18, 0.0000000000000000000, 0.01598400000000000168 ) ) ;
#272 = EDGE_CURVE ( 'NONE', #232, #260, #66, .T. ) ;
#273 = EDGE_LOOP ( 'NONE', ( #308, #59, #57, #134 ) ) ;
#274 = CYLINDRICAL_SURFACE ( 'NONE', #118, 0.06250000000000002776 ) ;
#275 = CARTESIAN_POINT ( 'NONE',  ( 1.957475443757130046E-18, 0.0000000000000000000, 0.01598400000000000168 ) ) ;
#276 =( CONVERSION_BASED_UNIT ( 'INCH', #203 ) LENGTH_UNIT ( ) NAMED_UNIT ( #193 ) );
#277 = AXIS2_PLACEMENT_3D ( 'NONE', #318, #89, #288 ) ;
#278 =( LENGTH_UNIT ( ) NAMED_UNIT ( * ) SI_UNIT ( $, .METRE. ) );
#279 = DIRECTION ( 'NONE',  ( 0.0000000000000000000, -1.000000000000000000, 0.0000000000000000000 ) ) ;
#280 = CARTESIAN_POINT ( 'NONE',  ( 4.406344642189530902E-17, 0.0000000000000000000, 0.3598053451213360510 ) ) ;
#281 = LINE ( 'NONE', #251, #98 ) ;
#282 = VECTOR ( 'NONE', #45, 39.37007874015748854 ) ;
#283 = STYLED_ITEM ( 'NONE', ( #99 ), #135 ) ;
#284 = ORIENTED_EDGE ( 'NONE', *, *, #83, .F. ) ;
#285 = VERTEX_POINT ( 'NONE', #207 ) ;
#286 = VERTEX_POINT ( 'NONE', #55 ) ;
#287 = CIRCLE ( 'NONE', #6, 0.01598400000000000168 ) ;
#288 = DIRECTION ( 'NONE',  ( 1.000000000000000000, 0.0000000000000000000, 0.0000000000000000000 ) ) ;
#289 = ORIENTED_EDGE ( 'NONE', *, *, #44, .T. ) ;
#290 = EDGE_LOOP ( 'NONE', ( #38, #168 ) ) ;
#291 = SURFACE_SIDE_STYLE ('',( #197 ) ) ;
#292 = DIRECTION ( 'NONE',  ( -1.000000000000000000, 0.0000000000000000000, 0.0000000000000000000 ) ) ;
#293 = COLOUR_RGB ( '',0.7921568627450980005, 0.8196078431372548767, 0.9333333333333333481 ) ;
#294 = AXIS2_PLACEMENT_3D ( 'NONE', #174, #119, #74 ) ;
#295 = DIRECTION ( 'NONE',  ( -0.0000000000000000000, -0.0000000000000000000, -1.000000000000000000 ) ) ;
#296 = FACE_OUTER_BOUND ( 'NONE', #208, .T. ) ;
#297 = ADVANCED_FACE ( 'NONE', ( #156 ), #257, .T. ) ;
#298 = DIRECTION ( 'NONE',  ( -1.000000000000000000, 1.224646799147353207E-16, 0.0000000000000000000 ) ) ;
#299 = CLOSED_SHELL ( 'NONE', ( #49, #120, #132, #262, #32, #141, #53, #103, #212, #202, #297 ) ) ;
#300 = DIRECTION ( 'NONE',  ( 1.224646799147353454E-16, 0.0000000000000000000, 1.000000000000000000 ) ) ;
#301 = CARTESIAN_POINT ( 'NONE',  ( 1.175660927181459403E-17, 0.0000000000000000000, 0.09600000000000000200 ) ) ;
#302 = DIRECTION ( 'NONE',  ( -0.0000000000000000000, -0.0000000000000000000, -1.000000000000000000 ) ) ;
#303 = CARTESIAN_POINT ( 'NONE',  ( 0.01598400000000000515, 1.957475443757129660E-18, 0.01598400000000000168 ) ) ;
#304 = FILL_AREA_STYLE ('',( #29 ) ) ;
#305 = AXIS2_PLACEMENT_3D ( 'NONE', #301, #231, #5 ) ;
#306 = DIRECTION ( 'NONE',  ( 0.1736481776669313859, 0.0000000000000000000, 0.9848077530122077983 ) ) ;
#307 = DIRECTION ( 'NONE',  ( 1.000000000000000000, 0.0000000000000000000, 0.0000000000000000000 ) ) ;
#308 = ORIENTED_EDGE ( 'NONE', *, *, #316, .F. ) ;
#309 = CIRCLE ( 'NONE', #233, 0.06250000000000002776 ) ;
#310 = DIMENSIONAL_EXPONENTS ( 1.000000000000000000, 0.0000000000000000000, 0.0000000000000000000, 0.0000000000000000000, 0.0000000000000000000, 0.0000000000000000000, 0.0000000000000000000 ) ;
#311 = EDGE_LOOP ( 'NONE', ( #36, #186, #218, #265 ) ) ;
#312 =( NAMED_UNIT ( * ) SI_UNIT ( $, .STERADIAN. ) SOLID_ANGLE_UNIT ( ) );
#313 = ORIENTED_EDGE ( 'NONE', *, *, #216, .T. ) ;
#314 = COLOUR_RGB ( '',0.7921568627450980005, 0.8196078431372548767, 0.9333333333333333481 ) ;
#315 = CIRCLE ( 'NONE', #3, 0.06250000000000002776 ) ;
#316 = EDGE_CURVE ( 'NONE', #241, #62, #266, .T. ) ;
#317 = DIRECTION ( 'NONE',  ( 1.000000000000000000, 0.0000000000000000000, 0.0000000000000000000 ) ) ;
#318 = CARTESIAN_POINT ( 'NONE',  ( 0.0000000000000000000, 0.0000000000000000000, 0.0000000000000000000 ) ) ;
#319 = DIRECTION ( 'NONE',  ( -1.000000000000000000, 0.0000000000000000000, 1.335245398554933230E-16 ) ) ;
#320 = PRODUCT_DEFINITION_FORMATION_WITH_SPECIFIED_SOURCE ( 'ANY', '', #165, .NOT_KNOWN. ) ;
#321 = DIRECTION ( 'NONE',  ( -1.000000000000000000, 0.0000000000000000000, 0.0000000000000000000 ) ) ;
#322 = DIRECTION ( 'NONE',  ( -0.0000000000000000000, -0.0000000000000000000, -1.000000000000000000 ) ) ;
#323 = CARTESIAN_POINT ( 'NONE',  ( 1.957475443757130046E-18, 0.0000000000000000000, 0.01598400000000000168 ) ) ;
#324 = CIRCLE ( 'NONE', #27, 0.01598400000000000168 ) ;
#325 = LINE ( 'NONE', #75, #51 ) ;
ENDSEC;
END-ISO-10303-21;
