ISO-10303-21;
HEADER;
FILE_DESCRIPTION (( 'STEP AP214' ),
    '1' );
FILE_NAME ('Micro_GEM-5125-4X.STEP',
    '2021-09-01T20:54:07',
    ( '' ),
    ( '' ),
    'SwSTEP 2.0',
    'SolidWorks 2020',
    '' );
FILE_SCHEMA (( 'AUTOMOTIVE_DESIGN' ));
ENDSEC;

DATA;
#1 = VERTEX_POINT ( 'NONE', #166 ) ;
#2 = CARTESIAN_POINT ( 'NONE',  ( -0.2499999999999998612, 0.0000000000000000000, 1.251417820454904462 ) ) ;
#3 = DIRECTION ( 'NONE',  ( -0.0000000000000000000, -0.0000000000000000000, -1.000000000000000000 ) ) ;
#4 = SURFACE_STYLE_FILL_AREA ( #73 ) ;
#5 =( NAMED_UNIT ( * ) PLANE_ANGLE_UNIT ( ) SI_UNIT ( $, .RADIAN. ) );
#6 = EDGE_CURVE ( 'NONE', #184, #129, #164, .T. ) ;
#7 = AXIS2_PLACEMENT_3D ( 'NONE', #24, #31, #175 ) ;
#8 = ORIENTED_EDGE ( 'NONE', *, *, #10, .T. ) ;
#9 = AXIS2_PLACEMENT_3D ( 'NONE', #124, #274, #158 ) ;
#10 = EDGE_CURVE ( 'NONE', #210, #43, #139, .T. ) ;
#11 = LINE ( 'NONE', #42, #118 ) ;
#12 = DIRECTION ( 'NONE',  ( -1.000000000000000000, 0.0000000000000000000, 1.224646799147353454E-16 ) ) ;
#13 = DIRECTION ( 'NONE',  ( 1.000000000000000000, 0.0000000000000000000, 0.0000000000000000000 ) ) ;
#14 = PRODUCT ( 'Micro_GEM-5125-4X', 'Micro_GEM-5125-4X', '', ( #283 ) ) ;
#15 = CARTESIAN_POINT ( 'NONE',  ( 0.0000000000000000000, 0.0000000000000000000, 3.500000000000000000 ) ) ;
#16 = DIRECTION ( 'NONE',  ( -1.224646799147353207E-16, -0.0000000000000000000, -1.000000000000000000 ) ) ;
#17 = CARTESIAN_POINT ( 'NONE',  ( 3.745650057197989622E-33, 0.0000000000000000000, 3.058555380870514950E-17 ) ) ;
#18 = CARTESIAN_POINT ( 'NONE',  ( 0.2500000000000000000, 3.061616997868383018E-17, 3.500000000000000000 ) ) ;
#19 = ORIENTED_EDGE ( 'NONE', *, *, #177, .T. ) ;
#20 = AXIS2_PLACEMENT_3D ( 'NONE', #189, #71, #231 ) ;
#21 = ORIENTED_EDGE ( 'NONE', *, *, #6, .T. ) ;
#22 = LINE ( 'NONE', #220, #219 ) ;
#23 = CARTESIAN_POINT ( 'NONE',  ( -0.2497499999999999998, 0.0000000000000000000, 3.058555380870514950E-17 ) ) ;
#24 = CARTESIAN_POINT ( 'NONE',  ( 0.0000000000000000000, 0.0000000000000000000, 0.0000000000000000000 ) ) ;
#25 = CIRCLE ( 'NONE', #282, 0.2349999999999995426 ) ;
#26 = CARTESIAN_POINT ( 'NONE',  ( 0.0000000000000000000, 0.0000000000000000000, 0.0000000000000000000 ) ) ;
#27 = DIRECTION ( 'NONE',  ( 1.000000000000000000, 0.0000000000000000000, 0.0000000000000000000 ) ) ;
#28 = UNCERTAINTY_MEASURE_WITH_UNIT (LENGTH_MEASURE( 1.000000000000000082E-05 ), #48, 'distance_accuracy_value', 'NONE');
#29 = ADVANCED_FACE ( 'NONE', ( #287 ), #138, .T. ) ;
#30 = ORIENTED_EDGE ( 'NONE', *, *, #297, .F. ) ;
#31 = DIRECTION ( 'NONE',  ( 0.0000000000000000000, 0.0000000000000000000, 1.000000000000000000 ) ) ;
#32 = EDGE_LOOP ( 'NONE', ( #130, #137, #275, #40 ) ) ;
#33 = DIRECTION ( 'NONE',  ( 0.0000000000000000000, 0.0000000000000000000, 1.000000000000000000 ) ) ;
#34 = EDGE_CURVE ( 'NONE', #68, #129, #163, .T. ) ;
#35 = ORIENTED_EDGE ( 'NONE', *, *, #293, .F. ) ;
#36 = ORIENTED_EDGE ( 'NONE', *, *, #262, .F. ) ;
#37 = PRODUCT_DEFINITION_FORMATION_WITH_SPECIFIED_SOURCE ( 'ANY', '', #14, .NOT_KNOWN. ) ;
#38 = EDGE_CURVE ( 'NONE', #257, #68, #294, .T. ) ;
#39 = UNCERTAINTY_MEASURE_WITH_UNIT (LENGTH_MEASURE( 1.000000000000000082E-05 ), #170, 'distance_accuracy_value', 'NONE');
#40 = ORIENTED_EDGE ( 'NONE', *, *, #152, .F. ) ;
#41 = ORIENTED_EDGE ( 'NONE', *, *, #127, .T. ) ;
#42 = CARTESIAN_POINT ( 'NONE',  ( -0.2349999999999995426, 0.0000000000000000000, 3.500000000000000000 ) ) ;
#43 = VERTEX_POINT ( 'NONE', #288 ) ;
#44 = CIRCLE ( 'NONE', #155, 0.2497499999999999998 ) ;
#45 = DIRECTION ( 'NONE',  ( -0.0000000000000000000, -0.0000000000000000000, -1.000000000000000000 ) ) ;
#46 = VECTOR ( 'NONE', #246, 39.37007874015748143 ) ;
#47 = EDGE_CURVE ( 'NONE', #129, #263, #280, .T. ) ;
#48 =( CONVERSION_BASED_UNIT ( 'INCH', #132 ) LENGTH_UNIT ( ) NAMED_UNIT ( #82 ) );
#49 = FILL_AREA_STYLE ('',( #299 ) ) ;
#50 = LINE ( 'NONE', #95, #193 ) ;
#51 = DIRECTION ( 'NONE',  ( -1.000000000000000000, 0.0000000000000000000, 0.0000000000000000000 ) ) ;
#52 = SURFACE_SIDE_STYLE ('',( #276 ) ) ;
#53 = CIRCLE ( 'NONE', #110, 0.2349999999999995426 ) ;
#54 = FACE_OUTER_BOUND ( 'NONE', #123, .T. ) ;
#55 = CONICAL_SURFACE ( 'NONE', #69, 0.2349999999999995426, 0.7853981633974551624 ) ;
#56 = PRODUCT_DEFINITION ( 'UNKNOWN', '', #37, #141 ) ;
#57 = ORIENTED_EDGE ( 'NONE', *, *, #83, .F. ) ;
#58 = CYLINDRICAL_SURFACE ( 'NONE', #186, 0.2500000000000000000 ) ;
#59 = ORIENTED_EDGE ( 'NONE', *, *, #284, .T. ) ;
#60 = DIRECTION ( 'NONE',  ( -1.000000000000000000, 0.0000000000000000000, 0.0000000000000000000 ) ) ;
#61 = ADVANCED_FACE ( 'NONE', ( #109 ), #204, .T. ) ;
#62 = STYLED_ITEM ( 'NONE', ( #212 ), #258 ) ;
#63 =( LENGTH_UNIT ( ) NAMED_UNIT ( * ) SI_UNIT ( $, .METRE. ) );
#64 = ORIENTED_EDGE ( 'NONE', *, *, #196, .F. ) ;
#65 = VERTEX_POINT ( 'NONE', #229 ) ;
#66 = CARTESIAN_POINT ( 'NONE',  ( -0.2497499999999998888, 3.060086189369449292E-17, 1.250000000000000000 ) ) ;
#67 = DIRECTION ( 'NONE',  ( -1.224646799147353207E-16, -0.0000000000000000000, -1.000000000000000000 ) ) ;
#68 = VERTEX_POINT ( 'NONE', #285 ) ;
#69 = AXIS2_PLACEMENT_3D ( 'NONE', #93, #188, #51 ) ;
#70 = ORIENTED_EDGE ( 'NONE', *, *, #174, .T. ) ;
#71 = DIRECTION ( 'NONE',  ( 1.224646799147353207E-16, 0.0000000000000000000, 1.000000000000000000 ) ) ;
#72 = AXIS2_PLACEMENT_3D ( 'NONE', #136, #16, #114 ) ;
#73 = FILL_AREA_STYLE ('',( #208 ) ) ;
#74 =( LENGTH_UNIT ( ) NAMED_UNIT ( * ) SI_UNIT ( $, .METRE. ) );
#75 = EDGE_CURVE ( 'NONE', #65, #1, #53, .T. ) ;
#76 = AXIS2_PLACEMENT_3D ( 'NONE', #249, #272, #172 ) ;
#77 = CARTESIAN_POINT ( 'NONE',  ( 1.532544828216055817E-16, 0.0000000000000000000, 1.251417820454904462 ) ) ;
#78 = PRESENTATION_STYLE_ASSIGNMENT (( #102 ) ) ;
#79 =( CONVERSION_BASED_UNIT ( 'INCH', #120 ) LENGTH_UNIT ( ) NAMED_UNIT ( #105 ) );
#80 = MANIFOLD_SOLID_BREP ( 'Cut-Revolve1', #104 ) ;
#81 = AXIS2_PLACEMENT_3D ( 'NONE', #117, #239, #167 ) ;
#82 = DIMENSIONAL_EXPONENTS ( 1.000000000000000000, 0.0000000000000000000, 0.0000000000000000000, 0.0000000000000000000, 0.0000000000000000000, 0.0000000000000000000, 0.0000000000000000000 ) ;
#83 = EDGE_CURVE ( 'NONE', #43, #142, #157, .T. ) ;
#84 = VECTOR ( 'NONE', #185, 39.37007874015747433 ) ;
#85 = DIRECTION ( 'NONE',  ( 0.0000000000000000000, 0.0000000000000000000, -1.000000000000000000 ) ) ;
#86 = ADVANCED_FACE ( 'NONE', ( #161 ), #106, .T. ) ;
#87 = DIRECTION ( 'NONE',  ( -1.224646799147353207E-16, -0.0000000000000000000, -1.000000000000000000 ) ) ;
#88 = DIRECTION ( 'NONE',  ( 0.0000000000000000000, 0.0000000000000000000, -1.000000000000000000 ) ) ;
#89 = ORIENTED_EDGE ( 'NONE', *, *, #262, .T. ) ;
#90 = FACE_OUTER_BOUND ( 'NONE', #151, .T. ) ;
#91 = DIRECTION ( 'NONE',  ( 0.7071067811865523467, 8.659560562354992023E-17, -0.7071067811865425767 ) ) ;
#92 = ORIENTED_EDGE ( 'NONE', *, *, #98, .T. ) ;
#93 = CARTESIAN_POINT ( 'NONE',  ( 0.0000000000000000000, 0.0000000000000000000, 3.500000000000000000 ) ) ;
#94 = CIRCLE ( 'NONE', #247, 0.2500000000000000000 ) ;
#95 = CARTESIAN_POINT ( 'NONE',  ( -0.2500000000000000000, 0.0000000000000000000, 3.500000000000000000 ) ) ;
#96 = AXIS2_PLACEMENT_3D ( 'NONE', #17, #87, #286 ) ;
#97 = ORIENTED_EDGE ( 'NONE', *, *, #174, .F. ) ;
#98 = EDGE_CURVE ( 'NONE', #1, #68, #22, .T. ) ;
#99 = LINE ( 'NONE', #145, #84 ) ;
#100 = SURFACE_SIDE_STYLE ('',( #4 ) ) ;
#101 = ORIENTED_EDGE ( 'NONE', *, *, #10, .F. ) ;
#102 = SURFACE_STYLE_USAGE ( .BOTH. , #100 ) ;
#103 = CARTESIAN_POINT ( 'NONE',  ( -0.2500000000000000000, 0.0000000000000000000, 3.484999999999999432 ) ) ;
#104 = CLOSED_SHELL ( 'NONE', ( #29, #61, #240, #214, #169, #200, #86, #279, #259, #222 ) ) ;
#105 = DIMENSIONAL_EXPONENTS ( 1.000000000000000000, 0.0000000000000000000, 0.0000000000000000000, 0.0000000000000000000, 0.0000000000000000000, 0.0000000000000000000, 0.0000000000000000000 ) ;
#106 = CONICAL_SURFACE ( 'NONE', #140, 0.2349999999999995426, 0.7853981633974551624 ) ;
#107 =( NAMED_UNIT ( * ) SI_UNIT ( $, .STERADIAN. ) SOLID_ANGLE_UNIT ( ) );
#108 = DIRECTION ( 'NONE',  ( 1.000000000000000000, 0.0000000000000000000, -0.0000000000000000000 ) ) ;
#109 = FACE_OUTER_BOUND ( 'NONE', #111, .T. ) ;
#110 = AXIS2_PLACEMENT_3D ( 'NONE', #191, #281, #228 ) ;
#111 = EDGE_LOOP ( 'NONE', ( #168, #59, #207, #215 ) ) ;
#112 = CARTESIAN_POINT ( 'NONE',  ( 0.2497500000000001386, 0.0000000000000000000, 1.250000000000000000 ) ) ;
#113 = PLANE ( 'NONE',  #7 ) ;
#114 = DIRECTION ( 'NONE',  ( -1.000000000000000000, 0.0000000000000000000, 1.224646799147353454E-16 ) ) ;
#115 = ORIENTED_EDGE ( 'NONE', *, *, #34, .T. ) ;
#116 = ORIENTED_EDGE ( 'NONE', *, *, #152, .T. ) ;
#117 = CARTESIAN_POINT ( 'NONE',  ( 1.530808498934191571E-16, 0.0000000000000000000, 1.250000000000000000 ) ) ;
#118 = VECTOR ( 'NONE', #226, 39.37007874015748854 ) ;
#119 = CARTESIAN_POINT ( 'NONE',  ( 0.0000000000000000000, 0.0000000000000000000, 3.500000000000000000 ) ) ;
#120 = LENGTH_MEASURE_WITH_UNIT ( LENGTH_MEASURE( 0.02539999999999999897 ), #74 );
#121 =( NAMED_UNIT ( * ) SI_UNIT ( $, .STERADIAN. ) SOLID_ANGLE_UNIT ( ) );
#122 = AXIS2_PLACEMENT_3D ( 'NONE', #180, #45, #135 ) ;
#123 = EDGE_LOOP ( 'NONE', ( #211, #92, #273, #265 ) ) ;
#124 = CARTESIAN_POINT ( 'NONE',  ( 1.532544828216055817E-16, 0.0000000000000000000, 1.251417820454904462 ) ) ;
#125 = VECTOR ( 'NONE', #153, 39.37007874015748143 ) ;
#126 = SURFACE_STYLE_USAGE ( .BOTH. , #52 ) ;
#127 = EDGE_CURVE ( 'NONE', #210, #184, #234, .T. ) ;
#128 = COLOUR_RGB ( '',0.7921568627450980005, 0.8196078431372548767, 0.9333333333333333481 ) ;
#129 = VERTEX_POINT ( 'NONE', #179 ) ;
#130 = ORIENTED_EDGE ( 'NONE', *, *, #98, .F. ) ;
#131 = EDGE_CURVE ( 'NONE', #65, #257, #11, .T. ) ;
#132 = LENGTH_MEASURE_WITH_UNIT ( LENGTH_MEASURE( 0.02539999999999999897 ), #63 );
#133 = CIRCLE ( 'NONE', #268, 0.2500000000000000000 ) ;
#134 = CARTESIAN_POINT ( 'NONE',  ( 0.2497499999999999998, 3.058555380870514950E-17, 0.0000000000000000000 ) ) ;
#135 = DIRECTION ( 'NONE',  ( -1.000000000000000000, 0.0000000000000000000, 0.0000000000000000000 ) ) ;
#136 = CARTESIAN_POINT ( 'NONE',  ( 0.0000000000000000000, 0.0000000000000000000, 0.0000000000000000000 ) ) ;
#137 = ORIENTED_EDGE ( 'NONE', *, *, #75, .F. ) ;
#138 = CYLINDRICAL_SURFACE ( 'NONE', #72, 0.2497499999999999998 ) ;
#139 = LINE ( 'NONE', #23, #125 ) ;
#140 = AXIS2_PLACEMENT_3D ( 'NONE', #15, #85, #60 ) ;
#141 = PRODUCT_DEFINITION_CONTEXT ( 'detailed design', #171, 'design' ) ;
#142 = VERTEX_POINT ( 'NONE', #134 ) ;
#143 = CYLINDRICAL_SURFACE ( 'NONE', #146, 0.2497499999999999998 ) ;
#144 = COLOUR_RGB ( '',0.7921568627450980005, 0.8196078431372548767, 0.9333333333333333481 ) ;
#145 = CARTESIAN_POINT ( 'NONE',  ( -0.2497499999999998888, 3.058555380870514950E-17, 1.250000000000000000 ) ) ;
#146 = AXIS2_PLACEMENT_3D ( 'NONE', #26, #213, #298 ) ;
#147 = PRESENTATION_LAYER_ASSIGNMENT (  '', '', ( #295 ) ) ;
#148 = ORIENTED_EDGE ( 'NONE', *, *, #284, .F. ) ;
#149 = CARTESIAN_POINT ( 'NONE',  ( 0.0000000000000000000, 0.0000000000000000000, 0.0000000000000000000 ) ) ;
#150 = APPLICATION_CONTEXT ( 'automotive_design' ) ;
#151 = EDGE_LOOP ( 'NONE', ( #255, #19 ) ) ;
#152 = EDGE_CURVE ( 'NONE', #68, #257, #133, .T. ) ;
#153 = DIRECTION ( 'NONE',  ( -1.224646799147353207E-16, -0.0000000000000000000, -1.000000000000000000 ) ) ;
#154 = DIMENSIONAL_EXPONENTS ( 1.000000000000000000, 0.0000000000000000000, 0.0000000000000000000, 0.0000000000000000000, 0.0000000000000000000, 0.0000000000000000000, 0.0000000000000000000 ) ;
#155 = AXIS2_PLACEMENT_3D ( 'NONE', #183, #260, #12 ) ;
#156 =( GEOMETRIC_REPRESENTATION_CONTEXT ( 3 ) GLOBAL_UNCERTAINTY_ASSIGNED_CONTEXT ( ( #28 ) ) GLOBAL_UNIT_ASSIGNED_CONTEXT ( ( #48, #244, #225 ) ) REPRESENTATION_CONTEXT ( 'NONE', 'WORKASPACE' ) );
#157 = CIRCLE ( 'NONE', #96, 0.2497499999999999998 ) ;
#158 = DIRECTION ( 'NONE',  ( 1.000000000000000000, 0.0000000000000000000, 0.0000000000000000000 ) ) ;
#159 = EDGE_LOOP ( 'NONE', ( #64, #89, #8, #97 ) ) ;
#160 = VECTOR ( 'NONE', #67, 39.37007874015748143 ) ;
#161 = FACE_OUTER_BOUND ( 'NONE', #32, .T. ) ;
#162 = VECTOR ( 'NONE', #3, 39.37007874015748143 ) ;
#163 = LINE ( 'NONE', #18, #162 ) ;
#164 = LINE ( 'NONE', #245, #46 ) ;
#165 = FACE_OUTER_BOUND ( 'NONE', #243, .T. ) ;
#166 = CARTESIAN_POINT ( 'NONE',  ( 0.2349999999999995426, 2.969768487932328033E-17, 3.500000000000000000 ) ) ;
#167 = DIRECTION ( 'NONE',  ( -1.000000000000000000, 0.0000000000000000000, 0.0000000000000000000 ) ) ;
#168 = ORIENTED_EDGE ( 'NONE', *, *, #127, .F. ) ;
#169 = ADVANCED_FACE ( 'NONE', ( #221 ), #58, .T. ) ;
#170 =( CONVERSION_BASED_UNIT ( 'INCH', #206 ) LENGTH_UNIT ( ) NAMED_UNIT ( #154 ) );
#171 = APPLICATION_CONTEXT ( 'automotive_design' ) ;
#172 = DIRECTION ( 'NONE',  ( -1.000000000000000000, 0.0000000000000000000, 0.0000000000000000000 ) ) ;
#173 = EDGE_LOOP ( 'NONE', ( #148, #36, #21, #267 ) ) ;
#174 = EDGE_CURVE ( 'NONE', #142, #43, #44, .T. ) ;
#175 = DIRECTION ( 'NONE',  ( 1.000000000000000000, 0.0000000000000000000, -0.0000000000000000000 ) ) ;
#176 = CARTESIAN_POINT ( 'NONE',  ( 0.0000000000000000000, 0.0000000000000000000, 3.484999999999999432 ) ) ;
#177 = EDGE_CURVE ( 'NONE', #1, #65, #25, .T. ) ;
#178 = AXIS2_PLACEMENT_3D ( 'NONE', #149, #33, #233 ) ;
#179 = CARTESIAN_POINT ( 'NONE',  ( 0.2500000000000001110, 3.061616997868384251E-17, 1.251417820454904462 ) ) ;
#180 = CARTESIAN_POINT ( 'NONE',  ( 0.0000000000000000000, 0.0000000000000000000, 3.500000000000000000 ) ) ;
#181 = DIRECTION ( 'NONE',  ( -0.0000000000000000000, -0.0000000000000000000, -1.000000000000000000 ) ) ;
#182 = AXIS2_PLACEMENT_3D ( 'NONE', #237, #289, #13 ) ;
#183 = CARTESIAN_POINT ( 'NONE',  ( 3.745650057197989622E-33, 0.0000000000000000000, 3.058555380870514950E-17 ) ) ;
#184 = VERTEX_POINT ( 'NONE', #112 ) ;
#185 = DIRECTION ( 'NONE',  ( -0.1736481776669311083, 2.126576849575782084E-17, 0.9848077530122080203 ) ) ;
#186 = AXIS2_PLACEMENT_3D ( 'NONE', #264, #181, #248 ) ;
#187 = APPLICATION_PROTOCOL_DEFINITION ( 'draft international standard', 'automotive_design', 1998, #150 ) ;
#188 = DIRECTION ( 'NONE',  ( 0.0000000000000000000, 0.0000000000000000000, -1.000000000000000000 ) ) ;
#189 = CARTESIAN_POINT ( 'NONE',  ( 1.530808498934191571E-16, 0.0000000000000000000, 1.250000000000000000 ) ) ;
#190 = EDGE_LOOP ( 'NONE', ( #252, #116, #271, #224 ) ) ;
#191 = CARTESIAN_POINT ( 'NONE',  ( 0.0000000000000000000, 0.0000000000000000000, 3.500000000000000000 ) ) ;
#192 = PRODUCT_RELATED_PRODUCT_CATEGORY ( 'part', '', ( #14 ) ) ;
#193 = VECTOR ( 'NONE', #277, 39.37007874015748143 ) ;
#194 = ORIENTED_EDGE ( 'NONE', *, *, #196, .T. ) ;
#195 = APPLICATION_PROTOCOL_DEFINITION ( 'draft international standard', 'automotive_design', 1998, #171 ) ;
#196 = EDGE_CURVE ( 'NONE', #184, #142, #205, .T. ) ;
#197 = DIRECTION ( 'NONE',  ( 1.000000000000000000, 0.0000000000000000000, 0.0000000000000000000 ) ) ;
#198 = EDGE_LOOP ( 'NONE', ( #230, #70 ) ) ;
#199 = CARTESIAN_POINT ( 'NONE',  ( 0.0000000000000000000, 0.0000000000000000000, 3.500000000000000000 ) ) ;
#200 = ADVANCED_FACE ( 'NONE', ( #90 ), #261, .T. ) ;
#201 = CARTESIAN_POINT ( 'NONE',  ( 0.0000000000000000000, 0.0000000000000000000, 3.484999999999999432 ) ) ;
#202 =( GEOMETRIC_REPRESENTATION_CONTEXT ( 3 ) GLOBAL_UNCERTAINTY_ASSIGNED_CONTEXT ( ( #266 ) ) GLOBAL_UNIT_ASSIGNED_CONTEXT ( ( #79, #250, #121 ) ) REPRESENTATION_CONTEXT ( 'NONE', 'WORKASPACE' ) );
#203 = DIRECTION ( 'NONE',  ( 1.000000000000000000, 0.0000000000000000000, 0.0000000000000000000 ) ) ;
#204 = CONICAL_SURFACE ( 'NONE', #182, 0.2497499999999999998, 0.1745329251994338082 ) ;
#205 = LINE ( 'NONE', #291, #160 ) ;
#206 = LENGTH_MEASURE_WITH_UNIT ( LENGTH_MEASURE( 0.02539999999999999897 ), #253 );
#207 = ORIENTED_EDGE ( 'NONE', *, *, #297, .T. ) ;
#208 = FILL_AREA_STYLE_COLOUR ( '', #144 ) ;
#209 = EDGE_LOOP ( 'NONE', ( #41, #194, #57, #101 ) ) ;
#210 = VERTEX_POINT ( 'NONE', #66 ) ;
#211 = ORIENTED_EDGE ( 'NONE', *, *, #177, .F. ) ;
#212 = PRESENTATION_STYLE_ASSIGNMENT (( #126 ) ) ;
#213 = DIRECTION ( 'NONE',  ( -1.224646799147353207E-16, -0.0000000000000000000, -1.000000000000000000 ) ) ;
#214 = ADVANCED_FACE ( 'NONE', ( #165 ), #290, .T. ) ;
#215 = ORIENTED_EDGE ( 'NONE', *, *, #6, .F. ) ;
#216 = CIRCLE ( 'NONE', #76, 0.2497499999999999998 ) ;
#217 = MECHANICAL_DESIGN_GEOMETRIC_PRESENTATION_REPRESENTATION (  '', ( #295 ), #156 ) ;
#218 = DIRECTION ( 'NONE',  ( 0.0000000000000000000, 0.0000000000000000000, -1.000000000000000000 ) ) ;
#219 = VECTOR ( 'NONE', #91, 39.37007874015748854 ) ;
#220 = CARTESIAN_POINT ( 'NONE',  ( 0.2349999999999995426, 2.877919977996274281E-17, 3.500000000000000000 ) ) ;
#221 = FACE_OUTER_BOUND ( 'NONE', #190, .T. ) ;
#222 = ADVANCED_FACE ( 'NONE', ( #223 ), #113, .F. ) ;
#223 = FACE_OUTER_BOUND ( 'NONE', #198, .T. ) ;
#224 = ORIENTED_EDGE ( 'NONE', *, *, #47, .F. ) ;
#225 =( NAMED_UNIT ( * ) SI_UNIT ( $, .STERADIAN. ) SOLID_ANGLE_UNIT ( ) );
#226 = DIRECTION ( 'NONE',  ( -0.7071067811865523467, 0.0000000000000000000, -0.7071067811865425767 ) ) ;
#227 = FACE_OUTER_BOUND ( 'NONE', #159, .T. ) ;
#228 = DIRECTION ( 'NONE',  ( 1.000000000000000000, 0.0000000000000000000, 0.0000000000000000000 ) ) ;
#229 = CARTESIAN_POINT ( 'NONE',  ( -0.2349999999999995426, 0.0000000000000000000, 3.500000000000000000 ) ) ;
#230 = ORIENTED_EDGE ( 'NONE', *, *, #83, .T. ) ;
#231 = DIRECTION ( 'NONE',  ( 1.000000000000000000, 0.0000000000000000000, 0.0000000000000000000 ) ) ;
#232 = DIRECTION ( 'NONE',  ( -1.224646799147353207E-16, -0.0000000000000000000, -1.000000000000000000 ) ) ;
#233 = DIRECTION ( 'NONE',  ( 1.000000000000000000, 0.0000000000000000000, 0.0000000000000000000 ) ) ;
#234 = CIRCLE ( 'NONE', #81, 0.2497499999999999998 ) ;
#235 = AXIS2_PLACEMENT_3D ( 'NONE', #199, #296, #108 ) ;
#236 = AXIS2_PLACEMENT_3D ( 'NONE', #176, #218, #197 ) ;
#237 = CARTESIAN_POINT ( 'NONE',  ( 1.530808498934191571E-16, 0.0000000000000000000, 1.250000000000000000 ) ) ;
#238 = PRODUCT_DEFINITION_SHAPE ( 'NONE', 'NONE',  #56 ) ;
#239 = DIRECTION ( 'NONE',  ( -1.224646799147353207E-16, -0.0000000000000000000, -1.000000000000000000 ) ) ;
#240 = ADVANCED_FACE ( 'NONE', ( #54 ), #55, .T. ) ;
#241 = CONICAL_SURFACE ( 'NONE', #20, 0.2497499999999999998, 0.1745329251994338082 ) ;
#242 = DIRECTION ( 'NONE',  ( 1.000000000000000000, 0.0000000000000000000, 0.0000000000000000000 ) ) ;
#243 = EDGE_LOOP ( 'NONE', ( #270, #115, #30, #35 ) ) ;
#244 =( NAMED_UNIT ( * ) PLANE_ANGLE_UNIT ( ) SI_UNIT ( $, .RADIAN. ) );
#245 = CARTESIAN_POINT ( 'NONE',  ( 0.2497500000000001386, 0.0000000000000000000, 1.250000000000000000 ) ) ;
#246 = DIRECTION ( 'NONE',  ( 0.1736481776669313026, 0.0000000000000000000, 0.9848077530122077983 ) ) ;
#247 = AXIS2_PLACEMENT_3D ( 'NONE', #77, #232, #27 ) ;
#248 = DIRECTION ( 'NONE',  ( -1.000000000000000000, 0.0000000000000000000, 0.0000000000000000000 ) ) ;
#249 = CARTESIAN_POINT ( 'NONE',  ( 1.530808498934191571E-16, 0.0000000000000000000, 1.250000000000000000 ) ) ;
#250 =( NAMED_UNIT ( * ) PLANE_ANGLE_UNIT ( ) SI_UNIT ( $, .RADIAN. ) );
#251 = PRESENTATION_LAYER_ASSIGNMENT (  '', '', ( #62 ) ) ;
#252 = ORIENTED_EDGE ( 'NONE', *, *, #34, .F. ) ;
#253 =( LENGTH_UNIT ( ) NAMED_UNIT ( * ) SI_UNIT ( $, .METRE. ) );
#254 = MECHANICAL_DESIGN_GEOMETRIC_PRESENTATION_REPRESENTATION (  '', ( #62 ), #278 ) ;
#255 = ORIENTED_EDGE ( 'NONE', *, *, #75, .T. ) ;
#256 = SHAPE_DEFINITION_REPRESENTATION ( #238, #258 ) ;
#257 = VERTEX_POINT ( 'NONE', #103 ) ;
#258 = ADVANCED_BREP_SHAPE_REPRESENTATION ( 'Micro_GEM-5125-4X', ( #80, #178 ), #202 ) ;
#259 = ADVANCED_FACE ( 'NONE', ( #227 ), #143, .T. ) ;
#260 = DIRECTION ( 'NONE',  ( -1.224646799147353207E-16, -0.0000000000000000000, -1.000000000000000000 ) ) ;
#261 = PLANE ( 'NONE',  #235 ) ;
#262 = EDGE_CURVE ( 'NONE', #184, #210, #216, .T. ) ;
#263 = VERTEX_POINT ( 'NONE', #2 ) ;
#264 = CARTESIAN_POINT ( 'NONE',  ( 0.0000000000000000000, 0.0000000000000000000, 3.500000000000000000 ) ) ;
#265 = ORIENTED_EDGE ( 'NONE', *, *, #131, .F. ) ;
#266 = UNCERTAINTY_MEASURE_WITH_UNIT (LENGTH_MEASURE( 1.000000000000000082E-05 ), #79, 'distance_accuracy_value', 'NONE');
#267 = ORIENTED_EDGE ( 'NONE', *, *, #47, .T. ) ;
#268 = AXIS2_PLACEMENT_3D ( 'NONE', #201, #88, #203 ) ;
#269 = FACE_OUTER_BOUND ( 'NONE', #173, .T. ) ;
#270 = ORIENTED_EDGE ( 'NONE', *, *, #38, .T. ) ;
#271 = ORIENTED_EDGE ( 'NONE', *, *, #293, .T. ) ;
#272 = DIRECTION ( 'NONE',  ( -1.224646799147353207E-16, -0.0000000000000000000, -1.000000000000000000 ) ) ;
#273 = ORIENTED_EDGE ( 'NONE', *, *, #38, .F. ) ;
#274 = DIRECTION ( 'NONE',  ( -1.224646799147353207E-16, -0.0000000000000000000, -1.000000000000000000 ) ) ;
#275 = ORIENTED_EDGE ( 'NONE', *, *, #131, .T. ) ;
#276 = SURFACE_STYLE_FILL_AREA ( #49 ) ;
#277 = DIRECTION ( 'NONE',  ( -0.0000000000000000000, -0.0000000000000000000, -1.000000000000000000 ) ) ;
#278 =( GEOMETRIC_REPRESENTATION_CONTEXT ( 3 ) GLOBAL_UNCERTAINTY_ASSIGNED_CONTEXT ( ( #39 ) ) GLOBAL_UNIT_ASSIGNED_CONTEXT ( ( #170, #5, #107 ) ) REPRESENTATION_CONTEXT ( 'NONE', 'WORKASPACE' ) );
#279 = ADVANCED_FACE ( 'NONE', ( #269 ), #241, .T. ) ;
#280 = CIRCLE ( 'NONE', #9, 0.2500000000000000000 ) ;
#281 = DIRECTION ( 'NONE',  ( 0.0000000000000000000, 0.0000000000000000000, 1.000000000000000000 ) ) ;
#282 = AXIS2_PLACEMENT_3D ( 'NONE', #119, #292, #242 ) ;
#283 = PRODUCT_CONTEXT ( 'NONE', #150, 'mechanical' ) ;
#284 = EDGE_CURVE ( 'NONE', #210, #263, #99, .T. ) ;
#285 = CARTESIAN_POINT ( 'NONE',  ( 0.2500000000000000000, 3.061616997868383018E-17, 3.484999999999999432 ) ) ;
#286 = DIRECTION ( 'NONE',  ( -1.000000000000000000, 0.0000000000000000000, 1.224646799147353454E-16 ) ) ;
#287 = FACE_OUTER_BOUND ( 'NONE', #209, .T. ) ;
#288 = CARTESIAN_POINT ( 'NONE',  ( -0.2497499999999999998, 0.0000000000000000000, 6.117110761741029900E-17 ) ) ;
#289 = DIRECTION ( 'NONE',  ( 1.224646799147353207E-16, 0.0000000000000000000, 1.000000000000000000 ) ) ;
#290 = CYLINDRICAL_SURFACE ( 'NONE', #122, 0.2500000000000000000 ) ;
#291 = CARTESIAN_POINT ( 'NONE',  ( 0.2497499999999999998, 3.058555380870514950E-17, -3.058555380870514950E-17 ) ) ;
#292 = DIRECTION ( 'NONE',  ( 0.0000000000000000000, 0.0000000000000000000, 1.000000000000000000 ) ) ;
#293 = EDGE_CURVE ( 'NONE', #257, #263, #50, .T. ) ;
#294 = CIRCLE ( 'NONE', #236, 0.2500000000000000000 ) ;
#295 = STYLED_ITEM ( 'NONE', ( #78 ), #80 ) ;
#296 = DIRECTION ( 'NONE',  ( 0.0000000000000000000, 0.0000000000000000000, 1.000000000000000000 ) ) ;
#297 = EDGE_CURVE ( 'NONE', #263, #129, #94, .T. ) ;
#298 = DIRECTION ( 'NONE',  ( -1.000000000000000000, 0.0000000000000000000, 1.224646799147353454E-16 ) ) ;
#299 = FILL_AREA_STYLE_COLOUR ( '', #128 ) ;
ENDSEC;
END-ISO-10303-21;
