ISO-10303-21;
HEADER;
FILE_DESCRIPTION (( 'STEP AP214' ),
    '1' );
FILE_NAME ('Micro_BMSM-017-4X.STEP',
    '2021-09-03T15:51:21',
    ( '' ),
    ( '' ),
    'SwSTEP 2.0',
    'SolidWorks 2020',
    '' );
FILE_SCHEMA (( 'AUTOMOTIVE_DESIGN' ));
ENDSEC;

DATA;
#1 = CIRCLE ( 'NONE', #254, 0.05905500000000000332 ) ;
#2 = PRODUCT_DEFINITION_CONTEXT ( 'detailed design', #169, 'design' ) ;
#3 = DIRECTION ( 'NONE',  ( 0.0000000000000000000, 0.0000000000000000000, -1.000000000000000000 ) ) ;
#4 = VECTOR ( 'NONE', #319, 39.37007874015748143 ) ;
#5 = DIRECTION ( 'NONE',  ( 1.000000000000000000, 0.0000000000000000000, 0.0000000000000000000 ) ) ;
#6 =( GEOMETRIC_REPRESENTATION_CONTEXT ( 3 ) GLOBAL_UNCERTAINTY_ASSIGNED_CONTEXT ( ( #290 ) ) GLOBAL_UNIT_ASSIGNED_CONTEXT ( ( #16, #311, #243 ) ) REPRESENTATION_CONTEXT ( 'NONE', 'WORKASPACE' ) );
#7 = DIRECTION ( 'NONE',  ( 1.224646799147353207E-16, 0.0000000000000000000, 1.000000000000000000 ) ) ;
#8 = EDGE_LOOP ( 'NONE', ( #121, #141, #182 ) ) ;
#9 = CARTESIAN_POINT ( 'NONE',  ( 0.04405499999999973326, 6.313666573004162521E-18, 1.496062999999999921 ) ) ;
#10 = CARTESIAN_POINT ( 'NONE',  ( 1.205358612060782468E-17, 0.0000000000000000000, 0.09842500000000001248 ) ) ;
#11 = ORIENTED_EDGE ( 'NONE', *, *, #283, .F. ) ;
#12 = PRESENTATION_STYLE_ASSIGNMENT (( #15 ) ) ;
#13 = ADVANCED_FACE ( 'NONE', ( #115 ), #19, .T. ) ;
#14 = EDGE_LOOP ( 'NONE', ( #292, #171, #63 ) ) ;
#15 = SURFACE_STYLE_USAGE ( .BOTH. , #308 ) ;
#16 =( CONVERSION_BASED_UNIT ( 'INCH', #106 ) LENGTH_UNIT ( ) NAMED_UNIT ( #48 ) );
#17 = CIRCLE ( 'NONE', #191, 0.03343103549999999757 ) ;
#18 = LINE ( 'NONE', #241, #294 ) ;
#19 = CYLINDRICAL_SURFACE ( 'NONE', #76, 0.03343103549999999757 ) ;
#20 = DIRECTION ( 'NONE',  ( -1.224646799147353207E-16, -0.0000000000000000000, -1.000000000000000000 ) ) ;
#21 = DIRECTION ( 'NONE',  ( 0.0000000000000000000, 0.0000000000000000000, 1.000000000000000000 ) ) ;
#22 = STYLED_ITEM ( 'NONE', ( #12 ), #96 ) ;
#23 = DIRECTION ( 'NONE',  ( -1.000000000000000000, 0.0000000000000000000, 1.276811330029071883E-16 ) ) ;
#24 = ADVANCED_FACE ( 'NONE', ( #217 ), #64, .T. ) ;
#25 = AXIS2_PLACEMENT_3D ( 'NONE', #199, #134, #85 ) ;
#26 = AXIS2_PLACEMENT_3D ( 'NONE', #262, #78, #232 ) ;
#27 = DIRECTION ( 'NONE',  ( 1.000000000000000000, 0.0000000000000000000, 0.0000000000000000000 ) ) ;
#28 = ORIENTED_EDGE ( 'NONE', *, *, #325, .F. ) ;
#29 = DIRECTION ( 'NONE',  ( -1.000000000000000000, 0.0000000000000000000, 0.0000000000000000000 ) ) ;
#30 = FACE_OUTER_BOUND ( 'NONE', #206, .T. ) ;
#31 = EDGE_LOOP ( 'NONE', ( #240, #231, #280, #45 ) ) ;
#32 = LINE ( 'NONE', #133, #72 ) ;
#33 = CYLINDRICAL_SURFACE ( 'NONE', #219, 0.03343103549999999757 ) ;
#34 = DIRECTION ( 'NONE',  ( 0.0000000000000000000, 0.0000000000000000000, -1.000000000000000000 ) ) ;
#35 = EDGE_CURVE ( 'NONE', #316, #234, #164, .T. ) ;
#36 = VERTEX_POINT ( 'NONE', #91 ) ;
#37 = FILL_AREA_STYLE ('',( #125 ) ) ;
#38 = DIRECTION ( 'NONE',  ( 1.000000000000000000, 0.0000000000000000000, 0.0000000000000000000 ) ) ;
#39 = ORIENTED_EDGE ( 'NONE', *, *, #35, .T. ) ;
#40 = CARTESIAN_POINT ( 'NONE',  ( 4.094121061725653542E-18, 0.0000000000000000000, 0.03343103549999999757 ) ) ;
#41 = UNCERTAINTY_MEASURE_WITH_UNIT (LENGTH_MEASURE( 1.000000000000000082E-05 ), #285, 'distance_accuracy_value', 'NONE');
#42 = PRESENTATION_LAYER_ASSIGNMENT (  '', '', ( #22 ) ) ;
#43 = DIRECTION ( 'NONE',  ( 1.000000000000000000, 0.0000000000000000000, 0.0000000000000000000 ) ) ;
#44 = APPLICATION_PROTOCOL_DEFINITION ( 'draft international standard', 'automotive_design', 1998, #300 ) ;
#45 = ORIENTED_EDGE ( 'NONE', *, *, #69, .T. ) ;
#46 = DIRECTION ( 'NONE',  ( 0.0000000000000000000, 1.000000000000000000, 0.0000000000000000000 ) ) ;
#47 = EDGE_CURVE ( 'NONE', #68, #112, #321, .T. ) ;
#48 = DIMENSIONAL_EXPONENTS ( 1.000000000000000000, 0.0000000000000000000, 0.0000000000000000000, 0.0000000000000000000, 0.0000000000000000000, 0.0000000000000000000, 0.0000000000000000000 ) ;
#49 = AXIS2_PLACEMENT_3D ( 'NONE', #10, #7, #52 ) ;
#50 = PRODUCT_RELATED_PRODUCT_CATEGORY ( 'part', '', ( #161 ) ) ;
#51 = CIRCLE ( 'NONE', #26, 0.03343103549999999757 ) ;
#52 = DIRECTION ( 'NONE',  ( 1.000000000000000000, 0.0000000000000000000, 0.0000000000000000000 ) ) ;
#53 = DIRECTION ( 'NONE',  ( 0.7071067811865482389, 8.659560562354941486E-17, -0.7071067811865469066 ) ) ;
#54 = PLANE ( 'NONE',  #83 ) ;
#55 = ADVANCED_FACE ( 'NONE', ( #167 ), #67, .T. ) ;
#56 = STYLED_ITEM ( 'NONE', ( #160 ), #252 ) ;
#57 =( NAMED_UNIT ( * ) PLANE_ANGLE_UNIT ( ) SI_UNIT ( $, .RADIAN. ) );
#58 = SPHERICAL_SURFACE ( 'NONE', #25, 0.03343103549999999757 ) ;
#59 = CARTESIAN_POINT ( 'NONE',  ( -0.03343103549999998370, 5.663136367045173712E-18, 0.09842500000000001248 ) ) ;
#60 = ORIENTED_EDGE ( 'NONE', *, *, #189, .T. ) ;
#61 = CARTESIAN_POINT ( 'NONE',  ( 0.0000000000000000000, 0.0000000000000000000, 1.496062999999999921 ) ) ;
#62 = ORIENTED_EDGE ( 'NONE', *, *, #81, .T. ) ;
#63 = ORIENTED_EDGE ( 'NONE', *, *, #157, .F. ) ;
#64 = CONICAL_SURFACE ( 'NONE', #144, 0.04405499999999973326, 0.7853981633974491672 ) ;
#65 =( LENGTH_UNIT ( ) NAMED_UNIT ( * ) SI_UNIT ( $, .METRE. ) );
#66 = ORIENTED_EDGE ( 'NONE', *, *, #312, .F. ) ;
#67 = SPHERICAL_SURFACE ( 'NONE', #190, 0.03343103549999999757 ) ;
#68 = VERTEX_POINT ( 'NONE', #143 ) ;
#69 = EDGE_CURVE ( 'NONE', #129, #36, #253, .T. ) ;
#70 = CIRCLE ( 'NONE', #99, 0.05905500000000000332 ) ;
#71 = EDGE_CURVE ( 'NONE', #185, #187, #147, .T. ) ;
#72 = VECTOR ( 'NONE', #109, 39.37007874015747433 ) ;
#73 = EDGE_CURVE ( 'NONE', #273, #36, #197, .T. ) ;
#74 = DIMENSIONAL_EXPONENTS ( 1.000000000000000000, 0.0000000000000000000, 0.0000000000000000000, 0.0000000000000000000, 0.0000000000000000000, 0.0000000000000000000, 0.0000000000000000000 ) ;
#75 = DIRECTION ( 'NONE',  ( -1.000000000000000000, 0.0000000000000000000, 0.0000000000000000000 ) ) ;
#76 = AXIS2_PLACEMENT_3D ( 'NONE', #139, #20, #247 ) ;
#77 = CARTESIAN_POINT ( 'NONE',  ( 2.985024207212877847E-17, 0.0000000000000000000, 0.2437457240153788340 ) ) ;
#78 = DIRECTION ( 'NONE',  ( -1.224646799147353207E-16, -0.0000000000000000000, -1.000000000000000000 ) ) ;
#79 = DIRECTION ( 'NONE',  ( -1.224646799147353207E-16, -0.0000000000000000000, -1.000000000000000000 ) ) ;
#80 =( LENGTH_UNIT ( ) NAMED_UNIT ( * ) SI_UNIT ( $, .METRE. ) );
#81 = EDGE_CURVE ( 'NONE', #316, #36, #18, .T. ) ;
#82 = DIRECTION ( 'NONE',  ( -0.0000000000000000000, -0.0000000000000000000, -1.000000000000000000 ) ) ;
#83 = AXIS2_PLACEMENT_3D ( 'NONE', #238, #235, #174 ) ;
#84 = ORIENTED_EDGE ( 'NONE', *, *, #124, .T. ) ;
#85 = DIRECTION ( 'NONE',  ( 1.000000000000000000, 0.0000000000000000000, 0.0000000000000000000 ) ) ;
#86 = ORIENTED_EDGE ( 'NONE', *, *, #216, .F. ) ;
#87 = CARTESIAN_POINT ( 'NONE',  ( 4.094121061725653542E-18, 0.0000000000000000000, 0.03343103549999999757 ) ) ;
#88 = DIRECTION ( 'NONE',  ( 1.000000000000000000, 0.0000000000000000000, 0.0000000000000000000 ) ) ;
#89 = ORIENTED_EDGE ( 'NONE', *, *, #283, .T. ) ;
#90 = APPLICATION_PROTOCOL_DEFINITION ( 'draft international standard', 'automotive_design', 1998, #169 ) ;
#91 = CARTESIAN_POINT ( 'NONE',  ( 0.03343103550000000451, 4.094121061725653542E-18, 0.03343103549999999063 ) ) ;
#92 = PRODUCT_DEFINITION_FORMATION_WITH_SPECIFIED_SOURCE ( 'ANY', '', #161, .NOT_KNOWN. ) ;
#93 = CARTESIAN_POINT ( 'NONE',  ( 0.0000000000000000000, 0.0000000000000000000, 1.496062999999999921 ) ) ;
#94 = EDGE_LOOP ( 'NONE', ( #132, #11, #84, #209 ) ) ;
#95 = CONICAL_SURFACE ( 'NONE', #278, 0.03343103549999999757, 0.1745329251994338915 ) ;
#96 = MANIFOLD_SOLID_BREP ( 'Fillet1', #277 ) ;
#97 = DIRECTION ( 'NONE',  ( 1.000000000000000000, 0.0000000000000000000, 0.0000000000000000000 ) ) ;
#98 = CARTESIAN_POINT ( 'NONE',  ( 1.205358612060782468E-17, 0.0000000000000000000, 0.09842500000000001248 ) ) ;
#99 = AXIS2_PLACEMENT_3D ( 'NONE', #212, #314, #5 ) ;
#100 = DIRECTION ( 'NONE',  ( -0.0000000000000000000, -0.0000000000000000000, -1.000000000000000000 ) ) ;
#101 = CYLINDRICAL_SURFACE ( 'NONE', #305, 0.05905500000000000332 ) ;
#102 = PRODUCT_DEFINITION ( 'UNKNOWN', '', #92, #2 ) ;
#103 = ORIENTED_EDGE ( 'NONE', *, *, #47, .T. ) ;
#104 = FACE_OUTER_BOUND ( 'NONE', #237, .T. ) ;
#105 = CARTESIAN_POINT ( 'NONE',  ( -0.05905499999999998251, 0.0000000000000000000, 0.2437457240153788340 ) ) ;
#106 = LENGTH_MEASURE_WITH_UNIT ( LENGTH_MEASURE( 0.02539999999999999897 ), #80 );
#107 = AXIS2_PLACEMENT_3D ( 'NONE', #202, #34, #38 ) ;
#108 = ORIENTED_EDGE ( 'NONE', *, *, #189, .F. ) ;
#109 = DIRECTION ( 'NONE',  ( -0.1736481776669311916, 2.126576849575783316E-17, 0.9848077530122080203 ) ) ;
#110 = SURFACE_STYLE_FILL_AREA ( #213 ) ;
#111 = ADVANCED_FACE ( 'NONE', ( #155 ), #54, .T. ) ;
#112 = VERTEX_POINT ( 'NONE', #105 ) ;
#113 = DIRECTION ( 'NONE',  ( 1.224646799147353207E-16, 0.0000000000000000000, 1.000000000000000000 ) ) ;
#114 = EDGE_LOOP ( 'NONE', ( #288, #86, #39, #163 ) ) ;
#115 = FACE_OUTER_BOUND ( 'NONE', #31, .T. ) ;
#116 = COLOUR_RGB ( '',0.7921568627450980005, 0.8196078431372548767, 0.9333333333333333481 ) ;
#117 = CARTESIAN_POINT ( 'NONE',  ( 0.0000000000000000000, 0.0000000000000000000, 1.496062999999999921 ) ) ;
#118 = UNCERTAINTY_MEASURE_WITH_UNIT (LENGTH_MEASURE( 1.000000000000000082E-05 ), #142, 'distance_accuracy_value', 'NONE');
#119 = COLOUR_RGB ( '',0.7921568627450980005, 0.8196078431372548767, 0.9333333333333333481 ) ;
#120 = EDGE_LOOP ( 'NONE', ( #28, #272, #103, #313 ) ) ;
#121 = ORIENTED_EDGE ( 'NONE', *, *, #201, .F. ) ;
#122 = CARTESIAN_POINT ( 'NONE',  ( 0.04405499999999973326, 5.395181473643630390E-18, 1.496062999999999921 ) ) ;
#123 = CARTESIAN_POINT ( 'NONE',  ( -0.03343103549999999757, 0.0000000000000000000, 4.094121061725653542E-18 ) ) ;
#124 = EDGE_CURVE ( 'NONE', #187, #68, #183, .T. ) ;
#125 = FILL_AREA_STYLE_COLOUR ( '', #119 ) ;
#126 = LINE ( 'NONE', #123, #145 ) ;
#127 = VERTEX_POINT ( 'NONE', #59 ) ;
#128 = VECTOR ( 'NONE', #82, 39.37007874015748143 ) ;
#129 = VERTEX_POINT ( 'NONE', #264 ) ;
#130 = CYLINDRICAL_SURFACE ( 'NONE', #225, 0.05905500000000000332 ) ;
#131 = FACE_OUTER_BOUND ( 'NONE', #154, .T. ) ;
#132 = ORIENTED_EDGE ( 'NONE', *, *, #181, .F. ) ;
#133 = CARTESIAN_POINT ( 'NONE',  ( -0.03343103549999998370, 4.094121061725653542E-18, 0.09842500000000001248 ) ) ;
#134 = DIRECTION ( 'NONE',  ( 0.0000000000000000000, 1.000000000000000000, 0.0000000000000000000 ) ) ;
#135 = EDGE_CURVE ( 'NONE', #127, #112, #32, .T. ) ;
#136 = CIRCLE ( 'NONE', #233, 0.03343103549999999757 ) ;
#137 = DIRECTION ( 'NONE',  ( 0.0000000000000000000, -1.000000000000000000, 0.0000000000000000000 ) ) ;
#138 = SURFACE_STYLE_USAGE ( .BOTH. , #218 ) ;
#139 = CARTESIAN_POINT ( 'NONE',  ( 0.0000000000000000000, 0.0000000000000000000, 0.0000000000000000000 ) ) ;
#140 = PRODUCT_CONTEXT ( 'NONE', #300, 'mechanical' ) ;
#141 = ORIENTED_EDGE ( 'NONE', *, *, #73, .T. ) ;
#142 =( CONVERSION_BASED_UNIT ( 'INCH', #320 ) LENGTH_UNIT ( ) NAMED_UNIT ( #74 ) );
#143 = CARTESIAN_POINT ( 'NONE',  ( -0.05905500000000000332, 0.0000000000000000000, 1.481062999999999574 ) ) ;
#144 = AXIS2_PLACEMENT_3D ( 'NONE', #93, #248, #193 ) ;
#145 = VECTOR ( 'NONE', #258, 39.37007874015748143 ) ;
#146 = EDGE_CURVE ( 'NONE', #112, #234, #70, .T. ) ;
#147 = CIRCLE ( 'NONE', #173, 0.04405499999999973326 ) ;
#148 = MECHANICAL_DESIGN_GEOMETRIC_PRESENTATION_REPRESENTATION (  '', ( #22 ), #180 ) ;
#149 = DIRECTION ( 'NONE',  ( -1.224646799147353207E-16, -0.0000000000000000000, -1.000000000000000000 ) ) ;
#150 = CARTESIAN_POINT ( 'NONE',  ( 0.05905500000000003108, 7.232151672364698504E-18, 0.2437457240153788340 ) ) ;
#151 = DIRECTION ( 'NONE',  ( -1.000000000000000000, 1.224646799147353207E-16, 0.0000000000000000000 ) ) ;
#152 = MECHANICAL_DESIGN_GEOMETRIC_PRESENTATION_REPRESENTATION (  '', ( #56 ), #211 ) ;
#153 = CARTESIAN_POINT ( 'NONE',  ( 0.0000000000000000000, 0.0000000000000000000, 0.0000000000000000000 ) ) ;
#154 = EDGE_LOOP ( 'NONE', ( #214, #62, #317, #166 ) ) ;
#155 = FACE_OUTER_BOUND ( 'NONE', #322, .T. ) ;
#156 = DIRECTION ( 'NONE',  ( 0.0000000000000000000, 0.0000000000000000000, 1.000000000000000000 ) ) ;
#157 = EDGE_CURVE ( 'NONE', #36, #129, #17, .T. ) ;
#158 = EDGE_LOOP ( 'NONE', ( #66, #263, #295, #229 ) ) ;
#159 = CARTESIAN_POINT ( 'NONE',  ( 1.205358612060782468E-17, 0.0000000000000000000, 0.09842500000000001248 ) ) ;
#160 = PRESENTATION_STYLE_ASSIGNMENT (( #138 ) ) ;
#161 = PRODUCT ( 'Micro_BMSM-017-4X', 'Micro_BMSM-017-4X', '', ( #140 ) ) ;
#162 = AXIS2_PLACEMENT_3D ( 'NONE', #179, #156, #184 ) ;
#163 = ORIENTED_EDGE ( 'NONE', *, *, #195, .T. ) ;
#164 = LINE ( 'NONE', #220, #4 ) ;
#165 = ADVANCED_FACE ( 'NONE', ( #289 ), #130, .T. ) ;
#166 = ORIENTED_EDGE ( 'NONE', *, *, #255, .F. ) ;
#167 = FACE_OUTER_BOUND ( 'NONE', #8, .T. ) ;
#168 = ADVANCED_FACE ( 'NONE', ( #284 ), #95, .T. ) ;
#169 = APPLICATION_CONTEXT ( 'automotive_design' ) ;
#170 = AXIS2_PLACEMENT_3D ( 'NONE', #77, #149, #207 ) ;
#171 = ORIENTED_EDGE ( 'NONE', *, *, #201, .T. ) ;
#172 = CARTESIAN_POINT ( 'NONE',  ( 0.05905500000000000332, 7.232151672364695422E-18, 1.496062999999999921 ) ) ;
#173 = AXIS2_PLACEMENT_3D ( 'NONE', #117, #267, #43 ) ;
#174 = DIRECTION ( 'NONE',  ( 1.000000000000000000, 0.0000000000000000000, -0.0000000000000000000 ) ) ;
#175 = CARTESIAN_POINT ( 'NONE',  ( 6.141181592588480312E-18, 0.0000000000000000000, 0.0000000000000000000 ) ) ;
#176 = CARTESIAN_POINT ( 'NONE',  ( -0.04405499999999973326, 0.0000000000000000000, 1.496062999999999921 ) ) ;
#177 = CARTESIAN_POINT ( 'NONE',  ( 4.094121061725653542E-18, 0.0000000000000000000, 0.03343103549999999757 ) ) ;
#178 = DIRECTION ( 'NONE',  ( 1.224646799147353207E-16, 0.0000000000000000000, 1.000000000000000000 ) ) ;
#179 = CARTESIAN_POINT ( 'NONE',  ( 0.0000000000000000000, 0.0000000000000000000, 1.496062999999999921 ) ) ;
#180 =( GEOMETRIC_REPRESENTATION_CONTEXT ( 3 ) GLOBAL_UNCERTAINTY_ASSIGNED_CONTEXT ( ( #41 ) ) GLOBAL_UNIT_ASSIGNED_CONTEXT ( ( #285, #57, #230 ) ) REPRESENTATION_CONTEXT ( 'NONE', 'WORKASPACE' ) );
#181 = EDGE_CURVE ( 'NONE', #185, #245, #204, .T. ) ;
#182 = ORIENTED_EDGE ( 'NONE', *, *, #69, .F. ) ;
#183 = LINE ( 'NONE', #176, #249 ) ;
#184 = DIRECTION ( 'NONE',  ( 1.000000000000000000, 0.0000000000000000000, 0.0000000000000000000 ) ) ;
#185 = VERTEX_POINT ( 'NONE', #9 ) ;
#186 = DIRECTION ( 'NONE',  ( -0.7071067811865482389, 0.0000000000000000000, -0.7071067811865469066 ) ) ;
#187 = VERTEX_POINT ( 'NONE', #281 ) ;
#188 = ORIENTED_EDGE ( 'NONE', *, *, #47, .F. ) ;
#189 = EDGE_CURVE ( 'NONE', #68, #245, #1, .T. ) ;
#190 = AXIS2_PLACEMENT_3D ( 'NONE', #271, #46, #250 ) ;
#191 = AXIS2_PLACEMENT_3D ( 'NONE', #87, #259, #304 ) ;
#192 =( NAMED_UNIT ( * ) PLANE_ANGLE_UNIT ( ) SI_UNIT ( $, .RADIAN. ) );
#193 = DIRECTION ( 'NONE',  ( -1.000000000000000000, 0.0000000000000000000, 0.0000000000000000000 ) ) ;
#194 = CARTESIAN_POINT ( 'NONE',  ( 4.094121061725653542E-18, 0.0000000000000000000, 0.03343103549999999757 ) ) ;
#195 = EDGE_CURVE ( 'NONE', #234, #112, #210, .T. ) ;
#196 = VECTOR ( 'NONE', #296, 39.37007874015748143 ) ;
#197 = CIRCLE ( 'NONE', #274, 0.03343103549999999757 ) ;
#198 = ORIENTED_EDGE ( 'NONE', *, *, #325, .T. ) ;
#199 = CARTESIAN_POINT ( 'NONE',  ( 4.094121061725653542E-18, 0.0000000000000000000, 0.03343103549999999757 ) ) ;
#200 =( LENGTH_UNIT ( ) NAMED_UNIT ( * ) SI_UNIT ( $, .METRE. ) );
#201 = EDGE_CURVE ( 'NONE', #273, #129, #136, .T. ) ;
#202 = CARTESIAN_POINT ( 'NONE',  ( 0.0000000000000000000, 0.0000000000000000000, 1.481062999999999574 ) ) ;
#203 = AXIS2_PLACEMENT_3D ( 'NONE', #98, #282, #75 ) ;
#204 = LINE ( 'NONE', #122, #323 ) ;
#205 = DIRECTION ( 'NONE',  ( -1.224646799147353207E-16, -0.0000000000000000000, -1.000000000000000000 ) ) ;
#206 = EDGE_LOOP ( 'NONE', ( #60, #198, #293, #188 ) ) ;
#207 = DIRECTION ( 'NONE',  ( 1.000000000000000000, 0.0000000000000000000, 0.0000000000000000000 ) ) ;
#208 = CARTESIAN_POINT ( 'NONE',  ( 0.03343103550000001145, 0.0000000000000000000, 0.09842500000000001248 ) ) ;
#209 = ORIENTED_EDGE ( 'NONE', *, *, #226, .F. ) ;
#210 = CIRCLE ( 'NONE', #170, 0.05905500000000000332 ) ;
#211 =( GEOMETRIC_REPRESENTATION_CONTEXT ( 3 ) GLOBAL_UNCERTAINTY_ASSIGNED_CONTEXT ( ( #118 ) ) GLOBAL_UNIT_ASSIGNED_CONTEXT ( ( #142, #192, #315 ) ) REPRESENTATION_CONTEXT ( 'NONE', 'WORKASPACE' ) );
#212 = CARTESIAN_POINT ( 'NONE',  ( 2.985024207212877847E-17, 0.0000000000000000000, 0.2437457240153788340 ) ) ;
#213 = FILL_AREA_STYLE ('',( #268 ) ) ;
#214 = ORIENTED_EDGE ( 'NONE', *, *, #312, .T. ) ;
#215 = ORIENTED_EDGE ( 'NONE', *, *, #124, .F. ) ;
#216 = EDGE_CURVE ( 'NONE', #316, #127, #51, .T. ) ;
#217 = FACE_OUTER_BOUND ( 'NONE', #94, .T. ) ;
#218 = SURFACE_SIDE_STYLE ('',( #110 ) ) ;
#219 = AXIS2_PLACEMENT_3D ( 'NONE', #153, #205, #260 ) ;
#220 = CARTESIAN_POINT ( 'NONE',  ( 0.03343103550000001145, 0.0000000000000000000, 0.09842500000000001248 ) ) ;
#221 = CARTESIAN_POINT ( 'NONE',  ( -0.05905500000000000332, 0.0000000000000000000, 1.496062999999999921 ) ) ;
#222 = ADVANCED_FACE ( 'NONE', ( #104 ), #244, .T. ) ;
#223 = AXIS2_PLACEMENT_3D ( 'NONE', #265, #256, #306 ) ;
#224 = ADVANCED_FACE ( 'NONE', ( #131 ), #33, .T. ) ;
#225 = AXIS2_PLACEMENT_3D ( 'NONE', #61, #100, #29 ) ;
#226 = EDGE_CURVE ( 'NONE', #245, #68, #261, .T. ) ;
#227 = CARTESIAN_POINT ( 'NONE',  ( 0.0000000000000000000, 0.0000000000000000000, 1.481062999999999574 ) ) ;
#228 = CARTESIAN_POINT ( 'NONE',  ( 0.0000000000000000000, 0.0000000000000000000, 1.496062999999999921 ) ) ;
#229 = ORIENTED_EDGE ( 'NONE', *, *, #35, .F. ) ;
#230 =( NAMED_UNIT ( * ) SI_UNIT ( $, .STERADIAN. ) SOLID_ANGLE_UNIT ( ) );
#231 = ORIENTED_EDGE ( 'NONE', *, *, #216, .T. ) ;
#232 = DIRECTION ( 'NONE',  ( -1.000000000000000000, 0.0000000000000000000, 0.0000000000000000000 ) ) ;
#233 = AXIS2_PLACEMENT_3D ( 'NONE', #177, #303, #151 ) ;
#234 = VERTEX_POINT ( 'NONE', #150 ) ;
#235 = DIRECTION ( 'NONE',  ( 0.0000000000000000000, 0.0000000000000000000, 1.000000000000000000 ) ) ;
#236 = FACE_OUTER_BOUND ( 'NONE', #158, .T. ) ;
#237 = EDGE_LOOP ( 'NONE', ( #310, #299, #108, #215 ) ) ;
#238 = CARTESIAN_POINT ( 'NONE',  ( 0.0000000000000000000, 0.0000000000000000000, 1.496062999999999921 ) ) ;
#239 = DIRECTION ( 'NONE',  ( -1.000000000000000000, 0.0000000000000000000, 0.0000000000000000000 ) ) ;
#240 = ORIENTED_EDGE ( 'NONE', *, *, #81, .F. ) ;
#241 = CARTESIAN_POINT ( 'NONE',  ( 0.03343103549999999757, 4.094121061725653542E-18, -4.094121061725653542E-18 ) ) ;
#242 = PRODUCT_DEFINITION_SHAPE ( 'NONE', 'NONE',  #102 ) ;
#243 =( NAMED_UNIT ( * ) SI_UNIT ( $, .STERADIAN. ) SOLID_ANGLE_UNIT ( ) );
#244 = CONICAL_SURFACE ( 'NONE', #223, 0.04405499999999973326, 0.7853981633974491672 ) ;
#245 = VERTEX_POINT ( 'NONE', #286 ) ;
#246 = DIRECTION ( 'NONE',  ( 0.0000000000000000000, 0.0000000000000000000, -1.000000000000000000 ) ) ;
#247 = DIRECTION ( 'NONE',  ( -1.000000000000000000, 0.0000000000000000000, 1.224646799147353207E-16 ) ) ;
#248 = DIRECTION ( 'NONE',  ( 0.0000000000000000000, 0.0000000000000000000, -1.000000000000000000 ) ) ;
#249 = VECTOR ( 'NONE', #186, 39.37007874015748143 ) ;
#250 = DIRECTION ( 'NONE',  ( 1.000000000000000000, 0.0000000000000000000, 0.0000000000000000000 ) ) ;
#251 = DIMENSIONAL_EXPONENTS ( 1.000000000000000000, 0.0000000000000000000, 0.0000000000000000000, 0.0000000000000000000, 0.0000000000000000000, 0.0000000000000000000, 0.0000000000000000000 ) ;
#252 = ADVANCED_BREP_SHAPE_REPRESENTATION ( 'Micro_BMSM-017-4X', ( #96, #324 ), #6 ) ;
#253 = CIRCLE ( 'NONE', #297, 0.03343103549999999757 ) ;
#254 = AXIS2_PLACEMENT_3D ( 'NONE', #227, #3, #97 ) ;
#255 = EDGE_CURVE ( 'NONE', #127, #129, #126, .T. ) ;
#256 = DIRECTION ( 'NONE',  ( 0.0000000000000000000, 0.0000000000000000000, -1.000000000000000000 ) ) ;
#257 = LENGTH_MEASURE_WITH_UNIT ( LENGTH_MEASURE( 0.02539999999999999897 ), #200 );
#258 = DIRECTION ( 'NONE',  ( -1.224646799147353207E-16, -0.0000000000000000000, -1.000000000000000000 ) ) ;
#259 = DIRECTION ( 'NONE',  ( 1.224646799147353207E-16, 0.0000000000000000000, 1.000000000000000000 ) ) ;
#260 = DIRECTION ( 'NONE',  ( -1.000000000000000000, 0.0000000000000000000, 1.224646799147353207E-16 ) ) ;
#261 = CIRCLE ( 'NONE', #107, 0.05905500000000000332 ) ;
#262 = CARTESIAN_POINT ( 'NONE',  ( 1.205358612060782468E-17, 0.0000000000000000000, 0.09842500000000001248 ) ) ;
#263 = ORIENTED_EDGE ( 'NONE', *, *, #135, .T. ) ;
#264 = CARTESIAN_POINT ( 'NONE',  ( -0.03343103549999999063, 0.0000000000000000000, 0.03343103550000000451 ) ) ;
#265 = CARTESIAN_POINT ( 'NONE',  ( 0.0000000000000000000, 0.0000000000000000000, 1.496062999999999921 ) ) ;
#266 = ORIENTED_EDGE ( 'NONE', *, *, #71, .T. ) ;
#267 = DIRECTION ( 'NONE',  ( 0.0000000000000000000, 0.0000000000000000000, 1.000000000000000000 ) ) ;
#268 = FILL_AREA_STYLE_COLOUR ( '', #116 ) ;
#269 = ADVANCED_FACE ( 'NONE', ( #236 ), #270, .T. ) ;
#270 = CONICAL_SURFACE ( 'NONE', #49, 0.03343103549999999757, 0.1745329251994338915 ) ;
#271 = CARTESIAN_POINT ( 'NONE',  ( 4.094121061725653542E-18, 0.0000000000000000000, 0.03343103549999999757 ) ) ;
#272 = ORIENTED_EDGE ( 'NONE', *, *, #226, .T. ) ;
#273 = VERTEX_POINT ( 'NONE', #175 ) ;
#274 = AXIS2_PLACEMENT_3D ( 'NONE', #40, #137, #246 ) ;
#275 = CIRCLE ( 'NONE', #203, 0.03343103549999999757 ) ;
#276 = ADVANCED_FACE ( 'NONE', ( #30 ), #101, .T. ) ;
#277 = CLOSED_SHELL ( 'NONE', ( #302, #224, #269, #222, #276, #165, #111, #24, #168, #13, #55 ) ) ;
#278 = AXIS2_PLACEMENT_3D ( 'NONE', #159, #178, #27 ) ;
#279 = FACE_OUTER_BOUND ( 'NONE', #14, .T. ) ;
#280 = ORIENTED_EDGE ( 'NONE', *, *, #255, .T. ) ;
#281 = CARTESIAN_POINT ( 'NONE',  ( -0.04405499999999973326, 0.0000000000000000000, 1.496062999999999921 ) ) ;
#282 = DIRECTION ( 'NONE',  ( -1.224646799147353207E-16, -0.0000000000000000000, -1.000000000000000000 ) ) ;
#283 = EDGE_CURVE ( 'NONE', #187, #185, #298, .T. ) ;
#284 = FACE_OUTER_BOUND ( 'NONE', #114, .T. ) ;
#285 =( CONVERSION_BASED_UNIT ( 'INCH', #257 ) LENGTH_UNIT ( ) NAMED_UNIT ( #251 ) );
#286 = CARTESIAN_POINT ( 'NONE',  ( 0.05905500000000000332, 7.232151672364695422E-18, 1.481062999999999574 ) ) ;
#287 = SURFACE_STYLE_FILL_AREA ( #37 ) ;
#288 = ORIENTED_EDGE ( 'NONE', *, *, #135, .F. ) ;
#289 = FACE_OUTER_BOUND ( 'NONE', #120, .T. ) ;
#290 = UNCERTAINTY_MEASURE_WITH_UNIT (LENGTH_MEASURE( 1.000000000000000082E-05 ), #16, 'distance_accuracy_value', 'NONE');
#291 = SHAPE_DEFINITION_REPRESENTATION ( #242, #252 ) ;
#292 = ORIENTED_EDGE ( 'NONE', *, *, #73, .F. ) ;
#293 = ORIENTED_EDGE ( 'NONE', *, *, #146, .F. ) ;
#294 = VECTOR ( 'NONE', #79, 39.37007874015748143 ) ;
#295 = ORIENTED_EDGE ( 'NONE', *, *, #146, .T. ) ;
#296 = DIRECTION ( 'NONE',  ( -0.0000000000000000000, -0.0000000000000000000, -1.000000000000000000 ) ) ;
#297 = AXIS2_PLACEMENT_3D ( 'NONE', #194, #113, #23 ) ;
#298 = CIRCLE ( 'NONE', #162, 0.04405499999999973326 ) ;
#299 = ORIENTED_EDGE ( 'NONE', *, *, #181, .T. ) ;
#300 = APPLICATION_CONTEXT ( 'automotive_design' ) ;
#301 = PRESENTATION_LAYER_ASSIGNMENT (  '', '', ( #56 ) ) ;
#302 = ADVANCED_FACE ( 'NONE', ( #279 ), #58, .T. ) ;
#303 = DIRECTION ( 'NONE',  ( 1.224646799147353207E-16, 1.000000000000000000, -0.0000000000000000000 ) ) ;
#304 = DIRECTION ( 'NONE',  ( -1.000000000000000000, 0.0000000000000000000, 1.276811330029071883E-16 ) ) ;
#305 = AXIS2_PLACEMENT_3D ( 'NONE', #228, #307, #239 ) ;
#306 = DIRECTION ( 'NONE',  ( -1.000000000000000000, 0.0000000000000000000, 0.0000000000000000000 ) ) ;
#307 = DIRECTION ( 'NONE',  ( -0.0000000000000000000, -0.0000000000000000000, -1.000000000000000000 ) ) ;
#308 = SURFACE_SIDE_STYLE ('',( #287 ) ) ;
#309 = LINE ( 'NONE', #172, #128 ) ;
#310 = ORIENTED_EDGE ( 'NONE', *, *, #71, .F. ) ;
#311 =( NAMED_UNIT ( * ) PLANE_ANGLE_UNIT ( ) SI_UNIT ( $, .RADIAN. ) );
#312 = EDGE_CURVE ( 'NONE', #127, #316, #275, .T. ) ;
#313 = ORIENTED_EDGE ( 'NONE', *, *, #195, .F. ) ;
#314 = DIRECTION ( 'NONE',  ( -1.224646799147353207E-16, -0.0000000000000000000, -1.000000000000000000 ) ) ;
#315 =( NAMED_UNIT ( * ) SI_UNIT ( $, .STERADIAN. ) SOLID_ANGLE_UNIT ( ) );
#316 = VERTEX_POINT ( 'NONE', #208 ) ;
#317 = ORIENTED_EDGE ( 'NONE', *, *, #157, .T. ) ;
#318 = CARTESIAN_POINT ( 'NONE',  ( 0.0000000000000000000, 0.0000000000000000000, 0.0000000000000000000 ) ) ;
#319 = DIRECTION ( 'NONE',  ( 0.1736481776669313859, 0.0000000000000000000, 0.9848077530122077983 ) ) ;
#320 = LENGTH_MEASURE_WITH_UNIT ( LENGTH_MEASURE( 0.02539999999999999897 ), #65 );
#321 = LINE ( 'NONE', #221, #196 ) ;
#322 = EDGE_LOOP ( 'NONE', ( #89, #266 ) ) ;
#323 = VECTOR ( 'NONE', #53, 39.37007874015748143 ) ;
#324 = AXIS2_PLACEMENT_3D ( 'NONE', #318, #21, #88 ) ;
#325 = EDGE_CURVE ( 'NONE', #245, #234, #309, .T. ) ;
ENDSEC;
END-ISO-10303-21;
