ISO-10303-21;
HEADER;
FILE_DESCRIPTION (( 'STEP AP214' ),
    '1' );
FILE_NAME ('05232.STEP',
    '2023-06-22T15:58:29',
    ( '' ),
    ( '' ),
    'SwSTEP 2.0',
    'SolidWorks 2023',
    '' );
FILE_SCHEMA (( 'AUTOMOTIVE_DESIGN' ));
ENDSEC;

DATA;
#1 = CIRCLE ( 'NONE', #46, 0.1562500000000000000 ) ;
#2 = CARTESIAN_POINT ( 'NONE',  ( 0.000000000000000000, 0.000000000000000000, 0.000000000000000000 ) ) ;
#3 = DIRECTION ( 'NONE',  ( -0.000000000000000000, -1.000000000000000000, -0.000000000000000000 ) ) ;
#4 =( NAMED_UNIT ( * ) PLANE_ANGLE_UNIT ( ) SI_UNIT ( $, .RADIAN. ) );
#5 = FILL_AREA_STYLE_COLOUR ( '', #236 ) ;
#6 = PRESENTATION_LAYER_ASSIGNMENT (  '', '', ( #128 ) ) ;
#7 = ADVANCED_FACE ( 'NONE', ( #44 ), #263, .T. ) ;
#8 = DIRECTION ( 'NONE',  ( -3.061616997868386099E-17, 1.000000000000000000, -0.000000000000000000 ) ) ;
#9 = CARTESIAN_POINT ( 'NONE',  ( 0.000000000000000000, 0.000000000000000000, 0.000000000000000000 ) ) ;
#10 = DIRECTION ( 'NONE',  ( -3.061616997868386099E-17, 1.000000000000000000, -0.000000000000000000 ) ) ;
#11 = PLANE ( 'NONE',  #250 ) ;
#12 = ADVANCED_FACE ( 'NONE', ( #24 ), #11, .T. ) ;
#13 = LINE ( 'NONE', #204, #63 ) ;
#14 =( NAMED_UNIT ( * ) SI_UNIT ( $, .STERADIAN. ) SOLID_ANGLE_UNIT ( ) );
#15 = ORIENTED_EDGE ( 'NONE', *, *, #185, .F. ) ;
#16 = SURFACE_SIDE_STYLE ('',( #158 ) ) ;
#17 = ORIENTED_EDGE ( 'NONE', *, *, #125, .T. ) ;
#18 = FACE_OUTER_BOUND ( 'NONE', #262, .T. ) ;
#19 = ORIENTED_EDGE ( 'NONE', *, *, #47, .F. ) ;
#20 = CARTESIAN_POINT ( 'NONE',  ( 1.913510623667739463E-17, 0.000000000000000000, 0.1562500000000000000 ) ) ;
#21 = PRESENTATION_LAYER_ASSIGNMENT (  '', '', ( #282 ) ) ;
#22 = DIRECTION ( 'NONE',  ( 0.000000000000000000, 0.000000000000000000, -1.000000000000000000 ) ) ;
#23 = PLANE ( 'NONE',  #220 ) ;
#24 = FACE_OUTER_BOUND ( 'NONE', #217, .T. ) ;
#25 = FILL_AREA_STYLE_COLOUR ( '', #29 ) ;
#26 = MECHANICAL_DESIGN_GEOMETRIC_PRESENTATION_REPRESENTATION (  '', ( #245 ), #270 ) ;
#27 = CIRCLE ( 'NONE', #271, 0.1562500000000000000 ) ;
#28 = PRODUCT_DEFINITION ( 'UNKNOWN', '', #100, #202 ) ;
#29 = COLOUR_RGB ( '',1.000000000000000000, 0.000000000000000000, 0.000000000000000000 ) ;
#30 =( GEOMETRIC_REPRESENTATION_CONTEXT ( 3 ) GLOBAL_UNCERTAINTY_ASSIGNED_CONTEXT ( ( #145 ) ) GLOBAL_UNIT_ASSIGNED_CONTEXT ( ( #246, #4, #291 ) ) REPRESENTATION_CONTEXT ( 'NONE', 'WORKASPACE' ) );
#31 =( CONVERSION_BASED_UNIT ( 'INCH', #170 ) LENGTH_UNIT ( ) NAMED_UNIT ( #273 ) );
#32 = SURFACE_STYLE_FILL_AREA ( #150 ) ;
#33 = FACE_OUTER_BOUND ( 'NONE', #90, .T. ) ;
#34 = DIRECTION ( 'NONE',  ( -0.000000000000000000, -1.000000000000000000, -0.000000000000000000 ) ) ;
#35 = DIRECTION ( 'NONE',  ( -1.000000000000000000, 0.000000000000000000, 0.000000000000000000 ) ) ;
#36 = VECTOR ( 'NONE', #38, 39.37007874015748143 ) ;
#37 = DIRECTION ( 'NONE',  ( -1.000000000000000000, 0.000000000000000000, 0.000000000000000000 ) ) ;
#38 = DIRECTION ( 'NONE',  ( -3.061616997868386099E-17, 1.000000000000000000, -0.000000000000000000 ) ) ;
#39 = ORIENTED_EDGE ( 'NONE', *, *, #185, .T. ) ;
#40 = CARTESIAN_POINT ( 'NONE',  ( -0.1562500000000001388, 3.000000000000000444, 0.000000000000000000 ) ) ;
#41 = PLANE ( 'NONE',  #68 ) ;
#42 = ORIENTED_EDGE ( 'NONE', *, *, #89, .F. ) ;
#43 = CYLINDRICAL_SURFACE ( 'NONE', #257, 0.1562500000000000278 ) ;
#44 = FACE_OUTER_BOUND ( 'NONE', #191, .T. ) ;
#45 =( LENGTH_UNIT ( ) NAMED_UNIT ( * ) SI_UNIT ( $, .METRE. ) );
#46 = AXIS2_PLACEMENT_3D ( 'NONE', #231, #10, #153 ) ;
#47 = EDGE_CURVE ( 'NONE', #241, #276, #235, .T. ) ;
#48 = PRODUCT_CONTEXT ( 'NONE', #225, 'mechanical' ) ;
#49 = AXIS2_PLACEMENT_3D ( 'NONE', #84, #86, #261 ) ;
#50 = CARTESIAN_POINT ( 'NONE',  ( 0.000000000000000000, 0.000000000000000000, 0.000000000000000000 ) ) ;
#51 = APPLICATION_PROTOCOL_DEFINITION ( 'draft international standard', 'automotive_design', 1998, #225 ) ;
#52 = LENGTH_MEASURE_WITH_UNIT ( LENGTH_MEASURE( 0.02539999999999999897 ), #140 );
#53 =( NAMED_UNIT ( * ) SI_UNIT ( $, .STERADIAN. ) SOLID_ANGLE_UNIT ( ) );
#54 = SHAPE_DEFINITION_REPRESENTATION ( #60, #222 ) ;
#55 = AXIS2_PLACEMENT_3D ( 'NONE', #64, #8, #37 ) ;
#56 = DIRECTION ( 'NONE',  ( 0.000000000000000000, 0.000000000000000000, -1.000000000000000000 ) ) ;
#57 = UNCERTAINTY_MEASURE_WITH_UNIT (LENGTH_MEASURE( 1.000000000000000082E-05 ), #281, 'distance_accuracy_value', 'NONE');
#58 = DIRECTION ( 'NONE',  ( -3.061616997868386099E-17, 1.000000000000000000, -0.000000000000000000 ) ) ;
#59 = FILL_AREA_STYLE ('',( #25 ) ) ;
#60 = PRODUCT_DEFINITION_SHAPE ( 'NONE', 'NONE',  #28 ) ;
#61 = DIRECTION ( 'NONE',  ( -3.061616997868386099E-17, 1.000000000000000000, 0.000000000000000000 ) ) ;
#62 = DIRECTION ( 'NONE',  ( -1.000000000000000000, 0.000000000000000000, 0.000000000000000000 ) ) ;
#63 = VECTOR ( 'NONE', #71, 39.37007874015748143 ) ;
#64 = CARTESIAN_POINT ( 'NONE',  ( -6.123233995736772199E-17, 3.000000000000000444, 0.000000000000000000 ) ) ;
#65 = ORIENTED_EDGE ( 'NONE', *, *, #116, .T. ) ;
#66 =( NAMED_UNIT ( * ) PLANE_ANGLE_UNIT ( ) SI_UNIT ( $, .RADIAN. ) );
#67 = VERTEX_POINT ( 'NONE', #109 ) ;
#68 = AXIS2_PLACEMENT_3D ( 'NONE', #114, #277, #118 ) ;
#69 = ORIENTED_EDGE ( 'NONE', *, *, #125, .F. ) ;
#70 = DIRECTION ( 'NONE',  ( 0.000000000000000000, 0.000000000000000000, -1.000000000000000000 ) ) ;
#71 = DIRECTION ( 'NONE',  ( -0.000000000000000000, -1.000000000000000000, -0.000000000000000000 ) ) ;
#72 = ORIENTED_EDGE ( 'NONE', *, *, #101, .T. ) ;
#73 = CARTESIAN_POINT ( 'NONE',  ( 0.000000000000000000, 1.000000000000000000, 0.000000000000000000 ) ) ;
#74 = COLOUR_RGB ( '',1.000000000000000000, 0.000000000000000000, 0.000000000000000000 ) ;
#75 = DIRECTION ( 'NONE',  ( 1.000000000000000000, 0.000000000000000000, 0.000000000000000000 ) ) ;
#76 = COLOUR_RGB ( '',0.7921568627450980005, 0.8196078431372548767, 0.9333333333333333481 ) ;
#77 = CARTESIAN_POINT ( 'NONE',  ( 7.323045813778616568E-35, 1.000000000000000000, 0.000000000000000000 ) ) ;
#78 = LENGTH_MEASURE_WITH_UNIT ( LENGTH_MEASURE( 0.02539999999999999897 ), #269 );
#79 = MANIFOLD_SOLID_BREP ( 'Revolve - Tool Body (Straight Shanked)', #198 ) ;
#80 = DIRECTION ( 'NONE',  ( -3.061616997868386099E-17, 1.000000000000000000, -0.000000000000000000 ) ) ;
#81 = EDGE_CURVE ( 'NONE', #276, #67, #159, .T. ) ;
#82 = FACE_OUTER_BOUND ( 'NONE', #299, .T. ) ;
#83 =( LENGTH_UNIT ( ) NAMED_UNIT ( * ) SI_UNIT ( $, .METRE. ) );
#84 = CARTESIAN_POINT ( 'NONE',  ( 0.000000000000000000, 0.000000000000000000, 0.000000000000000000 ) ) ;
#85 = LINE ( 'NONE', #209, #99 ) ;
#86 = DIRECTION ( 'NONE',  ( -0.000000000000000000, -1.000000000000000000, -0.000000000000000000 ) ) ;
#87 = DIMENSIONAL_EXPONENTS ( 1.000000000000000000, 0.000000000000000000, 0.000000000000000000, 0.000000000000000000, 0.000000000000000000, 0.000000000000000000, 0.000000000000000000 ) ;
#88 = SURFACE_STYLE_USAGE ( .BOTH. , #16 ) ;
#89 = EDGE_CURVE ( 'NONE', #241, #243, #106, .T. ) ;
#90 = EDGE_LOOP ( 'NONE', ( #42, #193 ) ) ;
#91 = COLOUR_RGB ( '',1.000000000000000000, 0.000000000000000000, 0.000000000000000000 ) ;
#92 = MECHANICAL_DESIGN_GEOMETRIC_PRESENTATION_REPRESENTATION (  '', ( #135 ), #147 ) ;
#93 = ORIENTED_EDGE ( 'NONE', *, *, #47, .T. ) ;
#94 =( CONVERSION_BASED_UNIT ( 'INCH', #164 ) LENGTH_UNIT ( ) NAMED_UNIT ( #234 ) );
#95 = SURFACE_SIDE_STYLE ('',( #288 ) ) ;
#96 =( NAMED_UNIT ( * ) SI_UNIT ( $, .STERADIAN. ) SOLID_ANGLE_UNIT ( ) );
#97 = SURFACE_STYLE_USAGE ( .BOTH. , #265 ) ;
#98 = PRESENTATION_LAYER_ASSIGNMENT (  '', '', ( #245 ) ) ;
#99 = VECTOR ( 'NONE', #107, 39.37007874015748143 ) ;
#100 = PRODUCT_DEFINITION_FORMATION_WITH_SPECIFIED_SOURCE ( 'ANY', '', #212, .NOT_KNOWN. ) ;
#101 = EDGE_CURVE ( 'NONE', #67, #276, #233, .T. ) ;
#102 =( NAMED_UNIT ( * ) PLANE_ANGLE_UNIT ( ) SI_UNIT ( $, .RADIAN. ) );
#103 = CARTESIAN_POINT ( 'NONE',  ( 1.913510623667739463E-17, 0.000000000000000000, 0.1562500000000000000 ) ) ;
#104 = EDGE_CURVE ( 'NONE', #243, #241, #1, .T. ) ;
#105 = CARTESIAN_POINT ( 'NONE',  ( -6.123233995736772199E-17, 3.000000000000000444, 0.000000000000000000 ) ) ;
#106 = CIRCLE ( 'NONE', #194, 0.1562500000000000000 ) ;
#107 = DIRECTION ( 'NONE',  ( -3.061616997868386099E-17, 1.000000000000000000, -0.000000000000000000 ) ) ;
#108 = SURFACE_STYLE_FILL_AREA ( #132 ) ;
#109 = CARTESIAN_POINT ( 'NONE',  ( 0.1562500000000000000, 3.000000000000000444, 1.913510623667739771E-17 ) ) ;
#110 = ORIENTED_EDGE ( 'NONE', *, *, #81, .T. ) ;
#111 = DIRECTION ( 'NONE',  ( -0.000000000000000000, -1.000000000000000000, -0.000000000000000000 ) ) ;
#112 =( LENGTH_UNIT ( ) NAMED_UNIT ( * ) SI_UNIT ( $, .METRE. ) );
#113 = ORIENTED_EDGE ( 'NONE', *, *, #211, .T. ) ;
#114 = CARTESIAN_POINT ( 'NONE',  ( 0.1562500000000000000, 3.000000000000000444, 0.000000000000000000 ) ) ;
#115 = STYLED_ITEM ( 'NONE', ( #129 ), #7 ) ;
#116 = EDGE_CURVE ( 'NONE', #119, #117, #13, .T. ) ;
#117 = VERTEX_POINT ( 'NONE', #297 ) ;
#118 = DIRECTION ( 'NONE',  ( 1.000000000000000000, 3.061616997868386099E-17, 0.000000000000000000 ) ) ;
#119 = VERTEX_POINT ( 'NONE', #148 ) ;
#120 = ORIENTED_EDGE ( 'NONE', *, *, #221, .T. ) ;
#121 = PLANE ( 'NONE',  #177 ) ;
#122 = DIRECTION ( 'NONE',  ( -0.000000000000000000, -1.000000000000000000, -0.000000000000000000 ) ) ;
#123 = FILL_AREA_STYLE ('',( #5 ) ) ;
#124 =( GEOMETRIC_REPRESENTATION_CONTEXT ( 3 ) GLOBAL_UNCERTAINTY_ASSIGNED_CONTEXT ( ( #172 ) ) GLOBAL_UNIT_ASSIGNED_CONTEXT ( ( #254, #178, #253 ) ) REPRESENTATION_CONTEXT ( 'NONE', 'WORKASPACE' ) );
#125 = EDGE_CURVE ( 'NONE', #308, #134, #255, .T. ) ;
#126 = UNCERTAINTY_MEASURE_WITH_UNIT (LENGTH_MEASURE( 1.000000000000000082E-05 ), #94, 'distance_accuracy_value', 'NONE');
#127 = AXIS2_PLACEMENT_3D ( 'NONE', #105, #80, #35 ) ;
#128 = STYLED_ITEM ( 'NONE', ( #290 ), #190 ) ;
#129 = PRESENTATION_STYLE_ASSIGNMENT (( #146 ) ) ;
#130 = DIMENSIONAL_EXPONENTS ( 1.000000000000000000, 0.000000000000000000, 0.000000000000000000, 0.000000000000000000, 0.000000000000000000, 0.000000000000000000, 0.000000000000000000 ) ;
#131 = CIRCLE ( 'NONE', #199, 0.1562500000000000000 ) ;
#132 = FILL_AREA_STYLE ('',( #214 ) ) ;
#133 = ORIENTED_EDGE ( 'NONE', *, *, #89, .T. ) ;
#134 = VERTEX_POINT ( 'NONE', #103 ) ;
#135 = STYLED_ITEM ( 'NONE', ( #157 ), #289 ) ;
#136 = ORIENTED_EDGE ( 'NONE', *, *, #104, .T. ) ;
#137 = CARTESIAN_POINT ( 'NONE',  ( -6.123233995736772199E-17, 3.000000000000000444, 0.000000000000000000 ) ) ;
#138 = EDGE_LOOP ( 'NONE', ( #303, #17, #15, #154 ) ) ;
#139 = FACE_OUTER_BOUND ( 'NONE', #156, .T. ) ;
#140 =( LENGTH_UNIT ( ) NAMED_UNIT ( * ) SI_UNIT ( $, .METRE. ) );
#141 = MECHANICAL_DESIGN_GEOMETRIC_PRESENTATION_REPRESENTATION (  '', ( #188 ), #165 ) ;
#142 = FILL_AREA_STYLE_COLOUR ( '', #91 ) ;
#143 = UNCERTAINTY_MEASURE_WITH_UNIT (LENGTH_MEASURE( 1.000000000000000082E-05 ), #309, 'distance_accuracy_value', 'NONE');
#144 = SURFACE_STYLE_USAGE ( .BOTH. , #95 ) ;
#145 = UNCERTAINTY_MEASURE_WITH_UNIT (LENGTH_MEASURE( 1.000000000000000082E-05 ), #246, 'distance_accuracy_value', 'NONE');
#146 = SURFACE_STYLE_USAGE ( .BOTH. , #173 ) ;
#147 =( GEOMETRIC_REPRESENTATION_CONTEXT ( 3 ) GLOBAL_UNCERTAINTY_ASSIGNED_CONTEXT ( ( #57 ) ) GLOBAL_UNIT_ASSIGNED_CONTEXT ( ( #281, #66, #14 ) ) REPRESENTATION_CONTEXT ( 'NONE', 'WORKASPACE' ) );
#148 = CARTESIAN_POINT ( 'NONE',  ( 0.000000000000000000, 1.000000000000000000, -0.1562500000000000000 ) ) ;
#149 = ADVANCED_FACE ( 'NONE', ( #139 ), #232, .T. ) ;
#150 = FILL_AREA_STYLE ('',( #252 ) ) ;
#151 = DIRECTION ( 'NONE',  ( -0.000000000000000000, -1.000000000000000000, -0.000000000000000000 ) ) ;
#152 = PRESENTATION_LAYER_ASSIGNMENT (  '', '', ( #188 ) ) ;
#153 = DIRECTION ( 'NONE',  ( -1.000000000000000000, 0.000000000000000000, 0.000000000000000000 ) ) ;
#154 = ORIENTED_EDGE ( 'NONE', *, *, #116, .F. ) ;
#155 = CARTESIAN_POINT ( 'NONE',  ( 0.000000000000000000, 1.000000000000000000, 0.000000000000000000 ) ) ;
#156 = EDGE_LOOP ( 'NONE', ( #284, #136, #93, #305 ) ) ;
#157 = PRESENTATION_STYLE_ASSIGNMENT (( #88 ) ) ;
#158 = SURFACE_STYLE_FILL_AREA ( #280 ) ;
#159 = CIRCLE ( 'NONE', #127, 0.1562500000000000833 ) ;
#160 = AXIS2_PLACEMENT_3D ( 'NONE', #197, #200, #75 ) ;
#161 = EDGE_LOOP ( 'NONE', ( #110, #72 ) ) ;
#162 = CYLINDRICAL_SURFACE ( 'NONE', #49, 0.1562500000000000000 ) ;
#163 = DIRECTION ( 'NONE',  ( -1.000000000000000000, 0.000000000000000000, 0.000000000000000000 ) ) ;
#164 = LENGTH_MEASURE_WITH_UNIT ( LENGTH_MEASURE( 0.02539999999999999897 ), #45 );
#165 =( GEOMETRIC_REPRESENTATION_CONTEXT ( 3 ) GLOBAL_UNCERTAINTY_ASSIGNED_CONTEXT ( ( #192 ) ) GLOBAL_UNIT_ASSIGNED_CONTEXT ( ( #31, #208, #176 ) ) REPRESENTATION_CONTEXT ( 'NONE', 'WORKASPACE' ) );
#166 = COLOUR_RGB ( '',1.000000000000000000, 0.000000000000000000, 0.000000000000000000 ) ;
#167 = EDGE_CURVE ( 'NONE', #243, #67, #85, .T. ) ;
#168 =( NAMED_UNIT ( * ) SI_UNIT ( $, .STERADIAN. ) SOLID_ANGLE_UNIT ( ) );
#169 = APPLICATION_PROTOCOL_DEFINITION ( 'draft international standard', 'automotive_design', 1998, #174 ) ;
#170 = LENGTH_MEASURE_WITH_UNIT ( LENGTH_MEASURE( 0.02539999999999999897 ), #196 );
#171 = PRESENTATION_LAYER_ASSIGNMENT (  '', '', ( #115 ) ) ;
#172 = UNCERTAINTY_MEASURE_WITH_UNIT (LENGTH_MEASURE( 1.000000000000000082E-05 ), #254, 'distance_accuracy_value', 'NONE');
#173 = SURFACE_SIDE_STYLE ('',( #181 ) ) ;
#174 = APPLICATION_CONTEXT ( 'automotive_design' ) ;
#175 = SURFACE_STYLE_USAGE ( .BOTH. , #298 ) ;
#176 =( NAMED_UNIT ( * ) SI_UNIT ( $, .STERADIAN. ) SOLID_ANGLE_UNIT ( ) );
#177 = AXIS2_PLACEMENT_3D ( 'NONE', #73, #226, #286 ) ;
#178 =( NAMED_UNIT ( * ) PLANE_ANGLE_UNIT ( ) SI_UNIT ( $, .RADIAN. ) );
#179 = ADVANCED_FACE ( 'NONE', ( #82 ), #121, .T. ) ;
#180 = DIRECTION ( 'NONE',  ( -1.000000000000000000, -3.061616997868386099E-17, 0.000000000000000000 ) ) ;
#181 = SURFACE_STYLE_FILL_AREA ( #59 ) ;
#182 = DIMENSIONAL_EXPONENTS ( 1.000000000000000000, 0.000000000000000000, 0.000000000000000000, 0.000000000000000000, 0.000000000000000000, 0.000000000000000000, 0.000000000000000000 ) ;
#183 = DIRECTION ( 'NONE',  ( 0.000000000000000000, -1.000000000000000000, -0.000000000000000000 ) ) ;
#184 = DIRECTION ( 'NONE',  ( -0.000000000000000000, -1.000000000000000000, -0.000000000000000000 ) ) ;
#185 = EDGE_CURVE ( 'NONE', #117, #134, #27, .T. ) ;
#186 = SURFACE_SIDE_STYLE ('',( #108 ) ) ;
#187 = ORIENTED_EDGE ( 'NONE', *, *, #81, .F. ) ;
#188 = STYLED_ITEM ( 'NONE', ( #248 ), #12 ) ;
#189 = AXIS2_PLACEMENT_3D ( 'NONE', #155, #184, #242 ) ;
#190 = MANIFOLD_SOLID_BREP ( 'Revolve - Cutting Edge', #256 ) ;
#191 = EDGE_LOOP ( 'NONE', ( #69, #120, #65, #238 ) ) ;
#192 = UNCERTAINTY_MEASURE_WITH_UNIT (LENGTH_MEASURE( 1.000000000000000082E-05 ), #31, 'distance_accuracy_value', 'NONE');
#193 = ORIENTED_EDGE ( 'NONE', *, *, #104, .F. ) ;
#194 = AXIS2_PLACEMENT_3D ( 'NONE', #292, #58, #251 ) ;
#195 = ADVANCED_FACE ( 'NONE', ( #33 ), #23, .F. ) ;
#196 =( LENGTH_UNIT ( ) NAMED_UNIT ( * ) SI_UNIT ( $, .METRE. ) );
#197 = CARTESIAN_POINT ( 'NONE',  ( 0.000000000000000000, 0.000000000000000000, 0.000000000000000000 ) ) ;
#198 = CLOSED_SHELL ( 'NONE', ( #224, #195, #149, #300 ) ) ;
#199 = AXIS2_PLACEMENT_3D ( 'NONE', #213, #151, #70 ) ;
#200 = DIRECTION ( 'NONE',  ( 0.000000000000000000, 0.000000000000000000, 1.000000000000000000 ) ) ;
#201 = MECHANICAL_DESIGN_GEOMETRIC_PRESENTATION_REPRESENTATION (  '', ( #282 ), #124 ) ;
#202 = PRODUCT_DEFINITION_CONTEXT ( 'detailed design', #174, 'design' ) ;
#203 = CARTESIAN_POINT ( 'NONE',  ( 0.000000000000000000, 0.000000000000000000, 0.000000000000000000 ) ) ;
#204 = CARTESIAN_POINT ( 'NONE',  ( 0.000000000000000000, 0.000000000000000000, -0.1562500000000000000 ) ) ;
#205 =( CONVERSION_BASED_UNIT ( 'INCH', #228 ) LENGTH_UNIT ( ) NAMED_UNIT ( #130 ) );
#206 = AXIS2_PLACEMENT_3D ( 'NONE', #229, #296, #163 ) ;
#207 = PRESENTATION_LAYER_ASSIGNMENT (  '', '', ( #135 ) ) ;
#208 =( NAMED_UNIT ( * ) PLANE_ANGLE_UNIT ( ) SI_UNIT ( $, .RADIAN. ) );
#209 = CARTESIAN_POINT ( 'NONE',  ( 0.1562499999999999722, 3.000000000000000444, 1.913510623667739771E-17 ) ) ;
#210 = DIMENSIONAL_EXPONENTS ( 1.000000000000000000, 0.000000000000000000, 0.000000000000000000, 0.000000000000000000, 0.000000000000000000, 0.000000000000000000, 0.000000000000000000 ) ;
#211 = EDGE_CURVE ( 'NONE', #134, #117, #301, .T. ) ;
#212 = PRODUCT ( '05232', '05232', '', ( #48 ) ) ;
#213 = CARTESIAN_POINT ( 'NONE',  ( 0.000000000000000000, 1.000000000000000000, 0.000000000000000000 ) ) ;
#214 = FILL_AREA_STYLE_COLOUR ( '', #74 ) ;
#215 = ORIENTED_EDGE ( 'NONE', *, *, #167, .T. ) ;
#216 = CARTESIAN_POINT ( 'NONE',  ( 1.913510623667739463E-17, 1.000000000000000000, 0.1562500000000000000 ) ) ;
#217 = EDGE_LOOP ( 'NONE', ( #39, #113 ) ) ;
#218 = DIRECTION ( 'NONE',  ( -3.061616997868386099E-17, 1.000000000000000000, -0.000000000000000000 ) ) ;
#219 = ORIENTED_EDGE ( 'NONE', *, *, #221, .F. ) ;
#220 = AXIS2_PLACEMENT_3D ( 'NONE', #77, #61, #180 ) ;
#221 = EDGE_CURVE ( 'NONE', #308, #119, #287, .T. ) ;
#222 = ADVANCED_BREP_SHAPE_REPRESENTATION ( '05232', ( #190, #79, #160 ), #268 ) ;
#223 = AXIS2_PLACEMENT_3D ( 'NONE', #50, #3, #56 ) ;
#224 = ADVANCED_FACE ( 'NONE', ( #18 ), #43, .T. ) ;
#225 = APPLICATION_CONTEXT ( 'automotive_design' ) ;
#226 = DIRECTION ( 'NONE',  ( 0.000000000000000000, 1.000000000000000000, 0.000000000000000000 ) ) ;
#227 = FILL_AREA_STYLE ('',( #142 ) ) ;
#228 = LENGTH_MEASURE_WITH_UNIT ( LENGTH_MEASURE( 0.02539999999999999897 ), #83 );
#229 = CARTESIAN_POINT ( 'NONE',  ( -6.123233995736772199E-17, 3.000000000000000444, 0.000000000000000000 ) ) ;
#230 = MECHANICAL_DESIGN_GEOMETRIC_PRESENTATION_REPRESENTATION (  '', ( #128 ), #30 ) ;
#231 = CARTESIAN_POINT ( 'NONE',  ( 7.582401355855259480E-33, 1.000000000000000000, 0.000000000000000000 ) ) ;
#232 = CYLINDRICAL_SURFACE ( 'NONE', #55, 0.1562500000000000278 ) ;
#233 = CIRCLE ( 'NONE', #206, 0.1562500000000000833 ) ;
#234 = DIMENSIONAL_EXPONENTS ( 1.000000000000000000, 0.000000000000000000, 0.000000000000000000, 0.000000000000000000, 0.000000000000000000, 0.000000000000000000, 0.000000000000000000 ) ;
#235 = LINE ( 'NONE', #274, #36 ) ;
#236 = COLOUR_RGB ( '',0.7921568627450980005, 0.8196078431372548767, 0.9333333333333333481 ) ;
#237 = DIMENSIONAL_EXPONENTS ( 1.000000000000000000, 0.000000000000000000, 0.000000000000000000, 0.000000000000000000, 0.000000000000000000, 0.000000000000000000, 0.000000000000000000 ) ;
#238 = ORIENTED_EDGE ( 'NONE', *, *, #211, .F. ) ;
#239 =( LENGTH_UNIT ( ) NAMED_UNIT ( * ) SI_UNIT ( $, .METRE. ) );
#240 = CARTESIAN_POINT ( 'NONE',  ( -0.1562500000000000000, 1.000000000000000000, 0.000000000000000000 ) ) ;
#241 = VERTEX_POINT ( 'NONE', #240 ) ;
#242 = DIRECTION ( 'NONE',  ( 0.000000000000000000, 0.000000000000000000, -1.000000000000000000 ) ) ;
#243 = VERTEX_POINT ( 'NONE', #304 ) ;
#244 = LENGTH_MEASURE_WITH_UNIT ( LENGTH_MEASURE( 0.02539999999999999897 ), #112 );
#245 = STYLED_ITEM ( 'NONE', ( #307 ), #179 ) ;
#246 =( CONVERSION_BASED_UNIT ( 'INCH', #52 ) LENGTH_UNIT ( ) NAMED_UNIT ( #237 ) );
#247 = VECTOR ( 'NONE', #34, 39.37007874015748143 ) ;
#248 = PRESENTATION_STYLE_ASSIGNMENT (( #144 ) ) ;
#249 =( NAMED_UNIT ( * ) PLANE_ANGLE_UNIT ( ) SI_UNIT ( $, .RADIAN. ) );
#250 = AXIS2_PLACEMENT_3D ( 'NONE', #9, #183, #295 ) ;
#251 = DIRECTION ( 'NONE',  ( -1.000000000000000000, 0.000000000000000000, 0.000000000000000000 ) ) ;
#252 = FILL_AREA_STYLE_COLOUR ( '', #76 ) ;
#253 =( NAMED_UNIT ( * ) SI_UNIT ( $, .STERADIAN. ) SOLID_ANGLE_UNIT ( ) );
#254 =( CONVERSION_BASED_UNIT ( 'INCH', #78 ) LENGTH_UNIT ( ) NAMED_UNIT ( #87 ) );
#255 = LINE ( 'NONE', #20, #247 ) ;
#256 = CLOSED_SHELL ( 'NONE', ( #289, #179, #7, #12 ) ) ;
#257 = AXIS2_PLACEMENT_3D ( 'NONE', #137, #218, #62 ) ;
#258 = LENGTH_MEASURE_WITH_UNIT ( LENGTH_MEASURE( 0.02539999999999999897 ), #239 );
#259 = SURFACE_STYLE_USAGE ( .BOTH. , #186 ) ;
#260 = FILL_AREA_STYLE_COLOUR ( '', #166 ) ;
#261 = DIRECTION ( 'NONE',  ( 0.000000000000000000, 0.000000000000000000, -1.000000000000000000 ) ) ;
#262 = EDGE_LOOP ( 'NONE', ( #133, #215, #187, #19 ) ) ;
#263 = CYLINDRICAL_SURFACE ( 'NONE', #223, 0.1562500000000000000 ) ;
#264 =( NAMED_UNIT ( * ) PLANE_ANGLE_UNIT ( ) SI_UNIT ( $, .RADIAN. ) );
#265 = SURFACE_SIDE_STYLE ('',( #267 ) ) ;
#266 = EDGE_CURVE ( 'NONE', #119, #308, #131, .T. ) ;
#267 = SURFACE_STYLE_FILL_AREA ( #123 ) ;
#268 =( GEOMETRIC_REPRESENTATION_CONTEXT ( 3 ) GLOBAL_UNCERTAINTY_ASSIGNED_CONTEXT ( ( #126 ) ) GLOBAL_UNIT_ASSIGNED_CONTEXT ( ( #94, #264, #96 ) ) REPRESENTATION_CONTEXT ( 'NONE', 'WORKASPACE' ) );
#269 =( LENGTH_UNIT ( ) NAMED_UNIT ( * ) SI_UNIT ( $, .METRE. ) );
#270 =( GEOMETRIC_REPRESENTATION_CONTEXT ( 3 ) GLOBAL_UNCERTAINTY_ASSIGNED_CONTEXT ( ( #143 ) ) GLOBAL_UNIT_ASSIGNED_CONTEXT ( ( #309, #249, #168 ) ) REPRESENTATION_CONTEXT ( 'NONE', 'WORKASPACE' ) );
#271 = AXIS2_PLACEMENT_3D ( 'NONE', #2, #122, #22 ) ;
#272 = PRESENTATION_STYLE_ASSIGNMENT (( #175 ) ) ;
#273 = DIMENSIONAL_EXPONENTS ( 1.000000000000000000, 0.000000000000000000, 0.000000000000000000, 0.000000000000000000, 0.000000000000000000, 0.000000000000000000, 0.000000000000000000 ) ;
#274 = CARTESIAN_POINT ( 'NONE',  ( -0.1562500000000001110, 3.000000000000000444, 0.000000000000000000 ) ) ;
#275 = FACE_OUTER_BOUND ( 'NONE', #161, .T. ) ;
#276 = VERTEX_POINT ( 'NONE', #40 ) ;
#277 = DIRECTION ( 'NONE',  ( 3.061616997868386099E-17, -1.000000000000000000, 0.000000000000000000 ) ) ;
#278 = PRODUCT_RELATED_PRODUCT_CATEGORY ( 'part', '', ( #212 ) ) ;
#279 = ORIENTED_EDGE ( 'NONE', *, *, #266, .F. ) ;
#280 = FILL_AREA_STYLE ('',( #260 ) ) ;
#281 =( CONVERSION_BASED_UNIT ( 'INCH', #258 ) LENGTH_UNIT ( ) NAMED_UNIT ( #210 ) );
#282 = STYLED_ITEM ( 'NONE', ( #272 ), #79 ) ;
#283 = UNCERTAINTY_MEASURE_WITH_UNIT (LENGTH_MEASURE( 1.000000000000000082E-05 ), #205, 'distance_accuracy_value', 'NONE');
#284 = ORIENTED_EDGE ( 'NONE', *, *, #167, .F. ) ;
#285 =( GEOMETRIC_REPRESENTATION_CONTEXT ( 3 ) GLOBAL_UNCERTAINTY_ASSIGNED_CONTEXT ( ( #283 ) ) GLOBAL_UNIT_ASSIGNED_CONTEXT ( ( #205, #102, #53 ) ) REPRESENTATION_CONTEXT ( 'NONE', 'WORKASPACE' ) );
#286 = DIRECTION ( 'NONE',  ( 0.000000000000000000, -0.000000000000000000, 1.000000000000000000 ) ) ;
#287 = CIRCLE ( 'NONE', #189, 0.1562500000000000000 ) ;
#288 = SURFACE_STYLE_FILL_AREA ( #227 ) ;
#289 = ADVANCED_FACE ( 'NONE', ( #306 ), #162, .T. ) ;
#290 = PRESENTATION_STYLE_ASSIGNMENT (( #97 ) ) ;
#291 =( NAMED_UNIT ( * ) SI_UNIT ( $, .STERADIAN. ) SOLID_ANGLE_UNIT ( ) );
#292 = CARTESIAN_POINT ( 'NONE',  ( 7.582401355855259480E-33, 1.000000000000000000, 0.000000000000000000 ) ) ;
#293 = MECHANICAL_DESIGN_GEOMETRIC_PRESENTATION_REPRESENTATION (  '', ( #115 ), #285 ) ;
#294 = AXIS2_PLACEMENT_3D ( 'NONE', #203, #111, #302 ) ;
#295 = DIRECTION ( 'NONE',  ( 0.000000000000000000, 0.000000000000000000, -1.000000000000000000 ) ) ;
#296 = DIRECTION ( 'NONE',  ( -3.061616997868386099E-17, 1.000000000000000000, -0.000000000000000000 ) ) ;
#297 = CARTESIAN_POINT ( 'NONE',  ( 0.000000000000000000, 0.000000000000000000, -0.1562500000000000000 ) ) ;
#298 = SURFACE_SIDE_STYLE ('',( #32 ) ) ;
#299 = EDGE_LOOP ( 'NONE', ( #279, #219 ) ) ;
#300 = ADVANCED_FACE ( 'NONE', ( #275 ), #41, .F. ) ;
#301 = CIRCLE ( 'NONE', #294, 0.1562500000000000000 ) ;
#302 = DIRECTION ( 'NONE',  ( 0.000000000000000000, 0.000000000000000000, -1.000000000000000000 ) ) ;
#303 = ORIENTED_EDGE ( 'NONE', *, *, #266, .T. ) ;
#304 = CARTESIAN_POINT ( 'NONE',  ( 0.1562500000000000000, 1.000000000000000000, 1.913510623667739771E-17 ) ) ;
#305 = ORIENTED_EDGE ( 'NONE', *, *, #101, .F. ) ;
#306 = FACE_OUTER_BOUND ( 'NONE', #138, .T. ) ;
#307 = PRESENTATION_STYLE_ASSIGNMENT (( #259 ) ) ;
#308 = VERTEX_POINT ( 'NONE', #216 ) ;
#309 =( CONVERSION_BASED_UNIT ( 'INCH', #244 ) LENGTH_UNIT ( ) NAMED_UNIT ( #182 ) );
ENDSEC;
END-ISO-10303-21;
