ISO-10303-21;
HEADER;
FILE_DESCRIPTION (( 'STEP AP214' ),
    '1' );
FILE_NAME ('Micro_SPD-500-090.STEP',
    '2021-09-03T21:21:24',
    ( '' ),
    ( '' ),
    'SwSTEP 2.0',
    'SolidWorks 2020',
    '' );
FILE_SCHEMA (( 'AUTOMOTIVE_DESIGN' ));
ENDSEC;

DATA;
#1 = MECHANICAL_DESIGN_GEOMETRIC_PRESENTATION_REPRESENTATION (  '', ( #265 ), #183 ) ;
#2 = CIRCLE ( 'NONE', #109, 0.2350000000000003753 ) ;
#3 = CYLINDRICAL_SURFACE ( 'NONE', #177, 0.2499500000000000888 ) ;
#4 = EDGE_LOOP ( 'NONE', ( #173, #181, #138, #230 ) ) ;
#5 = ADVANCED_FACE ( 'NONE', ( #340 ), #180, .F. ) ;
#6 = ORIENTED_EDGE ( 'NONE', *, *, #182, .T. ) ;
#7 = ORIENTED_EDGE ( 'NONE', *, *, #240, .T. ) ;
#8 = DIRECTION ( 'NONE',  ( 0.7071067811865330288, 8.659560562354755364E-17, -0.7071067811865618946 ) ) ;
#9 = ORIENTED_EDGE ( 'NONE', *, *, #171, .F. ) ;
#10 = DIRECTION ( 'NONE',  ( -0.0000000000000000000, -0.0000000000000000000, -1.000000000000000000 ) ) ;
#11 = ORIENTED_EDGE ( 'NONE', *, *, #14, .T. ) ;
#12 = COLOUR_RGB ( '',0.7921568627450980005, 0.8196078431372548767, 0.9333333333333333481 ) ;
#13 = CONICAL_SURFACE ( 'NONE', #146, 0.2499500000000001165, 0.7853981633974503884 ) ;
#14 = EDGE_CURVE ( 'NONE', #70, #84, #168, .T. ) ;
#15 =( CONVERSION_BASED_UNIT ( 'INCH', #260 ) LENGTH_UNIT ( ) NAMED_UNIT ( #349 ) );
#16 = DIRECTION ( 'NONE',  ( -0.0000000000000000000, -0.0000000000000000000, -1.000000000000000000 ) ) ;
#17 = ORIENTED_EDGE ( 'NONE', *, *, #92, .T. ) ;
#18 = AXIS2_PLACEMENT_3D ( 'NONE', #335, #16, #95 ) ;
#19 = AXIS2_PLACEMENT_3D ( 'NONE', #75, #296, #294 ) ;
#20 = SURFACE_STYLE_FILL_AREA ( #334 ) ;
#21 = UNCERTAINTY_MEASURE_WITH_UNIT (LENGTH_MEASURE( 1.000000000000000082E-05 ), #313, 'distance_accuracy_value', 'NONE');
#22 = DIRECTION ( 'NONE',  ( 0.0000000000000000000, 0.0000000000000000000, 1.000000000000000000 ) ) ;
#23 = FACE_OUTER_BOUND ( 'NONE', #330, .T. ) ;
#24 = CARTESIAN_POINT ( 'NONE',  ( -0.2500000000000000000, 0.0000000000000000000, 2.484999999999999876 ) ) ;
#25 = VECTOR ( 'NONE', #50, 39.37007874015748143 ) ;
#26 = CARTESIAN_POINT ( 'NONE',  ( 0.0000000000000000000, 0.0000000000000000000, 0.0000000000000000000 ) ) ;
#27 = CARTESIAN_POINT ( 'NONE',  ( 0.0000000000000000000, 0.0000000000000000000, 2.500000000000000000 ) ) ;
#28 = DIRECTION ( 'NONE',  ( -0.0000000000000000000, -0.0000000000000000000, -1.000000000000000000 ) ) ;
#29 = AXIS2_PLACEMENT_3D ( 'NONE', #320, #78, #158 ) ;
#30 = ADVANCED_FACE ( 'NONE', ( #123 ), #217, .T. ) ;
#31 = LINE ( 'NONE', #32, #233 ) ;
#32 = CARTESIAN_POINT ( 'NONE',  ( -0.2499500000000000888, 0.0000000000000000000, 0.0000000000000000000 ) ) ;
#33 = ORIENTED_EDGE ( 'NONE', *, *, #14, .F. ) ;
#34 = CARTESIAN_POINT ( 'NONE',  ( -0.2500000000000000000, 0.0000000000000000000, 2.500000000000000000 ) ) ;
#35 = EDGE_LOOP ( 'NONE', ( #54, #165, #232, #336 ) ) ;
#36 = AXIS2_PLACEMENT_3D ( 'NONE', #270, #271, #219 ) ;
#37 = DIRECTION ( 'NONE',  ( -1.000000000000000000, 0.0000000000000000000, 0.0000000000000000000 ) ) ;
#38 = ORIENTED_EDGE ( 'NONE', *, *, #73, .T. ) ;
#39 = AXIS2_PLACEMENT_3D ( 'NONE', #149, #66, #263 ) ;
#40 = CIRCLE ( 'NONE', #36, 0.2499500000000000610 ) ;
#41 = CARTESIAN_POINT ( 'NONE',  ( 0.03749999999999999861, 0.0000000000000000000, 0.0000000000000000000 ) ) ;
#42 = MANIFOLD_SOLID_BREP ( 'Cut-Revolve2', #321 ) ;
#43 = CARTESIAN_POINT ( 'NONE',  ( 0.0000000000000000000, 0.0000000000000000000, 2.500000000000000000 ) ) ;
#44 = CARTESIAN_POINT ( 'NONE',  ( -0.2499500000000001165, 3.061310836168596889E-17, 1.000000000000000000 ) ) ;
#45 = DIRECTION ( 'NONE',  ( 0.0000000000000000000, 0.0000000000000000000, 1.000000000000000000 ) ) ;
#46 = DIRECTION ( 'NONE',  ( 1.000000000000000000, 0.0000000000000000000, 0.0000000000000000000 ) ) ;
#47 = FACE_OUTER_BOUND ( 'NONE', #4, .T. ) ;
#48 = CARTESIAN_POINT ( 'NONE',  ( -0.03749999999999999861, 4.592425496802573602E-18, 0.0000000000000000000 ) ) ;
#49 = DIRECTION ( 'NONE',  ( 0.7071067811865490160, 0.0000000000000000000, 0.7071067811865460184 ) ) ;
#50 = DIRECTION ( 'NONE',  ( -0.0000000000000000000, -0.0000000000000000000, -1.000000000000000000 ) ) ;
#51 = ADVANCED_FACE ( 'NONE', ( #204 ), #189, .T. ) ;
#52 = FACE_OUTER_BOUND ( 'NONE', #202, .T. ) ;
#53 = CIRCLE ( 'NONE', #259, 0.2500000000000000000 ) ;
#54 = ORIENTED_EDGE ( 'NONE', *, *, #245, .F. ) ;
#55 = CARTESIAN_POINT ( 'NONE',  ( 0.0000000000000000000, 0.0000000000000000000, 1.000000000000000000 ) ) ;
#56 = PRODUCT_RELATED_PRODUCT_CATEGORY ( 'part', '', ( #103 ) ) ;
#57 = ORIENTED_EDGE ( 'NONE', *, *, #273, .T. ) ;
#58 = DIRECTION ( 'NONE',  ( -1.000000000000000000, 0.0000000000000000000, 0.0000000000000000000 ) ) ;
#59 = ORIENTED_EDGE ( 'NONE', *, *, #92, .F. ) ;
#60 = AXIS2_PLACEMENT_3D ( 'NONE', #98, #45, #261 ) ;
#61 = AXIS2_PLACEMENT_3D ( 'NONE', #129, #212, #127 ) ;
#62 =( NAMED_UNIT ( * ) PLANE_ANGLE_UNIT ( ) SI_UNIT ( $, .RADIAN. ) );
#63 = VERTEX_POINT ( 'NONE', #44 ) ;
#64 = FILL_AREA_STYLE ('',( #100 ) ) ;
#65 = ADVANCED_FACE ( 'NONE', ( #126 ), #152, .T. ) ;
#66 = DIRECTION ( 'NONE',  ( 0.0000000000000000000, 0.0000000000000000000, 1.000000000000000000 ) ) ;
#67 = LINE ( 'NONE', #41, #135 ) ;
#68 = EDGE_CURVE ( 'NONE', #280, #117, #67, .T. ) ;
#69 =( NAMED_UNIT ( * ) SI_UNIT ( $, .STERADIAN. ) SOLID_ANGLE_UNIT ( ) );
#70 = VERTEX_POINT ( 'NONE', #74 ) ;
#71 = CIRCLE ( 'NONE', #77, 0.03749999999999999861 ) ;
#72 = DIRECTION ( 'NONE',  ( 1.000000000000000000, 0.0000000000000000000, 0.0000000000000000000 ) ) ;
#73 = EDGE_CURVE ( 'NONE', #315, #195, #185, .T. ) ;
#74 = CARTESIAN_POINT ( 'NONE',  ( -0.2500000000000000000, 0.0000000000000000000, 1.000049999999999883 ) ) ;
#75 = CARTESIAN_POINT ( 'NONE',  ( 0.0000000000000000000, 0.0000000000000000000, 2.500000000000000000 ) ) ;
#76 = UNCERTAINTY_MEASURE_WITH_UNIT (LENGTH_MEASURE( 1.000000000000000082E-05 ), #15, 'distance_accuracy_value', 'NONE');
#77 = AXIS2_PLACEMENT_3D ( 'NONE', #106, #346, #323 ) ;
#78 = DIRECTION ( 'NONE',  ( 0.0000000000000000000, 0.0000000000000000000, -1.000000000000000000 ) ) ;
#79 = DIRECTION ( 'NONE',  ( 0.0000000000000000000, 0.0000000000000000000, 1.000000000000000000 ) ) ;
#80 = DIRECTION ( 'NONE',  ( -0.0000000000000000000, -0.0000000000000000000, -1.000000000000000000 ) ) ;
#81 = ORIENTED_EDGE ( 'NONE', *, *, #297, .F. ) ;
#82 =( LENGTH_UNIT ( ) NAMED_UNIT ( * ) SI_UNIT ( $, .METRE. ) );
#83 = AXIS2_PLACEMENT_3D ( 'NONE', #341, #209, #316 ) ;
#84 = VERTEX_POINT ( 'NONE', #186 ) ;
#85 = ADVANCED_FACE ( 'NONE', ( #244 ), #348, .T. ) ;
#86 = ORIENTED_EDGE ( 'NONE', *, *, #286, .T. ) ;
#87 = CARTESIAN_POINT ( 'NONE',  ( 0.0000000000000000000, 0.0000000000000000000, 0.0000000000000000000 ) ) ;
#88 = DIRECTION ( 'NONE',  ( 1.000000000000000000, 0.0000000000000000000, 0.0000000000000000000 ) ) ;
#89 = ORIENTED_EDGE ( 'NONE', *, *, #148, .T. ) ;
#90 = PRESENTATION_LAYER_ASSIGNMENT (  '', '', ( #265 ) ) ;
#91 = VECTOR ( 'NONE', #344, 39.37007874015748143 ) ;
#92 = EDGE_CURVE ( 'NONE', #315, #253, #2, .T. ) ;
#93 = VERTEX_POINT ( 'NONE', #216 ) ;
#94 = ADVANCED_BREP_SHAPE_REPRESENTATION ( 'Micro_SPD-500-090', ( #42, #39 ), #287 ) ;
#95 = DIRECTION ( 'NONE',  ( 1.000000000000000000, 0.0000000000000000000, 0.0000000000000000000 ) ) ;
#96 = EDGE_CURVE ( 'NONE', #253, #315, #322, .T. ) ;
#97 = UNCERTAINTY_MEASURE_WITH_UNIT (LENGTH_MEASURE( 1.000000000000000082E-05 ), #278, 'distance_accuracy_value', 'NONE');
#98 = CARTESIAN_POINT ( 'NONE',  ( 0.0000000000000000000, 0.0000000000000000000, 0.0000000000000000000 ) ) ;
#99 =( LENGTH_UNIT ( ) NAMED_UNIT ( * ) SI_UNIT ( $, .METRE. ) );
#100 = FILL_AREA_STYLE_COLOUR ( '', #12 ) ;
#101 = CIRCLE ( 'NONE', #159, 0.2499500000000001165 ) ;
#102 = CARTESIAN_POINT ( 'NONE',  ( 0.0000000000000000000, 0.0000000000000000000, 2.500000000000000000 ) ) ;
#103 = PRODUCT ( 'Micro_SPD-500-090', 'Micro_SPD-500-090', '', ( #151 ) ) ;
#104 = CIRCLE ( 'NONE', #246, 0.2500000000000000000 ) ;
#105 = CYLINDRICAL_SURFACE ( 'NONE', #19, 0.2500000000000000000 ) ;
#106 = CARTESIAN_POINT ( 'NONE',  ( 0.0000000000000000000, 0.0000000000000000000, 0.0000000000000000000 ) ) ;
#107 = DIRECTION ( 'NONE',  ( -0.7071067811865490160, 8.659560562354951347E-17, 0.7071067811865459074 ) ) ;
#108 = EDGE_CURVE ( 'NONE', #280, #144, #170, .T. ) ;
#109 = AXIS2_PLACEMENT_3D ( 'NONE', #102, #22, #210 ) ;
#110 = DIRECTION ( 'NONE',  ( 0.7071067811865490160, 0.0000000000000000000, 0.7071067811865459074 ) ) ;
#111 = DIRECTION ( 'NONE',  ( 0.0000000000000000000, 0.0000000000000000000, -1.000000000000000000 ) ) ;
#112 = CARTESIAN_POINT ( 'NONE',  ( -0.2499500000000001165, 3.061004674468810760E-17, 1.000000000000000000 ) ) ;
#113 = ORIENTED_EDGE ( 'NONE', *, *, #108, .F. ) ;
#114 = DIRECTION ( 'NONE',  ( 1.000000000000000000, 0.0000000000000000000, 0.0000000000000000000 ) ) ;
#115 = ORIENTED_EDGE ( 'NONE', *, *, #252, .T. ) ;
#116 = DIRECTION ( 'NONE',  ( -0.0000000000000000000, -0.0000000000000000000, -1.000000000000000000 ) ) ;
#117 = VERTEX_POINT ( 'NONE', #191 ) ;
#118 = CARTESIAN_POINT ( 'NONE',  ( 0.0000000000000000000, 0.0000000000000000000, 0.2124499999999991118 ) ) ;
#119 = ORIENTED_EDGE ( 'NONE', *, *, #73, .F. ) ;
#120 = ORIENTED_EDGE ( 'NONE', *, *, #68, .T. ) ;
#121 = AXIS2_PLACEMENT_3D ( 'NONE', #176, #150, #264 ) ;
#122 = PRESENTATION_STYLE_ASSIGNMENT (( #258 ) ) ;
#123 = FACE_OUTER_BOUND ( 'NONE', #178, .T. ) ;
#124 = ORIENTED_EDGE ( 'NONE', *, *, #108, .T. ) ;
#125 = AXIS2_PLACEMENT_3D ( 'NONE', #43, #206, #310 ) ;
#126 = FACE_OUTER_BOUND ( 'NONE', #238, .T. ) ;
#127 = DIRECTION ( 'NONE',  ( -1.000000000000000000, 0.0000000000000000000, 0.0000000000000000000 ) ) ;
#128 = ADVANCED_FACE ( 'NONE', ( #242 ), #13, .T. ) ;
#129 = CARTESIAN_POINT ( 'NONE',  ( 0.0000000000000000000, 0.0000000000000000000, 0.0000000000000000000 ) ) ;
#130 = CONICAL_SURFACE ( 'NONE', #161, 0.03749999999999999861, 0.7853981633974504994 ) ;
#131 = DIRECTION ( 'NONE',  ( -0.0000000000000000000, -0.0000000000000000000, -1.000000000000000000 ) ) ;
#132 = CARTESIAN_POINT ( 'NONE',  ( 0.2500000000000000000, 3.061616997868383018E-17, 2.500000000000000000 ) ) ;
#133 =( GEOMETRIC_REPRESENTATION_CONTEXT ( 3 ) GLOBAL_UNCERTAINTY_ASSIGNED_CONTEXT ( ( #21 ) ) GLOBAL_UNIT_ASSIGNED_CONTEXT ( ( #313, #62, #179 ) ) REPRESENTATION_CONTEXT ( 'NONE', 'WORKASPACE' ) );
#134 = FACE_OUTER_BOUND ( 'NONE', #308, .T. ) ;
#135 = VECTOR ( 'NONE', #110, 39.37007874015748854 ) ;
#136 = CARTESIAN_POINT ( 'NONE',  ( 0.0000000000000000000, 0.0000000000000000000, 2.484999999999999876 ) ) ;
#137 = ADVANCED_FACE ( 'NONE', ( #47 ), #184, .T. ) ;
#138 = ORIENTED_EDGE ( 'NONE', *, *, #297, .T. ) ;
#139 = COLOUR_RGB ( '',0.7921568627450980005, 0.8196078431372548767, 0.9333333333333333481 ) ;
#140 = ORIENTED_EDGE ( 'NONE', *, *, #273, .F. ) ;
#141 = DIRECTION ( 'NONE',  ( 1.000000000000000000, 0.0000000000000000000, 0.0000000000000000000 ) ) ;
#142 = AXIS2_PLACEMENT_3D ( 'NONE', #118, #116, #197 ) ;
#143 = ORIENTED_EDGE ( 'NONE', *, *, #96, .F. ) ;
#144 = VERTEX_POINT ( 'NONE', #269 ) ;
#145 = SURFACE_SIDE_STYLE ('',( #241 ) ) ;
#146 = AXIS2_PLACEMENT_3D ( 'NONE', #156, #153, #72 ) ;
#147 = APPLICATION_PROTOCOL_DEFINITION ( 'draft international standard', 'automotive_design', 1998, #257 ) ;
#148 = EDGE_CURVE ( 'NONE', #225, #84, #214, .T. ) ;
#149 = CARTESIAN_POINT ( 'NONE',  ( 0.0000000000000000000, 0.0000000000000000000, 0.0000000000000000000 ) ) ;
#150 = DIRECTION ( 'NONE',  ( 0.0000000000000000000, 0.0000000000000000000, -1.000000000000000000 ) ) ;
#151 = PRODUCT_CONTEXT ( 'NONE', #235, 'mechanical' ) ;
#152 = CONICAL_SURFACE ( 'NONE', #83, 0.2499500000000001165, 0.7853981633974503884 ) ;
#153 = DIRECTION ( 'NONE',  ( 0.0000000000000000000, 0.0000000000000000000, 1.000000000000000000 ) ) ;
#154 = DIRECTION ( 'NONE',  ( 1.000000000000000000, 0.0000000000000000000, 0.0000000000000000000 ) ) ;
#155 = CARTESIAN_POINT ( 'NONE',  ( 0.2499500000000001165, 0.0000000000000000000, 1.000000000000000000 ) ) ;
#156 = CARTESIAN_POINT ( 'NONE',  ( 0.0000000000000000000, 0.0000000000000000000, 1.000000000000000000 ) ) ;
#157 = ADVANCED_FACE ( 'NONE', ( #23 ), #105, .T. ) ;
#158 = DIRECTION ( 'NONE',  ( 1.000000000000000000, 0.0000000000000000000, 0.0000000000000000000 ) ) ;
#159 = AXIS2_PLACEMENT_3D ( 'NONE', #55, #28, #229 ) ;
#160 = CARTESIAN_POINT ( 'NONE',  ( 0.03749999999999999861, 0.0000000000000000000, 0.0000000000000000000 ) ) ;
#161 = AXIS2_PLACEMENT_3D ( 'NONE', #248, #226, #88 ) ;
#162 = LINE ( 'NONE', #34, #25 ) ;
#163 = ORIENTED_EDGE ( 'NONE', *, *, #196, .T. ) ;
#164 = DIRECTION ( 'NONE',  ( -0.0000000000000000000, -0.0000000000000000000, -1.000000000000000000 ) ) ;
#165 = ORIENTED_EDGE ( 'NONE', *, *, #311, .F. ) ;
#166 = CARTESIAN_POINT ( 'NONE',  ( 0.2350000000000003753, 2.969768487932332963E-17, 2.500000000000000000 ) ) ;
#167 = ORIENTED_EDGE ( 'NONE', *, *, #286, .F. ) ;
#168 = CIRCLE ( 'NONE', #18, 0.2500000000000000000 ) ;
#169 = CYLINDRICAL_SURFACE ( 'NONE', #291, 0.2500000000000000000 ) ;
#170 = CIRCLE ( 'NONE', #61, 0.03749999999999999861 ) ;
#171 = EDGE_CURVE ( 'NONE', #250, #84, #247, .T. ) ;
#172 = EDGE_LOOP ( 'NONE', ( #124, #163 ) ) ;
#173 = ORIENTED_EDGE ( 'NONE', *, *, #196, .F. ) ;
#174 = STYLED_ITEM ( 'NONE', ( #122 ), #94 ) ;
#175 = ORIENTED_EDGE ( 'NONE', *, *, #311, .T. ) ;
#176 = CARTESIAN_POINT ( 'NONE',  ( 0.0000000000000000000, 0.0000000000000000000, 2.500000000000000000 ) ) ;
#177 = AXIS2_PLACEMENT_3D ( 'NONE', #87, #10, #37 ) ;
#178 = EDGE_LOOP ( 'NONE', ( #143, #86, #285, #119 ) ) ;
#179 =( NAMED_UNIT ( * ) SI_UNIT ( $, .STERADIAN. ) SOLID_ANGLE_UNIT ( ) );
#180 = PLANE ( 'NONE',  #60 ) ;
#181 = ORIENTED_EDGE ( 'NONE', *, *, #213, .T. ) ;
#182 = EDGE_CURVE ( 'NONE', #117, #93, #40, .T. ) ;
#183 =( GEOMETRIC_REPRESENTATION_CONTEXT ( 3 ) GLOBAL_UNCERTAINTY_ASSIGNED_CONTEXT ( ( #76 ) ) GLOBAL_UNIT_ASSIGNED_CONTEXT ( ( #15, #236, #69 ) ) REPRESENTATION_CONTEXT ( 'NONE', 'WORKASPACE' ) );
#184 = CONICAL_SURFACE ( 'NONE', #200, 0.03749999999999999861, 0.7853981633974504994 ) ;
#185 = LINE ( 'NONE', #318, #289 ) ;
#186 = CARTESIAN_POINT ( 'NONE',  ( 0.2500000000000000000, 3.061616997868383018E-17, 1.000049999999999883 ) ) ;
#187 = PRODUCT_DEFINITION ( 'UNKNOWN', '', #243, #207 ) ;
#188 = CARTESIAN_POINT ( 'NONE',  ( 0.0000000000000000000, 0.0000000000000000000, 2.500000000000000000 ) ) ;
#189 = CONICAL_SURFACE ( 'NONE', #125, 0.2350000000000003753, 0.7853981633974278509 ) ;
#190 = FACE_OUTER_BOUND ( 'NONE', #227, .T. ) ;
#191 = CARTESIAN_POINT ( 'NONE',  ( 0.2499500000000000610, 3.061004674468810144E-17, 0.2124499999999991118 ) ) ;
#192 = LINE ( 'NONE', #112, #211 ) ;
#193 = LENGTH_MEASURE_WITH_UNIT ( LENGTH_MEASURE( 0.02539999999999999897 ), #82 );
#194 = CARTESIAN_POINT ( 'NONE',  ( 0.2350000000000003753, 2.877919977996284141E-17, 2.500000000000000000 ) ) ;
#195 = VERTEX_POINT ( 'NONE', #24 ) ;
#196 = EDGE_CURVE ( 'NONE', #144, #280, #71, .T. ) ;
#197 = DIRECTION ( 'NONE',  ( -1.000000000000000000, 0.0000000000000000000, 0.0000000000000000000 ) ) ;
#198 = ORIENTED_EDGE ( 'NONE', *, *, #277, .F. ) ;
#199 = FACE_OUTER_BOUND ( 'NONE', #223, .T. ) ;
#200 = AXIS2_PLACEMENT_3D ( 'NONE', #343, #292, #46 ) ;
#201 = EDGE_LOOP ( 'NONE', ( #302, #288, #81, #283 ) ) ;
#202 = EDGE_LOOP ( 'NONE', ( #234, #57, #115, #254 ) ) ;
#203 = LENGTH_MEASURE_WITH_UNIT ( LENGTH_MEASURE( 0.02539999999999999897 ), #99 );
#204 = FACE_OUTER_BOUND ( 'NONE', #279, .T. ) ;
#205 = FILL_AREA_STYLE_COLOUR ( '', #139 ) ;
#206 = DIRECTION ( 'NONE',  ( 0.0000000000000000000, 0.0000000000000000000, -1.000000000000000000 ) ) ;
#207 = PRODUCT_DEFINITION_CONTEXT ( 'detailed design', #257, 'design' ) ;
#208 = ADVANCED_FACE ( 'NONE', ( #190 ), #319, .T. ) ;
#209 = DIRECTION ( 'NONE',  ( 0.0000000000000000000, 0.0000000000000000000, 1.000000000000000000 ) ) ;
#210 = DIRECTION ( 'NONE',  ( 1.000000000000000000, 0.0000000000000000000, 0.0000000000000000000 ) ) ;
#211 = VECTOR ( 'NONE', #326, 39.37007874015748143 ) ;
#212 = DIRECTION ( 'NONE',  ( -0.0000000000000000000, -0.0000000000000000000, -1.000000000000000000 ) ) ;
#213 = EDGE_CURVE ( 'NONE', #144, #93, #295, .T. ) ;
#214 = LINE ( 'NONE', #132, #91 ) ;
#215 = MECHANICAL_DESIGN_GEOMETRIC_PRESENTATION_REPRESENTATION (  '', ( #174 ), #133 ) ;
#216 = CARTESIAN_POINT ( 'NONE',  ( -0.2499500000000000610, 0.0000000000000000000, 0.2124499999999991118 ) ) ;
#217 = CONICAL_SURFACE ( 'NONE', #121, 0.2350000000000003753, 0.7853981633974278509 ) ;
#218 = AXIS2_PLACEMENT_3D ( 'NONE', #188, #79, #347 ) ;
#219 = DIRECTION ( 'NONE',  ( -1.000000000000000000, 0.0000000000000000000, 0.0000000000000000000 ) ) ;
#220 = DIMENSIONAL_EXPONENTS ( 1.000000000000000000, 0.0000000000000000000, 0.0000000000000000000, 0.0000000000000000000, 0.0000000000000000000, 0.0000000000000000000, 0.0000000000000000000 ) ;
#221 = CARTESIAN_POINT ( 'NONE',  ( 0.2499500000000000888, 3.061004674468810760E-17, 0.0000000000000000000 ) ) ;
#222 = EDGE_CURVE ( 'NONE', #195, #225, #306, .T. ) ;
#223 = EDGE_LOOP ( 'NONE', ( #198, #175, #7, #327 ) ) ;
#224 = DIMENSIONAL_EXPONENTS ( 1.000000000000000000, 0.0000000000000000000, 0.0000000000000000000, 0.0000000000000000000, 0.0000000000000000000, 0.0000000000000000000, 0.0000000000000000000 ) ;
#225 = VERTEX_POINT ( 'NONE', #272 ) ;
#226 = DIRECTION ( 'NONE',  ( 0.0000000000000000000, 0.0000000000000000000, 1.000000000000000000 ) ) ;
#227 = EDGE_LOOP ( 'NONE', ( #17, #325 ) ) ;
#228 = ADVANCED_FACE ( 'NONE', ( #134 ), #130, .T. ) ;
#229 = DIRECTION ( 'NONE',  ( -1.000000000000000000, 0.0000000000000000000, 0.0000000000000000000 ) ) ;
#230 = ORIENTED_EDGE ( 'NONE', *, *, #68, .F. ) ;
#231 = DIRECTION ( 'NONE',  ( -1.000000000000000000, 0.0000000000000000000, 0.0000000000000000000 ) ) ;
#232 = ORIENTED_EDGE ( 'NONE', *, *, #171, .T. ) ;
#233 = VECTOR ( 'NONE', #80, 39.37007874015748143 ) ;
#234 = ORIENTED_EDGE ( 'NONE', *, *, #148, .F. ) ;
#235 = APPLICATION_CONTEXT ( 'automotive_design' ) ;
#236 =( NAMED_UNIT ( * ) PLANE_ANGLE_UNIT ( ) SI_UNIT ( $, .RADIAN. ) );
#237 = SURFACE_STYLE_USAGE ( .BOTH. , #145 ) ;
#238 = EDGE_LOOP ( 'NONE', ( #332, #307, #11, #9 ) ) ;
#239 = AXIS2_PLACEMENT_3D ( 'NONE', #26, #131, #298 ) ;
#240 = EDGE_CURVE ( 'NONE', #63, #93, #31, .T. ) ;
#241 = SURFACE_STYLE_FILL_AREA ( #64 ) ;
#242 = FACE_OUTER_BOUND ( 'NONE', #35, .T. ) ;
#243 = PRODUCT_DEFINITION_FORMATION_WITH_SPECIFIED_SOURCE ( 'ANY', '', #103, .NOT_KNOWN. ) ;
#244 = FACE_OUTER_BOUND ( 'NONE', #201, .T. ) ;
#245 = EDGE_CURVE ( 'NONE', #63, #70, #192, .T. ) ;
#246 = AXIS2_PLACEMENT_3D ( 'NONE', #136, #111, #114 ) ;
#247 = LINE ( 'NONE', #155, #266 ) ;
#248 = CARTESIAN_POINT ( 'NONE',  ( 0.0000000000000000000, 0.0000000000000000000, 0.0000000000000000000 ) ) ;
#249 = CARTESIAN_POINT ( 'NONE',  ( -0.2350000000000003753, 0.0000000000000000000, 2.500000000000000000 ) ) ;
#250 = VERTEX_POINT ( 'NONE', #282 ) ;
#251 =( NAMED_UNIT ( * ) PLANE_ANGLE_UNIT ( ) SI_UNIT ( $, .RADIAN. ) );
#252 = EDGE_CURVE ( 'NONE', #195, #70, #162, .T. ) ;
#253 = VERTEX_POINT ( 'NONE', #166 ) ;
#254 = ORIENTED_EDGE ( 'NONE', *, *, #268, .F. ) ;
#255 = LINE ( 'NONE', #221, #300 ) ;
#256 = ORIENTED_EDGE ( 'NONE', *, *, #213, .F. ) ;
#257 = APPLICATION_CONTEXT ( 'automotive_design' ) ;
#258 = SURFACE_STYLE_USAGE ( .BOTH. , #339 ) ;
#259 = AXIS2_PLACEMENT_3D ( 'NONE', #301, #274, #141 ) ;
#260 = LENGTH_MEASURE_WITH_UNIT ( LENGTH_MEASURE( 0.02539999999999999897 ), #338 );
#261 = DIRECTION ( 'NONE',  ( 1.000000000000000000, 0.0000000000000000000, -0.0000000000000000000 ) ) ;
#262 = AXIS2_PLACEMENT_3D ( 'NONE', #331, #276, #58 ) ;
#263 = DIRECTION ( 'NONE',  ( 1.000000000000000000, 0.0000000000000000000, 0.0000000000000000000 ) ) ;
#264 = DIRECTION ( 'NONE',  ( -1.000000000000000000, 0.0000000000000000000, 0.0000000000000000000 ) ) ;
#265 = STYLED_ITEM ( 'NONE', ( #290 ), #42 ) ;
#266 = VECTOR ( 'NONE', #49, 39.37007874015748143 ) ;
#267 = DIRECTION ( 'NONE',  ( -0.7071067811865330288, 0.0000000000000000000, -0.7071067811865618946 ) ) ;
#268 = EDGE_CURVE ( 'NONE', #84, #70, #53, .T. ) ;
#269 = CARTESIAN_POINT ( 'NONE',  ( -0.03749999999999999861, 1.760123612074533598E-17, 0.0000000000000000000 ) ) ;
#270 = CARTESIAN_POINT ( 'NONE',  ( 0.0000000000000000000, 0.0000000000000000000, 0.2124499999999991118 ) ) ;
#271 = DIRECTION ( 'NONE',  ( -0.0000000000000000000, -0.0000000000000000000, -1.000000000000000000 ) ) ;
#272 = CARTESIAN_POINT ( 'NONE',  ( 0.2500000000000000000, 3.061616997868383018E-17, 2.484999999999999876 ) ) ;
#273 = EDGE_CURVE ( 'NONE', #225, #195, #104, .T. ) ;
#274 = DIRECTION ( 'NONE',  ( -0.0000000000000000000, -0.0000000000000000000, -1.000000000000000000 ) ) ;
#275 = AXIS2_PLACEMENT_3D ( 'NONE', #27, #317, #154 ) ;
#276 = DIRECTION ( 'NONE',  ( -0.0000000000000000000, -0.0000000000000000000, -1.000000000000000000 ) ) ;
#277 = EDGE_CURVE ( 'NONE', #250, #117, #255, .T. ) ;
#278 =( CONVERSION_BASED_UNIT ( 'INCH', #193 ) LENGTH_UNIT ( ) NAMED_UNIT ( #220 ) );
#279 = EDGE_LOOP ( 'NONE', ( #167, #59, #38, #140 ) ) ;
#280 = VERTEX_POINT ( 'NONE', #160 ) ;
#281 = CIRCLE ( 'NONE', #262, 0.2499500000000001165 ) ;
#282 = CARTESIAN_POINT ( 'NONE',  ( 0.2499500000000001165, 0.0000000000000000000, 1.000000000000000000 ) ) ;
#283 = ORIENTED_EDGE ( 'NONE', *, *, #240, .F. ) ;
#284 = SHAPE_DEFINITION_REPRESENTATION ( #314, #94 ) ;
#285 = ORIENTED_EDGE ( 'NONE', *, *, #222, .F. ) ;
#286 = EDGE_CURVE ( 'NONE', #253, #225, #324, .T. ) ;
#287 =( GEOMETRIC_REPRESENTATION_CONTEXT ( 3 ) GLOBAL_UNCERTAINTY_ASSIGNED_CONTEXT ( ( #97 ) ) GLOBAL_UNIT_ASSIGNED_CONTEXT ( ( #278, #251, #329 ) ) REPRESENTATION_CONTEXT ( 'NONE', 'WORKASPACE' ) );
#288 = ORIENTED_EDGE ( 'NONE', *, *, #277, .T. ) ;
#289 = VECTOR ( 'NONE', #267, 39.37007874015748854 ) ;
#290 = PRESENTATION_STYLE_ASSIGNMENT (( #237 ) ) ;
#291 = AXIS2_PLACEMENT_3D ( 'NONE', #303, #304, #231 ) ;
#292 = DIRECTION ( 'NONE',  ( 0.0000000000000000000, 0.0000000000000000000, 1.000000000000000000 ) ) ;
#293 = ADVANCED_FACE ( 'NONE', ( #199 ), #3, .T. ) ;
#294 = DIRECTION ( 'NONE',  ( -1.000000000000000000, 0.0000000000000000000, 0.0000000000000000000 ) ) ;
#295 = LINE ( 'NONE', #48, #333 ) ;
#296 = DIRECTION ( 'NONE',  ( -0.0000000000000000000, -0.0000000000000000000, -1.000000000000000000 ) ) ;
#297 = EDGE_CURVE ( 'NONE', #93, #117, #328, .T. ) ;
#298 = DIRECTION ( 'NONE',  ( -1.000000000000000000, 0.0000000000000000000, 0.0000000000000000000 ) ) ;
#299 = ADVANCED_FACE ( 'NONE', ( #52 ), #169, .T. ) ;
#300 = VECTOR ( 'NONE', #164, 39.37007874015748143 ) ;
#301 = CARTESIAN_POINT ( 'NONE',  ( 0.0000000000000000000, 0.0000000000000000000, 1.000049999999999883 ) ) ;
#302 = ORIENTED_EDGE ( 'NONE', *, *, #342, .T. ) ;
#303 = CARTESIAN_POINT ( 'NONE',  ( 0.0000000000000000000, 0.0000000000000000000, 2.500000000000000000 ) ) ;
#304 = DIRECTION ( 'NONE',  ( -0.0000000000000000000, -0.0000000000000000000, -1.000000000000000000 ) ) ;
#305 = ORIENTED_EDGE ( 'NONE', *, *, #252, .F. ) ;
#306 = CIRCLE ( 'NONE', #29, 0.2500000000000000000 ) ;
#307 = ORIENTED_EDGE ( 'NONE', *, *, #245, .T. ) ;
#308 = EDGE_LOOP ( 'NONE', ( #256, #113, #120, #6 ) ) ;
#309 = PRESENTATION_LAYER_ASSIGNMENT (  '', '', ( #174 ) ) ;
#310 = DIRECTION ( 'NONE',  ( -1.000000000000000000, 0.0000000000000000000, 0.0000000000000000000 ) ) ;
#311 = EDGE_CURVE ( 'NONE', #250, #63, #281, .T. ) ;
#312 = ORIENTED_EDGE ( 'NONE', *, *, #222, .T. ) ;
#313 =( CONVERSION_BASED_UNIT ( 'INCH', #203 ) LENGTH_UNIT ( ) NAMED_UNIT ( #224 ) );
#314 = PRODUCT_DEFINITION_SHAPE ( 'NONE', 'NONE',  #187 ) ;
#315 = VERTEX_POINT ( 'NONE', #249 ) ;
#316 = DIRECTION ( 'NONE',  ( 1.000000000000000000, 0.0000000000000000000, 0.0000000000000000000 ) ) ;
#317 = DIRECTION ( 'NONE',  ( 0.0000000000000000000, 0.0000000000000000000, 1.000000000000000000 ) ) ;
#318 = CARTESIAN_POINT ( 'NONE',  ( -0.2350000000000003753, 0.0000000000000000000, 2.500000000000000000 ) ) ;
#319 = PLANE ( 'NONE',  #218 ) ;
#320 = CARTESIAN_POINT ( 'NONE',  ( 0.0000000000000000000, 0.0000000000000000000, 2.484999999999999876 ) ) ;
#321 = CLOSED_SHELL ( 'NONE', ( #137, #85, #65, #30, #157, #299, #208, #51, #128, #293, #228, #5 ) ) ;
#322 = CIRCLE ( 'NONE', #275, 0.2350000000000003753 ) ;
#323 = DIRECTION ( 'NONE',  ( -1.000000000000000000, 0.0000000000000000000, 0.0000000000000000000 ) ) ;
#324 = LINE ( 'NONE', #194, #345 ) ;
#325 = ORIENTED_EDGE ( 'NONE', *, *, #96, .T. ) ;
#326 = DIRECTION ( 'NONE',  ( -0.7071067811865490160, 8.659560562354951347E-17, 0.7071067811865460184 ) ) ;
#327 = ORIENTED_EDGE ( 'NONE', *, *, #182, .F. ) ;
#328 = CIRCLE ( 'NONE', #142, 0.2499500000000000610 ) ;
#329 =( NAMED_UNIT ( * ) SI_UNIT ( $, .STERADIAN. ) SOLID_ANGLE_UNIT ( ) );
#330 = EDGE_LOOP ( 'NONE', ( #312, #89, #33, #305 ) ) ;
#331 = CARTESIAN_POINT ( 'NONE',  ( 0.0000000000000000000, 0.0000000000000000000, 1.000000000000000000 ) ) ;
#332 = ORIENTED_EDGE ( 'NONE', *, *, #342, .F. ) ;
#333 = VECTOR ( 'NONE', #107, 39.37007874015748854 ) ;
#334 = FILL_AREA_STYLE ('',( #205 ) ) ;
#335 = CARTESIAN_POINT ( 'NONE',  ( 0.0000000000000000000, 0.0000000000000000000, 1.000049999999999883 ) ) ;
#336 = ORIENTED_EDGE ( 'NONE', *, *, #268, .T. ) ;
#337 = APPLICATION_PROTOCOL_DEFINITION ( 'draft international standard', 'automotive_design', 1998, #235 ) ;
#338 =( LENGTH_UNIT ( ) NAMED_UNIT ( * ) SI_UNIT ( $, .METRE. ) );
#339 = SURFACE_SIDE_STYLE ('',( #20 ) ) ;
#340 = FACE_OUTER_BOUND ( 'NONE', #172, .T. ) ;
#341 = CARTESIAN_POINT ( 'NONE',  ( 0.0000000000000000000, 0.0000000000000000000, 1.000000000000000000 ) ) ;
#342 = EDGE_CURVE ( 'NONE', #63, #250, #101, .T. ) ;
#343 = CARTESIAN_POINT ( 'NONE',  ( 0.0000000000000000000, 0.0000000000000000000, 0.0000000000000000000 ) ) ;
#344 = DIRECTION ( 'NONE',  ( -0.0000000000000000000, -0.0000000000000000000, -1.000000000000000000 ) ) ;
#345 = VECTOR ( 'NONE', #8, 39.37007874015748854 ) ;
#346 = DIRECTION ( 'NONE',  ( -0.0000000000000000000, -0.0000000000000000000, -1.000000000000000000 ) ) ;
#347 = DIRECTION ( 'NONE',  ( 1.000000000000000000, 0.0000000000000000000, -0.0000000000000000000 ) ) ;
#348 = CYLINDRICAL_SURFACE ( 'NONE', #239, 0.2499500000000000888 ) ;
#349 = DIMENSIONAL_EXPONENTS ( 1.000000000000000000, 0.0000000000000000000, 0.0000000000000000000, 0.0000000000000000000, 0.0000000000000000000, 0.0000000000000000000, 0.0000000000000000000 ) ;
ENDSEC;
END-ISO-10303-21;
