ISO-10303-21;
HEADER;
FILE_DESCRIPTION (( 'STEP AP214' ),
    '1' );
FILE_NAME ('01647.STEP',
    '2023-06-22T14:41:42',
    ( '' ),
    ( '' ),
    'SwSTEP 2.0',
    'SolidWorks 2023',
    '' );
FILE_SCHEMA (( 'AUTOMOTIVE_DESIGN' ));
ENDSEC;

DATA;
#1 = FILL_AREA_STYLE ('',( #46 ) ) ;
#2 = CIRCLE ( 'NONE', #158, 0.3749999999999997780 ) ;
#3 = VERTEX_POINT ( 'NONE', #24 ) ;
#4 = CARTESIAN_POINT ( 'NONE',  ( 2.449293598294707400E-16, 4.000000000000000000, 0.000000000000000000 ) ) ;
#5 = PRESENTATION_STYLE_ASSIGNMENT (( #242 ) ) ;
#6 = SURFACE_STYLE_FILL_AREA ( #271 ) ;
#7 = SURFACE_STYLE_USAGE ( .BOTH. , #270 ) ;
#8 = DIMENSIONAL_EXPONENTS ( 1.000000000000000000, 0.000000000000000000, 0.000000000000000000, 0.000000000000000000, 0.000000000000000000, 0.000000000000000000, 0.000000000000000000 ) ;
#9 = AXIS2_PLACEMENT_3D ( 'NONE', #240, #29, #113 ) ;
#10 = UNCERTAINTY_MEASURE_WITH_UNIT (LENGTH_MEASURE( 1.000000000000000082E-05 ), #89, 'distance_accuracy_value', 'NONE');
#11 = CIRCLE ( 'NONE', #93, 0.3750000000000000555 ) ;
#12 = DIRECTION ( 'NONE',  ( 8.164311994315692567E-17, 1.000000000000000000, -0.000000000000000000 ) ) ;
#13 = DIRECTION ( 'NONE',  ( 1.000000000000000000, -8.164311994315692567E-17, 0.000000000000000000 ) ) ;
#14 =( LENGTH_UNIT ( ) NAMED_UNIT ( * ) SI_UNIT ( $, .METRE. ) );
#15 = FILL_AREA_STYLE_COLOUR ( '', #78 ) ;
#16 = CARTESIAN_POINT ( 'NONE',  ( 0.3750000000000000555, 1.000000000000000222, 4.592425496802573602E-17 ) ) ;
#17 = EDGE_CURVE ( 'NONE', #109, #3, #210, .T. ) ;
#18 = VERTEX_POINT ( 'NONE', #27 ) ;
#19 = PRODUCT_RELATED_PRODUCT_CATEGORY ( 'part', '', ( #216 ) ) ;
#20 = ORIENTED_EDGE ( 'NONE', *, *, #251, .T. ) ;
#21 = CARTESIAN_POINT ( 'NONE',  ( 2.449293598294707400E-16, 4.000000000000000000, 0.000000000000000000 ) ) ;
#22 = EDGE_LOOP ( 'NONE', ( #283, #165, #184, #101 ) ) ;
#23 = EDGE_CURVE ( 'NONE', #109, #234, #91, .T. ) ;
#24 = CARTESIAN_POINT ( 'NONE',  ( 0.000000000000000000, 0.000000000000000000, -0.3750000000000000555 ) ) ;
#25 = COLOUR_RGB ( '',0.7921568627450980005, 0.8196078431372548767, 0.9333333333333333481 ) ;
#26 =( LENGTH_UNIT ( ) NAMED_UNIT ( * ) SI_UNIT ( $, .METRE. ) );
#27 = CARTESIAN_POINT ( 'NONE',  ( 4.592425496802575451E-17, 0.000000000000000000, 0.3750000000000000555 ) ) ;
#28 = ADVANCED_FACE ( 'NONE', ( #150 ), #245, .T. ) ;
#29 = DIRECTION ( 'NONE',  ( -0.000000000000000000, -1.000000000000000000, -0.000000000000000000 ) ) ;
#30 = SURFACE_STYLE_FILL_AREA ( #118 ) ;
#31 = AXIS2_PLACEMENT_3D ( 'NONE', #152, #151, #247 ) ;
#32 = AXIS2_PLACEMENT_3D ( 'NONE', #182, #226, #96 ) ;
#33 = CYLINDRICAL_SURFACE ( 'NONE', #160, 0.3749999999999998890 ) ;
#34 = MANIFOLD_SOLID_BREP ( 'Revolve - Cutting Edge', #225 ) ;
#35 = CARTESIAN_POINT ( 'NONE',  ( 0.000000000000000000, 1.000000000000000222, -0.3750000000000000555 ) ) ;
#36 = FACE_OUTER_BOUND ( 'NONE', #136, .T. ) ;
#37 = AXIS2_PLACEMENT_3D ( 'NONE', #4, #50, #287 ) ;
#38 = FACE_OUTER_BOUND ( 'NONE', #214, .T. ) ;
#39 = PRESENTATION_STYLE_ASSIGNMENT (( #211 ) ) ;
#40 = PLANE ( 'NONE',  #32 ) ;
#41 = DIRECTION ( 'NONE',  ( -1.000000000000000000, 0.000000000000000000, 0.000000000000000000 ) ) ;
#42 = PRESENTATION_STYLE_ASSIGNMENT (( #102 ) ) ;
#43 = PRODUCT_DEFINITION_SHAPE ( 'NONE', 'NONE',  #167 ) ;
#44 = LINE ( 'NONE', #303, #197 ) ;
#45 = AXIS2_PLACEMENT_3D ( 'NONE', #21, #261, #41 ) ;
#46 = FILL_AREA_STYLE_COLOUR ( '', #73 ) ;
#47 = EDGE_CURVE ( 'NONE', #139, #309, #11, .T. ) ;
#48 = ORIENTED_EDGE ( 'NONE', *, *, #47, .F. ) ;
#49 = ORIENTED_EDGE ( 'NONE', *, *, #244, .F. ) ;
#50 = DIRECTION ( 'NONE',  ( 8.164311994315692567E-17, 1.000000000000000000, -0.000000000000000000 ) ) ;
#51 = PRESENTATION_STYLE_ASSIGNMENT (( #72 ) ) ;
#52 = SURFACE_SIDE_STYLE ('',( #30 ) ) ;
#53 = PRESENTATION_LAYER_ASSIGNMENT (  '', '', ( #233 ) ) ;
#54 = AXIS2_PLACEMENT_3D ( 'NONE', #154, #273, #198 ) ;
#55 = CARTESIAN_POINT ( 'NONE',  ( 0.000000000000000000, 1.000000000000000222, 0.000000000000000000 ) ) ;
#56 = PRODUCT_CONTEXT ( 'NONE', #188, 'mechanical' ) ;
#57 = DIRECTION ( 'NONE',  ( -1.000000000000000000, 0.000000000000000000, 0.000000000000000000 ) ) ;
#58 = APPLICATION_PROTOCOL_DEFINITION ( 'draft international standard', 'automotive_design', 1998, #241 ) ;
#59 = VERTEX_POINT ( 'NONE', #222 ) ;
#60 =( GEOMETRIC_REPRESENTATION_CONTEXT ( 3 ) GLOBAL_UNCERTAINTY_ASSIGNED_CONTEXT ( ( #140 ) ) GLOBAL_UNIT_ASSIGNED_CONTEXT ( ( #134, #157, #229 ) ) REPRESENTATION_CONTEXT ( 'NONE', 'WORKASPACE' ) );
#61 = PRESENTATION_LAYER_ASSIGNMENT (  '', '', ( #106 ) ) ;
#62 = LENGTH_MEASURE_WITH_UNIT ( LENGTH_MEASURE( 0.02539999999999999897 ), #14 );
#63 = ORIENTED_EDGE ( 'NONE', *, *, #17, .T. ) ;
#64 = ORIENTED_EDGE ( 'NONE', *, *, #308, .T. ) ;
#65 = ORIENTED_EDGE ( 'NONE', *, *, #108, .F. ) ;
#66 = ORIENTED_EDGE ( 'NONE', *, *, #244, .T. ) ;
#67 =( GEOMETRIC_REPRESENTATION_CONTEXT ( 3 ) GLOBAL_UNCERTAINTY_ASSIGNED_CONTEXT ( ( #179 ) ) GLOBAL_UNIT_ASSIGNED_CONTEXT ( ( #260, #130, #81 ) ) REPRESENTATION_CONTEXT ( 'NONE', 'WORKASPACE' ) );
#68 = FILL_AREA_STYLE_COLOUR ( '', #275 ) ;
#69 = PRESENTATION_STYLE_ASSIGNMENT (( #7 ) ) ;
#70 = CARTESIAN_POINT ( 'NONE',  ( 0.000000000000000000, 1.000000000000000222, 0.000000000000000000 ) ) ;
#71 = ADVANCED_FACE ( 'NONE', ( #195 ), #144, .T. ) ;
#72 = SURFACE_STYLE_USAGE ( .BOTH. , #176 ) ;
#73 = COLOUR_RGB ( '',0.7921568627450980005, 0.8196078431372548767, 0.9333333333333333481 ) ;
#74 =( CONVERSION_BASED_UNIT ( 'INCH', #180 ) LENGTH_UNIT ( ) NAMED_UNIT ( #289 ) );
#75 = CARTESIAN_POINT ( 'NONE',  ( 0.3750000000000000555, 4.000000000000000000, 4.592425496802573602E-17 ) ) ;
#76 = EDGE_CURVE ( 'NONE', #309, #139, #268, .T. ) ;
#77 = CARTESIAN_POINT ( 'NONE',  ( 4.592425496802575451E-17, 0.000000000000000000, 0.3750000000000000555 ) ) ;
#78 = COLOUR_RGB ( '',1.000000000000000000, 0.000000000000000000, 0.000000000000000000 ) ;
#79 =( NAMED_UNIT ( * ) SI_UNIT ( $, .STERADIAN. ) SOLID_ANGLE_UNIT ( ) );
#80 = CARTESIAN_POINT ( 'NONE',  ( 2.449293598294707400E-16, 4.000000000000000000, 0.000000000000000000 ) ) ;
#81 =( NAMED_UNIT ( * ) SI_UNIT ( $, .STERADIAN. ) SOLID_ANGLE_UNIT ( ) );
#82 = ORIENTED_EDGE ( 'NONE', *, *, #282, .F. ) ;
#83 = FACE_OUTER_BOUND ( 'NONE', #159, .T. ) ;
#84 = ORIENTED_EDGE ( 'NONE', *, *, #23, .F. ) ;
#85 = ORIENTED_EDGE ( 'NONE', *, *, #108, .T. ) ;
#86 = ORIENTED_EDGE ( 'NONE', *, *, #23, .T. ) ;
#87 = PRESENTATION_LAYER_ASSIGNMENT (  '', '', ( #297 ) ) ;
#88 = CIRCLE ( 'NONE', #54, 0.3750000000000000555 ) ;
#89 =( CONVERSION_BASED_UNIT ( 'INCH', #292 ) LENGTH_UNIT ( ) NAMED_UNIT ( #112 ) );
#90 = CARTESIAN_POINT ( 'NONE',  ( 0.000000000000000000, 1.000000000000000222, 0.000000000000000000 ) ) ;
#91 = CIRCLE ( 'NONE', #306, 0.3750000000000000555 ) ;
#92 = FILL_AREA_STYLE_COLOUR ( '', #177 ) ;
#93 = AXIS2_PLACEMENT_3D ( 'NONE', #90, #266, #146 ) ;
#94 = MECHANICAL_DESIGN_GEOMETRIC_PRESENTATION_REPRESENTATION (  '', ( #106 ), #218 ) ;
#95 = DIRECTION ( 'NONE',  ( 8.164311994315692567E-17, 1.000000000000000000, -0.000000000000000000 ) ) ;
#96 = DIRECTION ( 'NONE',  ( 0.000000000000000000, -0.000000000000000000, 1.000000000000000000 ) ) ;
#97 = CARTESIAN_POINT ( 'NONE',  ( 0.000000000000000000, 0.000000000000000000, 0.000000000000000000 ) ) ;
#98 = AXIS2_PLACEMENT_3D ( 'NONE', #276, #256, #126 ) ;
#99 = DIRECTION ( 'NONE',  ( 8.164311994315692567E-17, 1.000000000000000000, -0.000000000000000000 ) ) ;
#100 = SHAPE_DEFINITION_REPRESENTATION ( #43, #116 ) ;
#101 = ORIENTED_EDGE ( 'NONE', *, *, #192, .F. ) ;
#102 = SURFACE_STYLE_USAGE ( .BOTH. , #281 ) ;
#103 = CIRCLE ( 'NONE', #31, 0.3750000000000000555 ) ;
#104 = VECTOR ( 'NONE', #132, 39.37007874015748143 ) ;
#105 = SURFACE_STYLE_FILL_AREA ( #304 ) ;
#106 = STYLED_ITEM ( 'NONE', ( #5 ), #274 ) ;
#107 = ORIENTED_EDGE ( 'NONE', *, *, #17, .F. ) ;
#108 = EDGE_CURVE ( 'NONE', #3, #18, #103, .T. ) ;
#109 = VERTEX_POINT ( 'NONE', #35 ) ;
#110 = AXIS2_PLACEMENT_3D ( 'NONE', #277, #259, #13 ) ;
#111 = FILL_AREA_STYLE ('',( #68 ) ) ;
#112 = DIMENSIONAL_EXPONENTS ( 1.000000000000000000, 0.000000000000000000, 0.000000000000000000, 0.000000000000000000, 0.000000000000000000, 0.000000000000000000, 0.000000000000000000 ) ;
#113 = DIRECTION ( 'NONE',  ( 0.000000000000000000, 0.000000000000000000, -1.000000000000000000 ) ) ;
#114 = DIMENSIONAL_EXPONENTS ( 1.000000000000000000, 0.000000000000000000, 0.000000000000000000, 0.000000000000000000, 0.000000000000000000, 0.000000000000000000, 0.000000000000000000 ) ;
#115 =( GEOMETRIC_REPRESENTATION_CONTEXT ( 3 ) GLOBAL_UNCERTAINTY_ASSIGNED_CONTEXT ( ( #220 ) ) GLOBAL_UNIT_ASSIGNED_CONTEXT ( ( #168, #194, #170 ) ) REPRESENTATION_CONTEXT ( 'NONE', 'WORKASPACE' ) );
#116 = ADVANCED_BREP_SHAPE_REPRESENTATION ( '01647', ( #34, #142, #122 ), #269 ) ;
#117 = SURFACE_SIDE_STYLE ('',( #174 ) ) ;
#118 = FILL_AREA_STYLE ('',( #92 ) ) ;
#119 = DIRECTION ( 'NONE',  ( 0.000000000000000000, 0.000000000000000000, -1.000000000000000000 ) ) ;
#120 = DIRECTION ( 'NONE',  ( -0.000000000000000000, -1.000000000000000000, -0.000000000000000000 ) ) ;
#121 = VECTOR ( 'NONE', #141, 39.37007874015748143 ) ;
#122 = AXIS2_PLACEMENT_3D ( 'NONE', #97, #253, #228 ) ;
#123 = UNCERTAINTY_MEASURE_WITH_UNIT (LENGTH_MEASURE( 1.000000000000000082E-05 ), #209, 'distance_accuracy_value', 'NONE');
#124 = DIMENSIONAL_EXPONENTS ( 1.000000000000000000, 0.000000000000000000, 0.000000000000000000, 0.000000000000000000, 0.000000000000000000, 0.000000000000000000, 0.000000000000000000 ) ;
#125 = DIRECTION ( 'NONE',  ( -1.000000000000000000, 0.000000000000000000, 0.000000000000000000 ) ) ;
#126 = DIRECTION ( 'NONE',  ( 0.000000000000000000, 0.000000000000000000, -1.000000000000000000 ) ) ;
#127 = EDGE_CURVE ( 'NONE', #59, #262, #213, .T. ) ;
#128 = CARTESIAN_POINT ( 'NONE',  ( 1.249799818884882708E-33, 1.000000000000000222, 0.000000000000000000 ) ) ;
#129 = SURFACE_SIDE_STYLE ('',( #301 ) ) ;
#130 =( NAMED_UNIT ( * ) PLANE_ANGLE_UNIT ( ) SI_UNIT ( $, .RADIAN. ) );
#131 = DIRECTION ( 'NONE',  ( 8.164311994315692567E-17, 1.000000000000000000, -0.000000000000000000 ) ) ;
#132 = DIRECTION ( 'NONE',  ( -0.000000000000000000, -1.000000000000000000, -0.000000000000000000 ) ) ;
#133 = ORIENTED_EDGE ( 'NONE', *, *, #76, .F. ) ;
#134 =( CONVERSION_BASED_UNIT ( 'INCH', #298 ) LENGTH_UNIT ( ) NAMED_UNIT ( #114 ) );
#135 = EDGE_CURVE ( 'NONE', #139, #262, #183, .T. ) ;
#136 = EDGE_LOOP ( 'NONE', ( #84, #305 ) ) ;
#137 = MECHANICAL_DESIGN_GEOMETRIC_PRESENTATION_REPRESENTATION (  '', ( #255 ), #221 ) ;
#138 = DIRECTION ( 'NONE',  ( -1.000000000000000000, 8.164311994315692567E-17, 0.000000000000000000 ) ) ;
#139 = VERTEX_POINT ( 'NONE', #16 ) ;
#140 = UNCERTAINTY_MEASURE_WITH_UNIT (LENGTH_MEASURE( 1.000000000000000082E-05 ), #134, 'distance_accuracy_value', 'NONE');
#141 = DIRECTION ( 'NONE',  ( -0.000000000000000000, -1.000000000000000000, -0.000000000000000000 ) ) ;
#142 = MANIFOLD_SOLID_BREP ( 'Revolve - Tool Body (Straight Shanked)', #186 ) ;
#143 = DIMENSIONAL_EXPONENTS ( 1.000000000000000000, 0.000000000000000000, 0.000000000000000000, 0.000000000000000000, 0.000000000000000000, 0.000000000000000000, 0.000000000000000000 ) ;
#144 = CYLINDRICAL_SURFACE ( 'NONE', #9, 0.3750000000000000555 ) ;
#145 = DIMENSIONAL_EXPONENTS ( 1.000000000000000000, 0.000000000000000000, 0.000000000000000000, 0.000000000000000000, 0.000000000000000000, 0.000000000000000000, 0.000000000000000000 ) ;
#146 = DIRECTION ( 'NONE',  ( -1.000000000000000000, 0.000000000000000000, 0.000000000000000000 ) ) ;
#147 = UNCERTAINTY_MEASURE_WITH_UNIT (LENGTH_MEASURE( 1.000000000000000082E-05 ), #295, 'distance_accuracy_value', 'NONE');
#148 =( GEOMETRIC_REPRESENTATION_CONTEXT ( 3 ) GLOBAL_UNCERTAINTY_ASSIGNED_CONTEXT ( ( #10 ) ) GLOBAL_UNIT_ASSIGNED_CONTEXT ( ( #89, #239, #290 ) ) REPRESENTATION_CONTEXT ( 'NONE', 'WORKASPACE' ) );
#149 = AXIS2_PLACEMENT_3D ( 'NONE', #70, #120, #175 ) ;
#150 = FACE_OUTER_BOUND ( 'NONE', #22, .T. ) ;
#151 = DIRECTION ( 'NONE',  ( -0.000000000000000000, -1.000000000000000000, -0.000000000000000000 ) ) ;
#152 = CARTESIAN_POINT ( 'NONE',  ( 0.000000000000000000, 0.000000000000000000, 0.000000000000000000 ) ) ;
#153 = VECTOR ( 'NONE', #131, 39.37007874015748143 ) ;
#154 = CARTESIAN_POINT ( 'NONE',  ( 0.000000000000000000, 0.000000000000000000, 0.000000000000000000 ) ) ;
#155 = DIRECTION ( 'NONE',  ( 8.164311994315692567E-17, 1.000000000000000000, -0.000000000000000000 ) ) ;
#156 = ADVANCED_FACE ( 'NONE', ( #162 ), #264, .F. ) ;
#157 =( NAMED_UNIT ( * ) PLANE_ANGLE_UNIT ( ) SI_UNIT ( $, .RADIAN. ) );
#158 = AXIS2_PLACEMENT_3D ( 'NONE', #80, #99, #57 ) ;
#159 = EDGE_LOOP ( 'NONE', ( #85, #66 ) ) ;
#160 = AXIS2_PLACEMENT_3D ( 'NONE', #293, #95, #125 ) ;
#161 =( LENGTH_UNIT ( ) NAMED_UNIT ( * ) SI_UNIT ( $, .METRE. ) );
#162 = FACE_OUTER_BOUND ( 'NONE', #286, .T. ) ;
#163 = LINE ( 'NONE', #77, #104 ) ;
#164 = ORIENTED_EDGE ( 'NONE', *, *, #76, .T. ) ;
#165 = ORIENTED_EDGE ( 'NONE', *, *, #47, .T. ) ;
#166 = CARTESIAN_POINT ( 'NONE',  ( 0.3750000000000001665, 4.000000000000000000, 4.592425496802572986E-17 ) ) ;
#167 = PRODUCT_DEFINITION ( 'UNKNOWN', '', #291, #205 ) ;
#168 =( CONVERSION_BASED_UNIT ( 'INCH', #199 ) LENGTH_UNIT ( ) NAMED_UNIT ( #124 ) );
#169 = DIRECTION ( 'NONE',  ( 0.000000000000000000, -1.000000000000000000, -0.000000000000000000 ) ) ;
#170 =( NAMED_UNIT ( * ) SI_UNIT ( $, .STERADIAN. ) SOLID_ANGLE_UNIT ( ) );
#171 = AXIS2_PLACEMENT_3D ( 'NONE', #55, #155, #254 ) ;
#172 = ADVANCED_FACE ( 'NONE', ( #38 ), #190, .F. ) ;
#173 = FACE_OUTER_BOUND ( 'NONE', #235, .T. ) ;
#174 = SURFACE_STYLE_FILL_AREA ( #111 ) ;
#175 = DIRECTION ( 'NONE',  ( 0.000000000000000000, 0.000000000000000000, -1.000000000000000000 ) ) ;
#176 = SURFACE_SIDE_STYLE ('',( #6 ) ) ;
#177 = COLOUR_RGB ( '',1.000000000000000000, 0.000000000000000000, 0.000000000000000000 ) ;
#178 =( NAMED_UNIT ( * ) PLANE_ANGLE_UNIT ( ) SI_UNIT ( $, .RADIAN. ) );
#179 = UNCERTAINTY_MEASURE_WITH_UNIT (LENGTH_MEASURE( 1.000000000000000082E-05 ), #260, 'distance_accuracy_value', 'NONE');
#180 = LENGTH_MEASURE_WITH_UNIT ( LENGTH_MEASURE( 0.02539999999999999897 ), #246 );
#181 = APPLICATION_PROTOCOL_DEFINITION ( 'draft international standard', 'automotive_design', 1998, #188 ) ;
#182 = CARTESIAN_POINT ( 'NONE',  ( 0.000000000000000000, 1.000000000000000222, 0.000000000000000000 ) ) ;
#183 = LINE ( 'NONE', #166, #153 ) ;
#184 = ORIENTED_EDGE ( 'NONE', *, *, #282, .T. ) ;
#185 = FILL_AREA_STYLE ('',( #208 ) ) ;
#186 = CLOSED_SHELL ( 'NONE', ( #227, #156, #28, #172 ) ) ;
#187 = AXIS2_PLACEMENT_3D ( 'NONE', #252, #169, #203 ) ;
#188 = APPLICATION_CONTEXT ( 'automotive_design' ) ;
#189 = ORIENTED_EDGE ( 'NONE', *, *, #308, .F. ) ;
#190 = PLANE ( 'NONE',  #110 ) ;
#191 = ORIENTED_EDGE ( 'NONE', *, *, #127, .F. ) ;
#192 = EDGE_CURVE ( 'NONE', #262, #59, #2, .T. ) ;
#193 = PRESENTATION_LAYER_ASSIGNMENT (  '', '', ( #285 ) ) ;
#194 =( NAMED_UNIT ( * ) PLANE_ANGLE_UNIT ( ) SI_UNIT ( $, .RADIAN. ) );
#195 = FACE_OUTER_BOUND ( 'NONE', #279, .T. ) ;
#196 = PRESENTATION_STYLE_ASSIGNMENT (( #219 ) ) ;
#197 = VECTOR ( 'NONE', #12, 39.37007874015748143 ) ;
#198 = DIRECTION ( 'NONE',  ( 0.000000000000000000, 0.000000000000000000, -1.000000000000000000 ) ) ;
#199 = LENGTH_MEASURE_WITH_UNIT ( LENGTH_MEASURE( 0.02539999999999999897 ), #26 );
#200 = MECHANICAL_DESIGN_GEOMETRIC_PRESENTATION_REPRESENTATION (  '', ( #285 ), #148 ) ;
#201 = PRESENTATION_LAYER_ASSIGNMENT (  '', '', ( #299 ) ) ;
#202 = LENGTH_MEASURE_WITH_UNIT ( LENGTH_MEASURE( 0.02539999999999999897 ), #294 );
#203 = DIRECTION ( 'NONE',  ( 0.000000000000000000, 0.000000000000000000, -1.000000000000000000 ) ) ;
#204 =( NAMED_UNIT ( * ) SI_UNIT ( $, .STERADIAN. ) SOLID_ANGLE_UNIT ( ) );
#205 = PRODUCT_DEFINITION_CONTEXT ( 'detailed design', #241, 'design' ) ;
#206 =( NAMED_UNIT ( * ) PLANE_ANGLE_UNIT ( ) SI_UNIT ( $, .RADIAN. ) );
#207 = DIRECTION ( 'NONE',  ( 8.164311994315692567E-17, 1.000000000000000000, -0.000000000000000000 ) ) ;
#208 = FILL_AREA_STYLE_COLOUR ( '', #249 ) ;
#209 =( CONVERSION_BASED_UNIT ( 'INCH', #62 ) LENGTH_UNIT ( ) NAMED_UNIT ( #145 ) );
#210 = LINE ( 'NONE', #288, #121 ) ;
#211 = SURFACE_STYLE_USAGE ( .BOTH. , #129 ) ;
#212 = PRESENTATION_LAYER_ASSIGNMENT (  '', '', ( #255 ) ) ;
#213 = CIRCLE ( 'NONE', #45, 0.3749999999999997780 ) ;
#214 = EDGE_LOOP ( 'NONE', ( #230, #232 ) ) ;
#215 =( NAMED_UNIT ( * ) SI_UNIT ( $, .STERADIAN. ) SOLID_ANGLE_UNIT ( ) );
#216 = PRODUCT ( '01647', '01647', '', ( #56 ) ) ;
#217 = ORIENTED_EDGE ( 'NONE', *, *, #135, .T. ) ;
#218 =( GEOMETRIC_REPRESENTATION_CONTEXT ( 3 ) GLOBAL_UNCERTAINTY_ASSIGNED_CONTEXT ( ( #147 ) ) GLOBAL_UNIT_ASSIGNED_CONTEXT ( ( #295, #178, #204 ) ) REPRESENTATION_CONTEXT ( 'NONE', 'WORKASPACE' ) );
#219 = SURFACE_STYLE_USAGE ( .BOTH. , #117 ) ;
#220 = UNCERTAINTY_MEASURE_WITH_UNIT (LENGTH_MEASURE( 1.000000000000000082E-05 ), #168, 'distance_accuracy_value', 'NONE');
#221 =( GEOMETRIC_REPRESENTATION_CONTEXT ( 3 ) GLOBAL_UNCERTAINTY_ASSIGNED_CONTEXT ( ( #272 ) ) GLOBAL_UNIT_ASSIGNED_CONTEXT ( ( #74, #302, #215 ) ) REPRESENTATION_CONTEXT ( 'NONE', 'WORKASPACE' ) );
#222 = CARTESIAN_POINT ( 'NONE',  ( -0.3749999999999995004, 4.000000000000000000, 0.000000000000000000 ) ) ;
#223 = ADVANCED_FACE ( 'NONE', ( #83 ), #231, .T. ) ;
#224 = DIRECTION ( 'NONE',  ( -0.000000000000000000, -1.000000000000000000, -0.000000000000000000 ) ) ;
#225 = CLOSED_SHELL ( 'NONE', ( #274, #300, #71, #223 ) ) ;
#226 = DIRECTION ( 'NONE',  ( 0.000000000000000000, 1.000000000000000000, 0.000000000000000000 ) ) ;
#227 = ADVANCED_FACE ( 'NONE', ( #257 ), #33, .T. ) ;
#228 = DIRECTION ( 'NONE',  ( 1.000000000000000000, 0.000000000000000000, 0.000000000000000000 ) ) ;
#229 =( NAMED_UNIT ( * ) SI_UNIT ( $, .STERADIAN. ) SOLID_ANGLE_UNIT ( ) );
#230 = ORIENTED_EDGE ( 'NONE', *, *, #127, .T. ) ;
#231 = PLANE ( 'NONE',  #187 ) ;
#232 = ORIENTED_EDGE ( 'NONE', *, *, #192, .T. ) ;
#233 = STYLED_ITEM ( 'NONE', ( #51 ), #34 ) ;
#234 = VERTEX_POINT ( 'NONE', #296 ) ;
#235 = EDGE_LOOP ( 'NONE', ( #86, #64, #65, #107 ) ) ;
#236 = CARTESIAN_POINT ( 'NONE',  ( 0.000000000000000000, 1.000000000000000222, 0.000000000000000000 ) ) ;
#237 = MECHANICAL_DESIGN_GEOMETRIC_PRESENTATION_REPRESENTATION (  '', ( #233 ), #115 ) ;
#238 = MECHANICAL_DESIGN_GEOMETRIC_PRESENTATION_REPRESENTATION (  '', ( #299 ), #67 ) ;
#239 =( NAMED_UNIT ( * ) PLANE_ANGLE_UNIT ( ) SI_UNIT ( $, .RADIAN. ) );
#240 = CARTESIAN_POINT ( 'NONE',  ( 0.000000000000000000, 0.000000000000000000, 0.000000000000000000 ) ) ;
#241 = APPLICATION_CONTEXT ( 'automotive_design' ) ;
#242 = SURFACE_STYLE_USAGE ( .BOTH. , #52 ) ;
#243 =( LENGTH_UNIT ( ) NAMED_UNIT ( * ) SI_UNIT ( $, .METRE. ) );
#244 = EDGE_CURVE ( 'NONE', #18, #3, #88, .T. ) ;
#245 = CYLINDRICAL_SURFACE ( 'NONE', #37, 0.3749999999999998890 ) ;
#246 =( LENGTH_UNIT ( ) NAMED_UNIT ( * ) SI_UNIT ( $, .METRE. ) );
#247 = DIRECTION ( 'NONE',  ( 0.000000000000000000, 0.000000000000000000, -1.000000000000000000 ) ) ;
#248 = AXIS2_PLACEMENT_3D ( 'NONE', #128, #207, #138 ) ;
#249 = COLOUR_RGB ( '',1.000000000000000000, 0.000000000000000000, 0.000000000000000000 ) ;
#250 = CYLINDRICAL_SURFACE ( 'NONE', #98, 0.3750000000000000555 ) ;
#251 = EDGE_CURVE ( 'NONE', #234, #109, #280, .T. ) ;
#252 = CARTESIAN_POINT ( 'NONE',  ( 0.000000000000000000, 0.000000000000000000, 0.000000000000000000 ) ) ;
#253 = DIRECTION ( 'NONE',  ( 0.000000000000000000, 0.000000000000000000, 1.000000000000000000 ) ) ;
#254 = DIRECTION ( 'NONE',  ( -1.000000000000000000, 0.000000000000000000, 0.000000000000000000 ) ) ;
#255 = STYLED_ITEM ( 'NONE', ( #69 ), #142 ) ;
#256 = DIRECTION ( 'NONE',  ( -0.000000000000000000, -1.000000000000000000, -0.000000000000000000 ) ) ;
#257 = FACE_OUTER_BOUND ( 'NONE', #307, .T. ) ;
#258 = LENGTH_MEASURE_WITH_UNIT ( LENGTH_MEASURE( 0.02539999999999999897 ), #161 );
#259 = DIRECTION ( 'NONE',  ( -8.164311994315692567E-17, -1.000000000000000000, 0.000000000000000000 ) ) ;
#260 =( CONVERSION_BASED_UNIT ( 'INCH', #258 ) LENGTH_UNIT ( ) NAMED_UNIT ( #143 ) );
#261 = DIRECTION ( 'NONE',  ( 8.164311994315692567E-17, 1.000000000000000000, -0.000000000000000000 ) ) ;
#262 = VERTEX_POINT ( 'NONE', #75 ) ;
#263 =( LENGTH_UNIT ( ) NAMED_UNIT ( * ) SI_UNIT ( $, .METRE. ) );
#264 = PLANE ( 'NONE',  #248 ) ;
#265 = MECHANICAL_DESIGN_GEOMETRIC_PRESENTATION_REPRESENTATION (  '', ( #297 ), #60 ) ;
#266 = DIRECTION ( 'NONE',  ( 8.164311994315692567E-17, 1.000000000000000000, -0.000000000000000000 ) ) ;
#267 = FILL_AREA_STYLE_COLOUR ( '', #25 ) ;
#268 = CIRCLE ( 'NONE', #171, 0.3750000000000000555 ) ;
#269 =( GEOMETRIC_REPRESENTATION_CONTEXT ( 3 ) GLOBAL_UNCERTAINTY_ASSIGNED_CONTEXT ( ( #123 ) ) GLOBAL_UNIT_ASSIGNED_CONTEXT ( ( #209, #206, #79 ) ) REPRESENTATION_CONTEXT ( 'NONE', 'WORKASPACE' ) );
#270 = SURFACE_SIDE_STYLE ('',( #284 ) ) ;
#271 = FILL_AREA_STYLE ('',( #267 ) ) ;
#272 = UNCERTAINTY_MEASURE_WITH_UNIT (LENGTH_MEASURE( 1.000000000000000082E-05 ), #74, 'distance_accuracy_value', 'NONE');
#273 = DIRECTION ( 'NONE',  ( -0.000000000000000000, -1.000000000000000000, -0.000000000000000000 ) ) ;
#274 = ADVANCED_FACE ( 'NONE', ( #173 ), #250, .T. ) ;
#275 = COLOUR_RGB ( '',1.000000000000000000, 0.000000000000000000, 0.000000000000000000 ) ;
#276 = CARTESIAN_POINT ( 'NONE',  ( 0.000000000000000000, 0.000000000000000000, 0.000000000000000000 ) ) ;
#277 = CARTESIAN_POINT ( 'NONE',  ( 0.3750000000000000555, 4.000000000000000000, 0.000000000000000000 ) ) ;
#278 = CARTESIAN_POINT ( 'NONE',  ( -0.3750000000000000555, 1.000000000000000222, 0.000000000000000000 ) ) ;
#279 = EDGE_LOOP ( 'NONE', ( #189, #20, #63, #49 ) ) ;
#280 = CIRCLE ( 'NONE', #149, 0.3750000000000000555 ) ;
#281 = SURFACE_SIDE_STYLE ('',( #105 ) ) ;
#282 = EDGE_CURVE ( 'NONE', #309, #59, #44, .T. ) ;
#283 = ORIENTED_EDGE ( 'NONE', *, *, #135, .F. ) ;
#284 = SURFACE_STYLE_FILL_AREA ( #1 ) ;
#285 = STYLED_ITEM ( 'NONE', ( #196 ), #71 ) ;
#286 = EDGE_LOOP ( 'NONE', ( #133, #48 ) ) ;
#287 = DIRECTION ( 'NONE',  ( -1.000000000000000000, 0.000000000000000000, 0.000000000000000000 ) ) ;
#288 = CARTESIAN_POINT ( 'NONE',  ( 0.000000000000000000, 0.000000000000000000, -0.3750000000000000555 ) ) ;
#289 = DIMENSIONAL_EXPONENTS ( 1.000000000000000000, 0.000000000000000000, 0.000000000000000000, 0.000000000000000000, 0.000000000000000000, 0.000000000000000000, 0.000000000000000000 ) ;
#290 =( NAMED_UNIT ( * ) SI_UNIT ( $, .STERADIAN. ) SOLID_ANGLE_UNIT ( ) );
#291 = PRODUCT_DEFINITION_FORMATION_WITH_SPECIFIED_SOURCE ( 'ANY', '', #216, .NOT_KNOWN. ) ;
#292 = LENGTH_MEASURE_WITH_UNIT ( LENGTH_MEASURE( 0.02539999999999999897 ), #243 );
#293 = CARTESIAN_POINT ( 'NONE',  ( 2.449293598294707400E-16, 4.000000000000000000, 0.000000000000000000 ) ) ;
#294 =( LENGTH_UNIT ( ) NAMED_UNIT ( * ) SI_UNIT ( $, .METRE. ) );
#295 =( CONVERSION_BASED_UNIT ( 'INCH', #202 ) LENGTH_UNIT ( ) NAMED_UNIT ( #8 ) );
#296 = CARTESIAN_POINT ( 'NONE',  ( 4.592425496802575451E-17, 1.000000000000000222, 0.3750000000000000555 ) ) ;
#297 = STYLED_ITEM ( 'NONE', ( #42 ), #223 ) ;
#298 = LENGTH_MEASURE_WITH_UNIT ( LENGTH_MEASURE( 0.02539999999999999897 ), #263 );
#299 = STYLED_ITEM ( 'NONE', ( #39 ), #300 ) ;
#300 = ADVANCED_FACE ( 'NONE', ( #36 ), #40, .T. ) ;
#301 = SURFACE_STYLE_FILL_AREA ( #185 ) ;
#302 =( NAMED_UNIT ( * ) PLANE_ANGLE_UNIT ( ) SI_UNIT ( $, .RADIAN. ) );
#303 = CARTESIAN_POINT ( 'NONE',  ( -0.3749999999999996114, 4.000000000000000000, 0.000000000000000000 ) ) ;
#304 = FILL_AREA_STYLE ('',( #15 ) ) ;
#305 = ORIENTED_EDGE ( 'NONE', *, *, #251, .F. ) ;
#306 = AXIS2_PLACEMENT_3D ( 'NONE', #236, #224, #119 ) ;
#307 = EDGE_LOOP ( 'NONE', ( #164, #217, #191, #82 ) ) ;
#308 = EDGE_CURVE ( 'NONE', #234, #18, #163, .T. ) ;
#309 = VERTEX_POINT ( 'NONE', #278 ) ;
ENDSEC;
END-ISO-10303-21;
