ISO-10303-21;
HEADER;
FILE_DESCRIPTION (( 'STEP AP214' ),
    '1' );
FILE_NAME ('Micro_DM-125-490X.STEP',
    '2021-09-02T15:59:12',
    ( '' ),
    ( '' ),
    'SwSTEP 2.0',
    'SolidWorks 2020',
    '' );
FILE_SCHEMA (( 'AUTOMOTIVE_DESIGN' ));
ENDSEC;

DATA;
#1 = LINE ( 'NONE', #122, #154 ) ;
#2 = DIRECTION ( 'NONE',  ( -0.0000000000000000000, -0.0000000000000000000, -1.000000000000000000 ) ) ;
#3 = EDGE_CURVE ( 'NONE', #195, #87, #179, .T. ) ;
#4 = EDGE_LOOP ( 'NONE', ( #116, #89, #163, #273 ) ) ;
#5 =( CONVERSION_BASED_UNIT ( 'INCH', #256 ) LENGTH_UNIT ( ) NAMED_UNIT ( #201 ) );
#6 = CARTESIAN_POINT ( 'NONE',  ( 0.007499999999999999722, 0.0000000000000000000, 1.707404996040164512E-17 ) ) ;
#7 = DIRECTION ( 'NONE',  ( -0.0000000000000000000, -0.0000000000000000000, -1.000000000000000000 ) ) ;
#8 = PRODUCT_DEFINITION_FORMATION_WITH_SPECIFIED_SOURCE ( 'ANY', '', #61, .NOT_KNOWN. ) ;
#9 = FACE_OUTER_BOUND ( 'NONE', #323, .T. ) ;
#10 = CARTESIAN_POINT ( 'NONE',  ( 0.04750000000000064587, 5.817072295950006528E-18, 1.500000000000000222 ) ) ;
#11 = CARTESIAN_POINT ( 'NONE',  ( -0.06250000000000000000, 0.0000000000000000000, 1.485000000000000764 ) ) ;
#12 = CARTESIAN_POINT ( 'NONE',  ( 0.0000000000000000000, 0.0000000000000000000, 0.0000000000000000000 ) ) ;
#13 = AXIS2_PLACEMENT_3D ( 'NONE', #314, #316, #80 ) ;
#14 = AXIS2_PLACEMENT_3D ( 'NONE', #135, #21, #183 ) ;
#15 = CYLINDRICAL_SURFACE ( 'NONE', #150, 0.06245000000000004020 ) ;
#16 = EDGE_CURVE ( 'NONE', #95, #138, #111, .T. ) ;
#17 = APPLICATION_PROTOCOL_DEFINITION ( 'draft international standard', 'automotive_design', 1998, #235 ) ;
#18 = DIRECTION ( 'NONE',  ( -0.0000000000000000000, -0.0000000000000000000, -1.000000000000000000 ) ) ;
#19 = EDGE_CURVE ( 'NONE', #44, #46, #310, .T. ) ;
#20 = VERTEX_POINT ( 'NONE', #218 ) ;
#21 = DIRECTION ( 'NONE',  ( -0.0000000000000000000, -0.0000000000000000000, -1.000000000000000000 ) ) ;
#22 = ORIENTED_EDGE ( 'NONE', *, *, #64, .F. ) ;
#23 = ORIENTED_EDGE ( 'NONE', *, *, #282, .F. ) ;
#24 = ORIENTED_EDGE ( 'NONE', *, *, #3, .T. ) ;
#25 = EDGE_LOOP ( 'NONE', ( #182, #327, #219, #70 ) ) ;
#26 = DIRECTION ( 'NONE',  ( -1.000000000000000000, 0.0000000000000000000, 0.0000000000000000000 ) ) ;
#27 = DIRECTION ( 'NONE',  ( 0.0000000000000000000, 0.0000000000000000000, -1.000000000000000000 ) ) ;
#28 = ADVANCED_FACE ( 'NONE', ( #161 ), #72, .T. ) ;
#29 = AXIS2_PLACEMENT_3D ( 'NONE', #97, #27, #168 ) ;
#30 = VERTEX_POINT ( 'NONE', #166 ) ;
#31 = DIRECTION ( 'NONE',  ( 1.000000000000000000, 0.0000000000000000000, 0.0000000000000000000 ) ) ;
#32 = PLANE ( 'NONE',  #261 ) ;
#33 = CARTESIAN_POINT ( 'NONE',  ( -0.04750000000000064587, 0.0000000000000000000, 1.500000000000000222 ) ) ;
#34 = CARTESIAN_POINT ( 'NONE',  ( 0.0000000000000000000, 0.0000000000000000000, 1.500000000000000222 ) ) ;
#35 = DIRECTION ( 'NONE',  ( 0.0000000000000000000, 0.0000000000000000000, -1.000000000000000000 ) ) ;
#36 = EDGE_CURVE ( 'NONE', #300, #87, #164, .T. ) ;
#37 = APPLICATION_CONTEXT ( 'automotive_design' ) ;
#38 =( NAMED_UNIT ( * ) SI_UNIT ( $, .STERADIAN. ) SOLID_ANGLE_UNIT ( ) );
#39 = APPLICATION_PROTOCOL_DEFINITION ( 'draft international standard', 'automotive_design', 1998, #37 ) ;
#40 = ORIENTED_EDGE ( 'NONE', *, *, #16, .F. ) ;
#41 = CIRCLE ( 'NONE', #226, 0.04750000000000064587 ) ;
#42 = DIRECTION ( 'NONE',  ( -0.0000000000000000000, -0.0000000000000000000, -1.000000000000000000 ) ) ;
#43 = EDGE_LOOP ( 'NONE', ( #22, #255, #117, #65 ) ) ;
#44 = VERTEX_POINT ( 'NONE', #75 ) ;
#45 = AXIS2_PLACEMENT_3D ( 'NONE', #228, #2, #143 ) ;
#46 = VERTEX_POINT ( 'NONE', #254 ) ;
#47 = EDGE_CURVE ( 'NONE', #46, #44, #239, .T. ) ;
#48 = FILL_AREA_STYLE ('',( #196 ) ) ;
#49 = DIRECTION ( 'NONE',  ( -1.000000000000000000, 0.0000000000000000000, 0.0000000000000000000 ) ) ;
#50 = AXIS2_PLACEMENT_3D ( 'NONE', #265, #35, #114 ) ;
#51 =( LENGTH_UNIT ( ) NAMED_UNIT ( * ) SI_UNIT ( $, .METRE. ) );
#52 = CARTESIAN_POINT ( 'NONE',  ( 0.0000000000000000000, 0.0000000000000000000, 0.5000000000000000000 ) ) ;
#53 = FACE_OUTER_BOUND ( 'NONE', #296, .T. ) ;
#54 = CARTESIAN_POINT ( 'NONE',  ( 0.0000000000000000000, 0.0000000000000000000, 1.500000000000000222 ) ) ;
#55 = FACE_BOUND ( 'NONE', #244, .T. ) ;
#56 = CARTESIAN_POINT ( 'NONE',  ( 0.06245000000000007490, 0.0000000000000000000, 0.5000000000000000000 ) ) ;
#57 =( NAMED_UNIT ( * ) PLANE_ANGLE_UNIT ( ) SI_UNIT ( $, .RADIAN. ) );
#58 = SURFACE_SIDE_STYLE ('',( #176 ) ) ;
#59 = COLOUR_RGB ( '',0.7921568627450980005, 0.8196078431372548767, 0.9333333333333333481 ) ;
#60 = AXIS2_PLACEMENT_3D ( 'NONE', #324, #130, #245 ) ;
#61 = PRODUCT ( 'Micro_DM-125-490X', 'Micro_DM-125-490X', '', ( #209 ) ) ;
#62 = EDGE_LOOP ( 'NONE', ( #159, #23, #249, #24 ) ) ;
#63 = DIRECTION ( 'NONE',  ( -1.000000000000000000, 0.0000000000000000000, 0.0000000000000000000 ) ) ;
#64 = EDGE_CURVE ( 'NONE', #300, #20, #93, .T. ) ;
#65 = ORIENTED_EDGE ( 'NONE', *, *, #119, .F. ) ;
#66 = AXIS2_PLACEMENT_3D ( 'NONE', #34, #313, #83 ) ;
#67 = CARTESIAN_POINT ( 'NONE',  ( 0.0000000000000000000, 0.0000000000000000000, 0.5000000000000000000 ) ) ;
#68 = EDGE_CURVE ( 'NONE', #306, #91, #96, .T. ) ;
#69 = ORIENTED_EDGE ( 'NONE', *, *, #171, .T. ) ;
#70 = ORIENTED_EDGE ( 'NONE', *, *, #115, .F. ) ;
#71 = VECTOR ( 'NONE', #236, 39.37007874015748143 ) ;
#72 = CONICAL_SURFACE ( 'NONE', #289, 0.007499999999999999722, 0.7853981633974506105 ) ;
#73 = SURFACE_STYLE_FILL_AREA ( #48 ) ;
#74 = ORIENTED_EDGE ( 'NONE', *, *, #145, .F. ) ;
#75 = CARTESIAN_POINT ( 'NONE',  ( -0.06245000000000007490, 0.0000000000000000000, 0.5000000000000000000 ) ) ;
#76 = AXIS2_PLACEMENT_3D ( 'NONE', #54, #263, #284 ) ;
#77 = EDGE_CURVE ( 'NONE', #95, #91, #1, .T. ) ;
#78 = FACE_OUTER_BOUND ( 'NONE', #137, .T. ) ;
#79 = MANIFOLD_SOLID_BREP ( 'Cut-Revolve4', #227 ) ;
#80 = DIRECTION ( 'NONE',  ( -1.000000000000000000, 0.0000000000000000000, 0.0000000000000000000 ) ) ;
#81 = CARTESIAN_POINT ( 'NONE',  ( 0.0000000000000000000, 0.0000000000000000000, 0.05494999999999977680 ) ) ;
#82 = EDGE_CURVE ( 'NONE', #295, #30, #149, .T. ) ;
#83 = DIRECTION ( 'NONE',  ( -1.000000000000000000, 0.0000000000000000000, 0.0000000000000000000 ) ) ;
#84 = CARTESIAN_POINT ( 'NONE',  ( 0.06250000000000000000, 7.654042494670956004E-18, 1.485000000000000764 ) ) ;
#85 =( NAMED_UNIT ( * ) PLANE_ANGLE_UNIT ( ) SI_UNIT ( $, .RADIAN. ) );
#86 = STYLED_ITEM ( 'NONE', ( #281 ), #79 ) ;
#87 = VERTEX_POINT ( 'NONE', #120 ) ;
#88 = ADVANCED_FACE ( 'NONE', ( #191 ), #175, .T. ) ;
#89 = ORIENTED_EDGE ( 'NONE', *, *, #145, .T. ) ;
#90 = CYLINDRICAL_SURFACE ( 'NONE', #14, 0.06250000000000000000 ) ;
#91 = VERTEX_POINT ( 'NONE', #11 ) ;
#92 = ADVANCED_FACE ( 'NONE', ( #128 ), #232, .T. ) ;
#93 = CIRCLE ( 'NONE', #45, 0.007499999999999999722 ) ;
#94 = ORIENTED_EDGE ( 'NONE', *, *, #47, .F. ) ;
#95 = VERTEX_POINT ( 'NONE', #33 ) ;
#96 = CIRCLE ( 'NONE', #29, 0.06250000000000000000 ) ;
#97 = CARTESIAN_POINT ( 'NONE',  ( 0.0000000000000000000, 0.0000000000000000000, 1.485000000000000764 ) ) ;
#98 = ORIENTED_EDGE ( 'NONE', *, *, #47, .T. ) ;
#99 = DIRECTION ( 'NONE',  ( -0.7071067811865456854, 0.0000000000000000000, -0.7071067811865493491 ) ) ;
#100 = DIRECTION ( 'NONE',  ( 0.0000000000000000000, 0.0000000000000000000, 1.000000000000000000 ) ) ;
#101 = PRODUCT_RELATED_PRODUCT_CATEGORY ( 'part', '', ( #61 ) ) ;
#102 = CONICAL_SURFACE ( 'NONE', #221, 0.007499999999999999722, 0.7853981633974506105 ) ;
#103 = LINE ( 'NONE', #129, #126 ) ;
#104 = DIRECTION ( 'NONE',  ( -0.0000000000000000000, -0.0000000000000000000, -1.000000000000000000 ) ) ;
#105 = UNCERTAINTY_MEASURE_WITH_UNIT (LENGTH_MEASURE( 1.000000000000000082E-05 ), #322, 'distance_accuracy_value', 'NONE');
#106 = DIRECTION ( 'NONE',  ( -1.000000000000000000, 0.0000000000000000000, 0.0000000000000000000 ) ) ;
#107 = DIRECTION ( 'NONE',  ( 0.7071067811865491270, 0.0000000000000000000, 0.7071067811865459074 ) ) ;
#108 = FACE_OUTER_BOUND ( 'NONE', #274, .T. ) ;
#109 = FILL_AREA_STYLE ('',( #291 ) ) ;
#110 = CARTESIAN_POINT ( 'NONE',  ( 0.0000000000000000000, 0.0000000000000000000, 1.707404996040164512E-17 ) ) ;
#111 = CIRCLE ( 'NONE', #189, 0.04750000000000064587 ) ;
#112 = CIRCLE ( 'NONE', #303, 0.06250000000000000000 ) ;
#113 = DIRECTION ( 'NONE',  ( 1.000000000000000000, 0.0000000000000000000, 0.0000000000000000000 ) ) ;
#114 = DIRECTION ( 'NONE',  ( 1.000000000000000000, 0.0000000000000000000, 0.0000000000000000000 ) ) ;
#115 = EDGE_CURVE ( 'NONE', #91, #295, #103, .T. ) ;
#116 = ORIENTED_EDGE ( 'NONE', *, *, #171, .F. ) ;
#117 = ORIENTED_EDGE ( 'NONE', *, *, #210, .T. ) ;
#118 = ORIENTED_EDGE ( 'NONE', *, *, #238, .T. ) ;
#119 = EDGE_CURVE ( 'NONE', #20, #195, #230, .T. ) ;
#120 = CARTESIAN_POINT ( 'NONE',  ( -0.06245000000000001245, 7.647919260675222641E-18, 0.05494999999999978374 ) ) ;
#121 = VECTOR ( 'NONE', #308, 39.37007874015748143 ) ;
#122 = CARTESIAN_POINT ( 'NONE',  ( -0.04750000000000064587, 0.0000000000000000000, 1.500000000000000222 ) ) ;
#123 = CARTESIAN_POINT ( 'NONE',  ( 0.0000000000000000000, 0.0000000000000000000, 0.5000000000000000000 ) ) ;
#124 = LINE ( 'NONE', #204, #121 ) ;
#125 = CARTESIAN_POINT ( 'NONE',  ( 0.0000000000000000000, 0.0000000000000000000, 1.500000000000000222 ) ) ;
#126 = VECTOR ( 'NONE', #151, 39.37007874015748143 ) ;
#127 = CARTESIAN_POINT ( 'NONE',  ( 0.06245000000000004020, 7.647919260675225723E-18, 0.0000000000000000000 ) ) ;
#128 = FACE_OUTER_BOUND ( 'NONE', #162, .T. ) ;
#129 = CARTESIAN_POINT ( 'NONE',  ( -0.06250000000000000000, 0.0000000000000000000, 1.500000000000000222 ) ) ;
#130 = DIRECTION ( 'NONE',  ( -0.0000000000000000000, -0.0000000000000000000, -1.000000000000000000 ) ) ;
#131 = AXIS2_PLACEMENT_3D ( 'NONE', #174, #203, #312 ) ;
#132 = CYLINDRICAL_SURFACE ( 'NONE', #60, 0.06250000000000000000 ) ;
#133 = PRESENTATION_STYLE_ASSIGNMENT (( #156 ) ) ;
#134 = ORIENTED_EDGE ( 'NONE', *, *, #19, .T. ) ;
#135 = CARTESIAN_POINT ( 'NONE',  ( 0.0000000000000000000, 0.0000000000000000000, 1.500000000000000222 ) ) ;
#136 = CIRCLE ( 'NONE', #214, 0.007499999999999999722 ) ;
#137 = EDGE_LOOP ( 'NONE', ( #74, #40, #186, #198 ) ) ;
#138 = VERTEX_POINT ( 'NONE', #283 ) ;
#139 = DIRECTION ( 'NONE',  ( -0.0000000000000000000, -0.0000000000000000000, -1.000000000000000000 ) ) ;
#140 = ORIENTED_EDGE ( 'NONE', *, *, #68, .T. ) ;
#141 = ADVANCED_FACE ( 'NONE', ( #78 ), #173, .T. ) ;
#142 =( NAMED_UNIT ( * ) SI_UNIT ( $, .STERADIAN. ) SOLID_ANGLE_UNIT ( ) );
#143 = DIRECTION ( 'NONE',  ( -1.000000000000000000, 0.0000000000000000000, 0.0000000000000000000 ) ) ;
#144 = CARTESIAN_POINT ( 'NONE',  ( -0.007499999999999999722, 9.184850993605147975E-19, 1.707404996040164512E-17 ) ) ;
#145 = EDGE_CURVE ( 'NONE', #138, #306, #197, .T. ) ;
#146 = FACE_OUTER_BOUND ( 'NONE', #4, .T. ) ;
#147 = DIMENSIONAL_EXPONENTS ( 1.000000000000000000, 0.0000000000000000000, 0.0000000000000000000, 0.0000000000000000000, 0.0000000000000000000, 0.0000000000000000000, 0.0000000000000000000 ) ;
#148 = CARTESIAN_POINT ( 'NONE',  ( 0.06250000000000000000, 7.654042494670956004E-18, 1.500000000000000222 ) ) ;
#149 = CIRCLE ( 'NONE', #220, 0.06250000000000000000 ) ;
#150 = AXIS2_PLACEMENT_3D ( 'NONE', #267, #178, #63 ) ;
#151 = DIRECTION ( 'NONE',  ( -0.0000000000000000000, -0.0000000000000000000, -1.000000000000000000 ) ) ;
#152 = PLANE ( 'NONE',  #131 ) ;
#153 = LINE ( 'NONE', #148, #326 ) ;
#154 = VECTOR ( 'NONE', #99, 39.37007874015748143 ) ;
#155 = DIRECTION ( 'NONE',  ( 1.000000000000000000, 0.0000000000000000000, 0.0000000000000000000 ) ) ;
#156 = SURFACE_STYLE_USAGE ( .BOTH. , #58 ) ;
#157 = ORIENTED_EDGE ( 'NONE', *, *, #82, .T. ) ;
#158 = CARTESIAN_POINT ( 'NONE',  ( -0.007499999999999999722, 4.283202180017868527E-18, 1.707404996040164512E-17 ) ) ;
#159 = ORIENTED_EDGE ( 'NONE', *, *, #36, .F. ) ;
#160 = CIRCLE ( 'NONE', #50, 0.06250000000000000000 ) ;
#161 = FACE_OUTER_BOUND ( 'NONE', #43, .T. ) ;
#162 = EDGE_LOOP ( 'NONE', ( #184, #69 ) ) ;
#163 = ORIENTED_EDGE ( 'NONE', *, *, #258, .F. ) ;
#164 = LINE ( 'NONE', #144, #247 ) ;
#165 = ADVANCED_FACE ( 'NONE', ( #55, #53 ), #32, .T. ) ;
#166 = CARTESIAN_POINT ( 'NONE',  ( 0.06250000000000000000, 7.654042494670956004E-18, 0.5000000000000000000 ) ) ;
#167 = ORIENTED_EDGE ( 'NONE', *, *, #64, .T. ) ;
#168 = DIRECTION ( 'NONE',  ( 1.000000000000000000, 0.0000000000000000000, 0.0000000000000000000 ) ) ;
#169 = DIRECTION ( 'NONE',  ( -1.000000000000000000, 0.0000000000000000000, 0.0000000000000000000 ) ) ;
#170 = DIRECTION ( 'NONE',  ( -0.0000000000000000000, -0.0000000000000000000, -1.000000000000000000 ) ) ;
#171 = EDGE_CURVE ( 'NONE', #138, #95, #41, .T. ) ;
#172 = PRODUCT_DEFINITION_SHAPE ( 'NONE', 'NONE',  #177 ) ;
#173 = CONICAL_SURFACE ( 'NONE', #66, 0.04750000000000064587, 0.7853981633974457255 ) ;
#174 = CARTESIAN_POINT ( 'NONE',  ( 0.0000000000000000000, 0.0000000000000000000, 0.0000000000000000000 ) ) ;
#175 = CYLINDRICAL_SURFACE ( 'NONE', #190, 0.06245000000000004020 ) ;
#176 = SURFACE_STYLE_FILL_AREA ( #109 ) ;
#177 = PRODUCT_DEFINITION ( 'UNKNOWN', '', #8, #311 ) ;
#178 = DIRECTION ( 'NONE',  ( -0.0000000000000000000, -0.0000000000000000000, -1.000000000000000000 ) ) ;
#179 = CIRCLE ( 'NONE', #260, 0.06245000000000000551 ) ;
#180 = ORIENTED_EDGE ( 'NONE', *, *, #238, .F. ) ;
#181 = DIRECTION ( 'NONE',  ( -1.000000000000000000, 0.0000000000000000000, 0.0000000000000000000 ) ) ;
#182 = ORIENTED_EDGE ( 'NONE', *, *, #258, .T. ) ;
#183 = DIRECTION ( 'NONE',  ( -1.000000000000000000, 0.0000000000000000000, 0.0000000000000000000 ) ) ;
#184 = ORIENTED_EDGE ( 'NONE', *, *, #16, .T. ) ;
#185 = AXIS2_PLACEMENT_3D ( 'NONE', #81, #7, #200 ) ;
#186 = ORIENTED_EDGE ( 'NONE', *, *, #77, .T. ) ;
#187 = EDGE_CURVE ( 'NONE', #30, #295, #112, .T. ) ;
#188 = DIRECTION ( 'NONE',  ( 0.0000000000000000000, 0.0000000000000000000, 1.000000000000000000 ) ) ;
#189 = AXIS2_PLACEMENT_3D ( 'NONE', #299, #188, #113 ) ;
#190 = AXIS2_PLACEMENT_3D ( 'NONE', #233, #285, #169 ) ;
#191 = FACE_OUTER_BOUND ( 'NONE', #269, .T. ) ;
#192 = EDGE_CURVE ( 'NONE', #44, #87, #124, .T. ) ;
#193 = ORIENTED_EDGE ( 'NONE', *, *, #3, .F. ) ;
#194 = DIRECTION ( 'NONE',  ( -0.0000000000000000000, -0.0000000000000000000, -1.000000000000000000 ) ) ;
#195 = VERTEX_POINT ( 'NONE', #208 ) ;
#196 = FILL_AREA_STYLE_COLOUR ( '', #59 ) ;
#197 = LINE ( 'NONE', #10, #71 ) ;
#198 = ORIENTED_EDGE ( 'NONE', *, *, #68, .F. ) ;
#199 = PRESENTATION_LAYER_ASSIGNMENT (  '', '', ( #280 ) ) ;
#200 = DIRECTION ( 'NONE',  ( -1.000000000000000000, 0.0000000000000000000, 0.0000000000000000000 ) ) ;
#201 = DIMENSIONAL_EXPONENTS ( 1.000000000000000000, 0.0000000000000000000, 0.0000000000000000000, 0.0000000000000000000, 0.0000000000000000000, 0.0000000000000000000, 0.0000000000000000000 ) ;
#202 = ADVANCED_FACE ( 'NONE', ( #146 ), #298, .T. ) ;
#203 = DIRECTION ( 'NONE',  ( 0.0000000000000000000, 0.0000000000000000000, 1.000000000000000000 ) ) ;
#204 = CARTESIAN_POINT ( 'NONE',  ( -0.06245000000000004020, 0.0000000000000000000, 0.0000000000000000000 ) ) ;
#205 = UNCERTAINTY_MEASURE_WITH_UNIT (LENGTH_MEASURE( 1.000000000000000082E-05 ), #294, 'distance_accuracy_value', 'NONE');
#206 = CIRCLE ( 'NONE', #185, 0.06245000000000000551 ) ;
#207 = MECHANICAL_DESIGN_GEOMETRIC_PRESENTATION_REPRESENTATION (  '', ( #280 ), #246 ) ;
#208 = CARTESIAN_POINT ( 'NONE',  ( 0.06245000000000001245, 0.0000000000000000000, 0.05494999999999978374 ) ) ;
#209 = PRODUCT_CONTEXT ( 'NONE', #235, 'mechanical' ) ;
#210 = EDGE_CURVE ( 'NONE', #87, #195, #206, .T. ) ;
#211 = FACE_OUTER_BOUND ( 'NONE', #62, .T. ) ;
#212 = DIRECTION ( 'NONE',  ( 0.0000000000000000000, 0.0000000000000000000, 1.000000000000000000 ) ) ;
#213 = CARTESIAN_POINT ( 'NONE',  ( 0.0000000000000000000, 0.0000000000000000000, 1.707404996040164512E-17 ) ) ;
#214 = AXIS2_PLACEMENT_3D ( 'NONE', #110, #18, #181 ) ;
#215 = AXIS2_PLACEMENT_3D ( 'NONE', #67, #42, #248 ) ;
#216 = ORIENTED_EDGE ( 'NONE', *, *, #225, .F. ) ;
#217 = DIRECTION ( 'NONE',  ( 0.0000000000000000000, 0.0000000000000000000, 1.000000000000000000 ) ) ;
#218 = CARTESIAN_POINT ( 'NONE',  ( 0.007499999999999999722, 0.0000000000000000000, 1.707404996040164512E-17 ) ) ;
#219 = ORIENTED_EDGE ( 'NONE', *, *, #82, .F. ) ;
#220 = AXIS2_PLACEMENT_3D ( 'NONE', #253, #194, #26 ) ;
#221 = AXIS2_PLACEMENT_3D ( 'NONE', #213, #217, #155 ) ;
#222 = ADVANCED_FACE ( 'NONE', ( #9 ), #152, .F. ) ;
#223 =( NAMED_UNIT ( * ) PLANE_ANGLE_UNIT ( ) SI_UNIT ( $, .RADIAN. ) );
#224 = DIRECTION ( 'NONE',  ( -0.7071067811865491270, 8.659560562354952580E-17, 0.7071067811865459074 ) ) ;
#225 = EDGE_CURVE ( 'NONE', #306, #30, #153, .T. ) ;
#226 = AXIS2_PLACEMENT_3D ( 'NONE', #125, #100, #292 ) ;
#227 = CLOSED_SHELL ( 'NONE', ( #88, #28, #202, #297, #302, #92, #141, #165, #286, #271, #222 ) ) ;
#228 = CARTESIAN_POINT ( 'NONE',  ( 0.0000000000000000000, 0.0000000000000000000, 1.707404996040164512E-17 ) ) ;
#229 = ORIENTED_EDGE ( 'NONE', *, *, #192, .T. ) ;
#230 = LINE ( 'NONE', #6, #319 ) ;
#231 = ORIENTED_EDGE ( 'NONE', *, *, #19, .F. ) ;
#232 = PLANE ( 'NONE',  #76 ) ;
#233 = CARTESIAN_POINT ( 'NONE',  ( 0.0000000000000000000, 0.0000000000000000000, 0.0000000000000000000 ) ) ;
#234 = UNCERTAINTY_MEASURE_WITH_UNIT (LENGTH_MEASURE( 1.000000000000000082E-05 ), #5, 'distance_accuracy_value', 'NONE');
#235 = APPLICATION_CONTEXT ( 'automotive_design' ) ;
#236 = DIRECTION ( 'NONE',  ( 0.7071067811865456854, 8.659560562354911904E-17, -0.7071067811865493491 ) ) ;
#237 = DIRECTION ( 'NONE',  ( -1.000000000000000000, 0.0000000000000000000, 0.0000000000000000000 ) ) ;
#238 = EDGE_CURVE ( 'NONE', #46, #195, #290, .T. ) ;
#239 = CIRCLE ( 'NONE', #287, 0.06245000000000007490 ) ;
#240 =( LENGTH_UNIT ( ) NAMED_UNIT ( * ) SI_UNIT ( $, .METRE. ) );
#241 = LENGTH_MEASURE_WITH_UNIT ( LENGTH_MEASURE( 0.02539999999999999897 ), #318 );
#242 = CARTESIAN_POINT ( 'NONE',  ( -0.06250000000000000000, 0.0000000000000000000, 0.5000000000000000000 ) ) ;
#243 =( NAMED_UNIT ( * ) SI_UNIT ( $, .STERADIAN. ) SOLID_ANGLE_UNIT ( ) );
#244 = EDGE_LOOP ( 'NONE', ( #231, #94 ) ) ;
#245 = DIRECTION ( 'NONE',  ( -1.000000000000000000, 0.0000000000000000000, 0.0000000000000000000 ) ) ;
#246 =( GEOMETRIC_REPRESENTATION_CONTEXT ( 3 ) GLOBAL_UNCERTAINTY_ASSIGNED_CONTEXT ( ( #205 ) ) GLOBAL_UNIT_ASSIGNED_CONTEXT ( ( #294, #85, #243 ) ) REPRESENTATION_CONTEXT ( 'NONE', 'WORKASPACE' ) );
#247 = VECTOR ( 'NONE', #224, 39.37007874015748143 ) ;
#248 = DIRECTION ( 'NONE',  ( -1.000000000000000000, 0.0000000000000000000, 0.0000000000000000000 ) ) ;
#249 = ORIENTED_EDGE ( 'NONE', *, *, #119, .T. ) ;
#250 = DIRECTION ( 'NONE',  ( -1.000000000000000000, 0.0000000000000000000, 0.0000000000000000000 ) ) ;
#251 = VECTOR ( 'NONE', #104, 39.37007874015748143 ) ;
#252 = EDGE_LOOP ( 'NONE', ( #216, #140, #321, #325 ) ) ;
#253 = CARTESIAN_POINT ( 'NONE',  ( 0.0000000000000000000, 0.0000000000000000000, 0.5000000000000000000 ) ) ;
#254 = CARTESIAN_POINT ( 'NONE',  ( 0.06245000000000006796, 7.647919260675228804E-18, 0.5000000000000000000 ) ) ;
#255 = ORIENTED_EDGE ( 'NONE', *, *, #36, .T. ) ;
#256 = LENGTH_MEASURE_WITH_UNIT ( LENGTH_MEASURE( 0.02539999999999999897 ), #51 );
#257 = DIRECTION ( 'NONE',  ( -0.0000000000000000000, 0.0000000000000000000, -1.000000000000000000 ) ) ;
#258 = EDGE_CURVE ( 'NONE', #91, #306, #160, .T. ) ;
#259 = DIRECTION ( 'NONE',  ( -0.0000000000000000000, -0.0000000000000000000, -1.000000000000000000 ) ) ;
#260 = AXIS2_PLACEMENT_3D ( 'NONE', #270, #139, #250 ) ;
#261 = AXIS2_PLACEMENT_3D ( 'NONE', #56, #257, #106 ) ;
#262 = COLOUR_RGB ( '',0.7921568627450980005, 0.8196078431372548767, 0.9333333333333333481 ) ;
#263 = DIRECTION ( 'NONE',  ( 0.0000000000000000000, 0.0000000000000000000, 1.000000000000000000 ) ) ;
#264 = ADVANCED_BREP_SHAPE_REPRESENTATION ( 'Micro_DM-125-490X', ( #79, #304 ), #320 ) ;
#265 = CARTESIAN_POINT ( 'NONE',  ( 0.0000000000000000000, 0.0000000000000000000, 1.485000000000000764 ) ) ;
#266 = LENGTH_MEASURE_WITH_UNIT ( LENGTH_MEASURE( 0.02539999999999999897 ), #240 );
#267 = CARTESIAN_POINT ( 'NONE',  ( 0.0000000000000000000, 0.0000000000000000000, 0.0000000000000000000 ) ) ;
#268 = FACE_OUTER_BOUND ( 'NONE', #252, .T. ) ;
#269 = EDGE_LOOP ( 'NONE', ( #134, #118, #328, #301 ) ) ;
#270 = CARTESIAN_POINT ( 'NONE',  ( 0.0000000000000000000, 0.0000000000000000000, 0.05494999999999977680 ) ) ;
#271 = ADVANCED_FACE ( 'NONE', ( #108 ), #15, .T. ) ;
#272 = ORIENTED_EDGE ( 'NONE', *, *, #187, .T. ) ;
#273 = ORIENTED_EDGE ( 'NONE', *, *, #77, .F. ) ;
#274 = EDGE_LOOP ( 'NONE', ( #180, #98, #229, #193 ) ) ;
#275 = MECHANICAL_DESIGN_GEOMETRIC_PRESENTATION_REPRESENTATION (  '', ( #86 ), #288 ) ;
#276 = SURFACE_STYLE_USAGE ( .BOTH. , #278 ) ;
#277 = ORIENTED_EDGE ( 'NONE', *, *, #282, .T. ) ;
#278 = SURFACE_SIDE_STYLE ('',( #73 ) ) ;
#279 = PRESENTATION_LAYER_ASSIGNMENT (  '', '', ( #86 ) ) ;
#280 = STYLED_ITEM ( 'NONE', ( #133 ), #264 ) ;
#281 = PRESENTATION_STYLE_ASSIGNMENT (( #276 ) ) ;
#282 = EDGE_CURVE ( 'NONE', #20, #300, #136, .T. ) ;
#283 = CARTESIAN_POINT ( 'NONE',  ( 0.04750000000000064587, 6.735557395310482421E-18, 1.500000000000000222 ) ) ;
#284 = DIRECTION ( 'NONE',  ( 1.000000000000000000, 0.0000000000000000000, -0.0000000000000000000 ) ) ;
#285 = DIRECTION ( 'NONE',  ( -0.0000000000000000000, -0.0000000000000000000, -1.000000000000000000 ) ) ;
#286 = ADVANCED_FACE ( 'NONE', ( #211 ), #102, .T. ) ;
#287 = AXIS2_PLACEMENT_3D ( 'NONE', #123, #305, #49 ) ;
#288 =( GEOMETRIC_REPRESENTATION_CONTEXT ( 3 ) GLOBAL_UNCERTAINTY_ASSIGNED_CONTEXT ( ( #234 ) ) GLOBAL_UNIT_ASSIGNED_CONTEXT ( ( #5, #223, #142 ) ) REPRESENTATION_CONTEXT ( 'NONE', 'WORKASPACE' ) );
#289 = AXIS2_PLACEMENT_3D ( 'NONE', #307, #329, #31 ) ;
#290 = LINE ( 'NONE', #127, #251 ) ;
#291 = FILL_AREA_STYLE_COLOUR ( '', #262 ) ;
#292 = DIRECTION ( 'NONE',  ( 1.000000000000000000, 0.0000000000000000000, 0.0000000000000000000 ) ) ;
#293 = DIRECTION ( 'NONE',  ( 1.000000000000000000, 0.0000000000000000000, 0.0000000000000000000 ) ) ;
#294 =( CONVERSION_BASED_UNIT ( 'INCH', #241 ) LENGTH_UNIT ( ) NAMED_UNIT ( #147 ) );
#295 = VERTEX_POINT ( 'NONE', #242 ) ;
#296 = EDGE_LOOP ( 'NONE', ( #157, #272 ) ) ;
#297 = ADVANCED_FACE ( 'NONE', ( #317 ), #132, .T. ) ;
#298 = CONICAL_SURFACE ( 'NONE', #13, 0.04750000000000064587, 0.7853981633974457255 ) ;
#299 = CARTESIAN_POINT ( 'NONE',  ( 0.0000000000000000000, 0.0000000000000000000, 1.500000000000000222 ) ) ;
#300 = VERTEX_POINT ( 'NONE', #158 ) ;
#301 = ORIENTED_EDGE ( 'NONE', *, *, #192, .F. ) ;
#302 = ADVANCED_FACE ( 'NONE', ( #268 ), #90, .T. ) ;
#303 = AXIS2_PLACEMENT_3D ( 'NONE', #52, #170, #237 ) ;
#304 = AXIS2_PLACEMENT_3D ( 'NONE', #12, #212, #293 ) ;
#305 = DIRECTION ( 'NONE',  ( -0.0000000000000000000, -0.0000000000000000000, -1.000000000000000000 ) ) ;
#306 = VERTEX_POINT ( 'NONE', #84 ) ;
#307 = CARTESIAN_POINT ( 'NONE',  ( 0.0000000000000000000, 0.0000000000000000000, 1.707404996040164512E-17 ) ) ;
#308 = DIRECTION ( 'NONE',  ( -0.0000000000000000000, -0.0000000000000000000, -1.000000000000000000 ) ) ;
#309 = DIMENSIONAL_EXPONENTS ( 1.000000000000000000, 0.0000000000000000000, 0.0000000000000000000, 0.0000000000000000000, 0.0000000000000000000, 0.0000000000000000000, 0.0000000000000000000 ) ;
#310 = CIRCLE ( 'NONE', #215, 0.06245000000000007490 ) ;
#311 = PRODUCT_DEFINITION_CONTEXT ( 'detailed design', #37, 'design' ) ;
#312 = DIRECTION ( 'NONE',  ( 1.000000000000000000, 0.0000000000000000000, -0.0000000000000000000 ) ) ;
#313 = DIRECTION ( 'NONE',  ( 0.0000000000000000000, 0.0000000000000000000, -1.000000000000000000 ) ) ;
#314 = CARTESIAN_POINT ( 'NONE',  ( 0.0000000000000000000, 0.0000000000000000000, 1.500000000000000222 ) ) ;
#315 = SHAPE_DEFINITION_REPRESENTATION ( #172, #264 ) ;
#316 = DIRECTION ( 'NONE',  ( 0.0000000000000000000, 0.0000000000000000000, -1.000000000000000000 ) ) ;
#317 = FACE_OUTER_BOUND ( 'NONE', #25, .T. ) ;
#318 =( LENGTH_UNIT ( ) NAMED_UNIT ( * ) SI_UNIT ( $, .METRE. ) );
#319 = VECTOR ( 'NONE', #107, 39.37007874015748143 ) ;
#320 =( GEOMETRIC_REPRESENTATION_CONTEXT ( 3 ) GLOBAL_UNCERTAINTY_ASSIGNED_CONTEXT ( ( #105 ) ) GLOBAL_UNIT_ASSIGNED_CONTEXT ( ( #322, #57, #38 ) ) REPRESENTATION_CONTEXT ( 'NONE', 'WORKASPACE' ) );
#321 = ORIENTED_EDGE ( 'NONE', *, *, #115, .T. ) ;
#322 =( CONVERSION_BASED_UNIT ( 'INCH', #266 ) LENGTH_UNIT ( ) NAMED_UNIT ( #309 ) );
#323 = EDGE_LOOP ( 'NONE', ( #277, #167 ) ) ;
#324 = CARTESIAN_POINT ( 'NONE',  ( 0.0000000000000000000, 0.0000000000000000000, 1.500000000000000222 ) ) ;
#325 = ORIENTED_EDGE ( 'NONE', *, *, #187, .F. ) ;
#326 = VECTOR ( 'NONE', #259, 39.37007874015748143 ) ;
#327 = ORIENTED_EDGE ( 'NONE', *, *, #225, .T. ) ;
#328 = ORIENTED_EDGE ( 'NONE', *, *, #210, .F. ) ;
#329 = DIRECTION ( 'NONE',  ( 0.0000000000000000000, 0.0000000000000000000, 1.000000000000000000 ) ) ;
ENDSEC;
END-ISO-10303-21;
