ISO-10303-21;
HEADER;
FILE_DESCRIPTION (( 'STEP AP214' ),
    '1' );
FILE_NAME ('82526.STEP',
    '2023-06-23T06:10:53',
    ( '' ),
    ( '' ),
    'SwSTEP 2.0',
    'SolidWorks 2023',
    '' );
FILE_SCHEMA (( 'AUTOMOTIVE_DESIGN' ));
ENDSEC;

DATA;
#1 = FILL_AREA_STYLE ('',( #225 ) ) ;
#2 = CARTESIAN_POINT ( 'NONE',  ( -6.123233995736759873E-17, 2.500000000000000000, 0.000000000000000000 ) ) ;
#3 = SURFACE_STYLE_USAGE ( .BOTH. , #31 ) ;
#4 = STYLED_ITEM ( 'NONE', ( #19 ), #84 ) ;
#5 = PRESENTATION_LAYER_ASSIGNMENT (  '', '', ( #265 ) ) ;
#6 = EDGE_CURVE ( 'NONE', #130, #25, #51, .T. ) ;
#7 = DIRECTION ( 'NONE',  ( -0.000000000000000000, -1.000000000000000000, -0.000000000000000000 ) ) ;
#8 = AXIS2_PLACEMENT_3D ( 'NONE', #36, #214, #304 ) ;
#9 = PRESENTATION_STYLE_ASSIGNMENT (( #150 ) ) ;
#10 = LENGTH_MEASURE_WITH_UNIT ( LENGTH_MEASURE( 0.02539999999999999897 ), #63 );
#11 = FACE_OUTER_BOUND ( 'NONE', #91, .T. ) ;
#12 =( LENGTH_UNIT ( ) NAMED_UNIT ( * ) SI_UNIT ( $, .METRE. ) );
#13 =( CONVERSION_BASED_UNIT ( 'INCH', #10 ) LENGTH_UNIT ( ) NAMED_UNIT ( #202 ) );
#14 = FILL_AREA_STYLE_COLOUR ( '', #259 ) ;
#15 =( NAMED_UNIT ( * ) SI_UNIT ( $, .STERADIAN. ) SOLID_ANGLE_UNIT ( ) );
#16 = PRESENTATION_LAYER_ASSIGNMENT (  '', '', ( #289 ) ) ;
#17 = SURFACE_SIDE_STYLE ('',( #254 ) ) ;
#18 = VERTEX_POINT ( 'NONE', #226 ) ;
#19 = PRESENTATION_STYLE_ASSIGNMENT (( #45 ) ) ;
#20 = EDGE_LOOP ( 'NONE', ( #102, #136 ) ) ;
#21 =( LENGTH_UNIT ( ) NAMED_UNIT ( * ) SI_UNIT ( $, .METRE. ) );
#22 = VERTEX_POINT ( 'NONE', #263 ) ;
#23 = FILL_AREA_STYLE_COLOUR ( '', #124 ) ;
#24 = CARTESIAN_POINT ( 'NONE',  ( 0.06250000000000000000, 0.6250000000000000000, 7.654042494670963708E-18 ) ) ;
#25 = VERTEX_POINT ( 'NONE', #159 ) ;
#26 = DIRECTION ( 'NONE',  ( 0.000000000000000000, 1.000000000000000000, 0.000000000000000000 ) ) ;
#27 = DIMENSIONAL_EXPONENTS ( 1.000000000000000000, 0.000000000000000000, 0.000000000000000000, 0.000000000000000000, 0.000000000000000000, 0.000000000000000000, 0.000000000000000000 ) ;
#28 = CLOSED_SHELL ( 'NONE', ( #44, #298, #30, #212 ) ) ;
#29 = CLOSED_SHELL ( 'NONE', ( #309, #84, #193, #255 ) ) ;
#30 = ADVANCED_FACE ( 'NONE', ( #134 ), #176, .T. ) ;
#31 = SURFACE_SIDE_STYLE ('',( #270 ) ) ;
#32 = EDGE_CURVE ( 'NONE', #151, #277, #75, .T. ) ;
#33 = FACE_OUTER_BOUND ( 'NONE', #97, .T. ) ;
#34 = APPLICATION_CONTEXT ( 'automotive_design' ) ;
#35 = AXIS2_PLACEMENT_3D ( 'NONE', #40, #147, #120 ) ;
#36 = CARTESIAN_POINT ( 'NONE',  ( 0.000000000000000000, 0.6250000000000000000, 0.000000000000000000 ) ) ;
#37 = SURFACE_STYLE_FILL_AREA ( #163 ) ;
#38 = DIRECTION ( 'NONE',  ( -0.000000000000000000, -1.000000000000000000, -0.000000000000000000 ) ) ;
#39 = PLANE ( 'NONE',  #83 ) ;
#40 = CARTESIAN_POINT ( 'NONE',  ( -6.123233995736759873E-17, 2.500000000000000000, 0.000000000000000000 ) ) ;
#41 = ORIENTED_EDGE ( 'NONE', *, *, #183, .F. ) ;
#42 = CARTESIAN_POINT ( 'NONE',  ( -6.123233995736759873E-17, 2.500000000000000000, 0.000000000000000000 ) ) ;
#43 = UNCERTAINTY_MEASURE_WITH_UNIT (LENGTH_MEASURE( 1.000000000000000082E-05 ), #126, 'distance_accuracy_value', 'NONE');
#44 = ADVANCED_FACE ( 'NONE', ( #33 ), #82, .T. ) ;
#45 = SURFACE_STYLE_USAGE ( .BOTH. , #61 ) ;
#46 = VERTEX_POINT ( 'NONE', #207 ) ;
#47 =( NAMED_UNIT ( * ) SI_UNIT ( $, .STERADIAN. ) SOLID_ANGLE_UNIT ( ) );
#48 = DIRECTION ( 'NONE',  ( -0.000000000000000000, -1.000000000000000000, -0.000000000000000000 ) ) ;
#49 = DIMENSIONAL_EXPONENTS ( 1.000000000000000000, 0.000000000000000000, 0.000000000000000000, 0.000000000000000000, 0.000000000000000000, 0.000000000000000000, 0.000000000000000000 ) ;
#50 = CARTESIAN_POINT ( 'NONE',  ( -0.06250000000000009714, 2.500000000000000000, 0.000000000000000000 ) ) ;
#51 = LINE ( 'NONE', #50, #164 ) ;
#52 = PRESENTATION_LAYER_ASSIGNMENT (  '', '', ( #138 ) ) ;
#53 = CIRCLE ( 'NONE', #135, 0.06250000000000005551 ) ;
#54 = FILL_AREA_STYLE ('',( #156 ) ) ;
#55 = DIRECTION ( 'NONE',  ( -3.265724797726272097E-17, 1.000000000000000000, -0.000000000000000000 ) ) ;
#56 = AXIS2_PLACEMENT_3D ( 'NONE', #143, #115, #294 ) ;
#57 = DIRECTION ( 'NONE',  ( 0.000000000000000000, -1.000000000000000000, -0.000000000000000000 ) ) ;
#58 = DIRECTION ( 'NONE',  ( 0.000000000000000000, 0.000000000000000000, -1.000000000000000000 ) ) ;
#59 = EDGE_CURVE ( 'NONE', #130, #151, #77, .T. ) ;
#60 = LENGTH_MEASURE_WITH_UNIT ( LENGTH_MEASURE( 0.02539999999999999897 ), #137 );
#61 = SURFACE_SIDE_STYLE ('',( #191 ) ) ;
#62 =( NAMED_UNIT ( * ) PLANE_ANGLE_UNIT ( ) SI_UNIT ( $, .RADIAN. ) );
#63 =( LENGTH_UNIT ( ) NAMED_UNIT ( * ) SI_UNIT ( $, .METRE. ) );
#64 = ORIENTED_EDGE ( 'NONE', *, *, #32, .T. ) ;
#65 =( GEOMETRIC_REPRESENTATION_CONTEXT ( 3 ) GLOBAL_UNCERTAINTY_ASSIGNED_CONTEXT ( ( #305 ) ) GLOBAL_UNIT_ASSIGNED_CONTEXT ( ( #173, #227, #47 ) ) REPRESENTATION_CONTEXT ( 'NONE', 'WORKASPACE' ) );
#66 = CIRCLE ( 'NONE', #8, 0.06250000000000000000 ) ;
#67 = APPLICATION_PROTOCOL_DEFINITION ( 'draft international standard', 'automotive_design', 1998, #245 ) ;
#68 = SURFACE_SIDE_STYLE ('',( #223 ) ) ;
#69 = UNCERTAINTY_MEASURE_WITH_UNIT (LENGTH_MEASURE( 1.000000000000000082E-05 ), #76, 'distance_accuracy_value', 'NONE');
#70 = DIRECTION ( 'NONE',  ( -0.000000000000000000, -1.000000000000000000, -0.000000000000000000 ) ) ;
#71 = LENGTH_MEASURE_WITH_UNIT ( LENGTH_MEASURE( 0.02539999999999999897 ), #230 );
#72 = VECTOR ( 'NONE', #179, 39.37007874015748143 ) ;
#73 = PRODUCT_DEFINITION_FORMATION_WITH_SPECIFIED_SOURCE ( 'ANY', '', #303, .NOT_KNOWN. ) ;
#74 = EDGE_CURVE ( 'NONE', #186, #18, #275, .T. ) ;
#75 = LINE ( 'NONE', #174, #72 ) ;
#76 =( CONVERSION_BASED_UNIT ( 'INCH', #140 ) LENGTH_UNIT ( ) NAMED_UNIT ( #49 ) );
#77 = CIRCLE ( 'NONE', #56, 0.06250000000000000000 ) ;
#78 = AXIS2_PLACEMENT_3D ( 'NONE', #98, #70, #58 ) ;
#79 = UNCERTAINTY_MEASURE_WITH_UNIT (LENGTH_MEASURE( 1.000000000000000082E-05 ), #13, 'distance_accuracy_value', 'NONE');
#80 = SURFACE_STYLE_USAGE ( .BOTH. , #68 ) ;
#81 = PRESENTATION_STYLE_ASSIGNMENT (( #3 ) ) ;
#82 = CYLINDRICAL_SURFACE ( 'NONE', #224, 0.06250000000000002776 ) ;
#83 = AXIS2_PLACEMENT_3D ( 'NONE', #96, #250, #188 ) ;
#84 = ADVANCED_FACE ( 'NONE', ( #167 ), #301, .T. ) ;
#85 = CARTESIAN_POINT ( 'NONE',  ( 0.000000000000000000, 0.000000000000000000, 0.000000000000000000 ) ) ;
#86 = UNCERTAINTY_MEASURE_WITH_UNIT (LENGTH_MEASURE( 1.000000000000000082E-05 ), #297, 'distance_accuracy_value', 'NONE');
#87 = ORIENTED_EDGE ( 'NONE', *, *, #233, .F. ) ;
#88 = CARTESIAN_POINT ( 'NONE',  ( 0.000000000000000000, 0.000000000000000000, 0.000000000000000000 ) ) ;
#89 = DIRECTION ( 'NONE',  ( 0.000000000000000000, 0.000000000000000000, 1.000000000000000000 ) ) ;
#90 = EDGE_CURVE ( 'NONE', #18, #186, #161, .T. ) ;
#91 = EDGE_LOOP ( 'NONE', ( #281, #274 ) ) ;
#92 = AXIS2_PLACEMENT_3D ( 'NONE', #197, #243, #246 ) ;
#93 = DIRECTION ( 'NONE',  ( -3.265724797726272097E-17, 1.000000000000000000, -0.000000000000000000 ) ) ;
#94 = FILL_AREA_STYLE ('',( #14 ) ) ;
#95 =( CONVERSION_BASED_UNIT ( 'INCH', #125 ) LENGTH_UNIT ( ) NAMED_UNIT ( #248 ) );
#96 = CARTESIAN_POINT ( 'NONE',  ( 0.06250000000000000000, 2.500000000000000000, 0.000000000000000000 ) ) ;
#97 = EDGE_LOOP ( 'NONE', ( #198, #64, #184, #221 ) ) ;
#98 = CARTESIAN_POINT ( 'NONE',  ( 0.000000000000000000, 0.000000000000000000, 0.000000000000000000 ) ) ;
#99 = MECHANICAL_DESIGN_GEOMETRIC_PRESENTATION_REPRESENTATION (  '', ( #4 ), #65 ) ;
#100 =( GEOMETRIC_REPRESENTATION_CONTEXT ( 3 ) GLOBAL_UNCERTAINTY_ASSIGNED_CONTEXT ( ( #69 ) ) GLOBAL_UNIT_ASSIGNED_CONTEXT ( ( #76, #292, #222 ) ) REPRESENTATION_CONTEXT ( 'NONE', 'WORKASPACE' ) );
#101 =( NAMED_UNIT ( * ) PLANE_ANGLE_UNIT ( ) SI_UNIT ( $, .RADIAN. ) );
#102 = ORIENTED_EDGE ( 'NONE', *, *, #205, .T. ) ;
#103 = DIMENSIONAL_EXPONENTS ( 1.000000000000000000, 0.000000000000000000, 0.000000000000000000, 0.000000000000000000, 0.000000000000000000, 0.000000000000000000, 0.000000000000000000 ) ;
#104 = CARTESIAN_POINT ( 'NONE',  ( 0.000000000000000000, 0.000000000000000000, -0.06250000000000001388 ) ) ;
#105 =( NAMED_UNIT ( * ) SI_UNIT ( $, .STERADIAN. ) SOLID_ANGLE_UNIT ( ) );
#106 = ORIENTED_EDGE ( 'NONE', *, *, #266, .F. ) ;
#107 = MECHANICAL_DESIGN_GEOMETRIC_PRESENTATION_REPRESENTATION (  '', ( #293 ), #100 ) ;
#108 = DIRECTION ( 'NONE',  ( -3.265724797726272097E-17, 1.000000000000000000, -0.000000000000000000 ) ) ;
#109 =( NAMED_UNIT ( * ) SI_UNIT ( $, .STERADIAN. ) SOLID_ANGLE_UNIT ( ) );
#110 = PRODUCT_DEFINITION_SHAPE ( 'NONE', 'NONE',  #141 ) ;
#111 =( LENGTH_UNIT ( ) NAMED_UNIT ( * ) SI_UNIT ( $, .METRE. ) );
#112 = FACE_OUTER_BOUND ( 'NONE', #133, .T. ) ;
#113 = SURFACE_SIDE_STYLE ('',( #37 ) ) ;
#114 = UNCERTAINTY_MEASURE_WITH_UNIT (LENGTH_MEASURE( 1.000000000000000082E-05 ), #220, 'distance_accuracy_value', 'NONE');
#115 = DIRECTION ( 'NONE',  ( -3.265724797726272097E-17, 1.000000000000000000, -0.000000000000000000 ) ) ;
#116 = MECHANICAL_DESIGN_GEOMETRIC_PRESENTATION_REPRESENTATION (  '', ( #219 ), #235 ) ;
#117 = SURFACE_STYLE_FILL_AREA ( #149 ) ;
#118 = DIRECTION ( 'NONE',  ( -1.000000000000000000, 0.000000000000000000, 0.000000000000000000 ) ) ;
#119 = DIRECTION ( 'NONE',  ( -1.000000000000000000, -3.265724797726272097E-17, 0.000000000000000000 ) ) ;
#120 = DIRECTION ( 'NONE',  ( -1.000000000000000000, 0.000000000000000000, 0.000000000000000000 ) ) ;
#121 = PRODUCT_CONTEXT ( 'NONE', #34, 'mechanical' ) ;
#122 = ORIENTED_EDGE ( 'NONE', *, *, #6, .T. ) ;
#123 = COLOUR_RGB ( '',1.000000000000000000, 0.000000000000000000, 0.000000000000000000 ) ;
#124 = COLOUR_RGB ( '',0.7921568627450980005, 0.8196078431372548767, 0.9333333333333333481 ) ;
#125 = LENGTH_MEASURE_WITH_UNIT ( LENGTH_MEASURE( 0.02539999999999999897 ), #211 );
#126 =( CONVERSION_BASED_UNIT ( 'INCH', #232 ) LENGTH_UNIT ( ) NAMED_UNIT ( #27 ) );
#127 = ORIENTED_EDGE ( 'NONE', *, *, #74, .T. ) ;
#128 = FILL_AREA_STYLE ('',( #23 ) ) ;
#129 = APPLICATION_PROTOCOL_DEFINITION ( 'draft international standard', 'automotive_design', 1998, #34 ) ;
#130 = VERTEX_POINT ( 'NONE', #132 ) ;
#131 = CARTESIAN_POINT ( 'NONE',  ( 7.654042494670960626E-18, 0.000000000000000000, 0.06250000000000002776 ) ) ;
#132 = CARTESIAN_POINT ( 'NONE',  ( -0.06250000000000000000, 0.6250000000000000000, 0.000000000000000000 ) ) ;
#133 = EDGE_LOOP ( 'NONE', ( #87, #291, #240, #196 ) ) ;
#134 = FACE_OUTER_BOUND ( 'NONE', #307, .T. ) ;
#135 = AXIS2_PLACEMENT_3D ( 'NONE', #42, #55, #295 ) ;
#136 = ORIENTED_EDGE ( 'NONE', *, *, #266, .T. ) ;
#137 =( LENGTH_UNIT ( ) NAMED_UNIT ( * ) SI_UNIT ( $, .METRE. ) );
#138 = STYLED_ITEM ( 'NONE', ( #209 ), #189 ) ;
#139 =( GEOMETRIC_REPRESENTATION_CONTEXT ( 3 ) GLOBAL_UNCERTAINTY_ASSIGNED_CONTEXT ( ( #262 ) ) GLOBAL_UNIT_ASSIGNED_CONTEXT ( ( #95, #239, #105 ) ) REPRESENTATION_CONTEXT ( 'NONE', 'WORKASPACE' ) );
#140 = LENGTH_MEASURE_WITH_UNIT ( LENGTH_MEASURE( 0.02539999999999999897 ), #111 );
#141 = PRODUCT_DEFINITION ( 'UNKNOWN', '', #73, #272 ) ;
#142 = FACE_OUTER_BOUND ( 'NONE', #20, .T. ) ;
#143 = CARTESIAN_POINT ( 'NONE',  ( 7.582401355855259480E-33, 0.6250000000000000000, 0.000000000000000000 ) ) ;
#144 = PRESENTATION_LAYER_ASSIGNMENT (  '', '', ( #293 ) ) ;
#145 = DIRECTION ( 'NONE',  ( -1.000000000000000000, 0.000000000000000000, 0.000000000000000000 ) ) ;
#146 = DIRECTION ( 'NONE',  ( -3.265724797726272097E-17, 1.000000000000000000, 0.000000000000000000 ) ) ;
#147 = DIRECTION ( 'NONE',  ( -3.265724797726272097E-17, 1.000000000000000000, -0.000000000000000000 ) ) ;
#148 = DIRECTION ( 'NONE',  ( 1.000000000000000000, 0.000000000000000000, 0.000000000000000000 ) ) ;
#149 = FILL_AREA_STYLE ('',( #299 ) ) ;
#150 = SURFACE_STYLE_USAGE ( .BOTH. , #113 ) ;
#151 = VERTEX_POINT ( 'NONE', #24 ) ;
#152 = AXIS2_PLACEMENT_3D ( 'NONE', #258, #146, #119 ) ;
#153 = DIRECTION ( 'NONE',  ( 0.000000000000000000, -0.000000000000000000, 1.000000000000000000 ) ) ;
#154 = ORIENTED_EDGE ( 'NONE', *, *, #217, .F. ) ;
#155 = PRESENTATION_LAYER_ASSIGNMENT (  '', '', ( #219 ) ) ;
#156 = FILL_AREA_STYLE_COLOUR ( '', #123 ) ;
#157 = ORIENTED_EDGE ( 'NONE', *, *, #90, .F. ) ;
#158 = DIMENSIONAL_EXPONENTS ( 1.000000000000000000, 0.000000000000000000, 0.000000000000000000, 0.000000000000000000, 0.000000000000000000, 0.000000000000000000, 0.000000000000000000 ) ;
#159 = CARTESIAN_POINT ( 'NONE',  ( -0.06250000000000012490, 2.500000000000000000, 0.000000000000000000 ) ) ;
#160 = VECTOR ( 'NONE', #48, 39.37007874015748143 ) ;
#161 = CIRCLE ( 'NONE', #92, 0.06250000000000001388 ) ;
#162 = PRESENTATION_STYLE_ASSIGNMENT (( #213 ) ) ;
#163 = FILL_AREA_STYLE ('',( #278 ) ) ;
#164 = VECTOR ( 'NONE', #244, 39.37007874015748143 ) ;
#165 = DIRECTION ( 'NONE',  ( 0.000000000000000000, 0.000000000000000000, -1.000000000000000000 ) ) ;
#166 = CARTESIAN_POINT ( 'NONE',  ( 7.582401355855259480E-33, 0.6250000000000000000, 0.000000000000000000 ) ) ;
#167 = FACE_OUTER_BOUND ( 'NONE', #241, .T. ) ;
#168 = CYLINDRICAL_SURFACE ( 'NONE', #78, 0.06250000000000001388 ) ;
#169 = CIRCLE ( 'NONE', #276, 0.06250000000000000000 ) ;
#170 = ORIENTED_EDGE ( 'NONE', *, *, #90, .T. ) ;
#171 = DIRECTION ( 'NONE',  ( 0.000000000000000000, 0.000000000000000000, -1.000000000000000000 ) ) ;
#172 = EDGE_LOOP ( 'NONE', ( #218, #238, #157, #41 ) ) ;
#173 =( CONVERSION_BASED_UNIT ( 'INCH', #71 ) LENGTH_UNIT ( ) NAMED_UNIT ( #158 ) );
#174 = CARTESIAN_POINT ( 'NONE',  ( 0.06249999999999997224, 2.500000000000000000, 7.654042494670960626E-18 ) ) ;
#175 = PRODUCT_RELATED_PRODUCT_CATEGORY ( 'part', '', ( #303 ) ) ;
#176 = CYLINDRICAL_SURFACE ( 'NONE', #181, 0.06250000000000002776 ) ;
#177 = CYLINDRICAL_SURFACE ( 'NONE', #210, 0.06250000000000001388 ) ;
#178 = VECTOR ( 'NONE', #7, 39.37007874015748143 ) ;
#179 = DIRECTION ( 'NONE',  ( -3.265724797726272097E-17, 1.000000000000000000, -0.000000000000000000 ) ) ;
#180 =( NAMED_UNIT ( * ) PLANE_ANGLE_UNIT ( ) SI_UNIT ( $, .RADIAN. ) );
#181 = AXIS2_PLACEMENT_3D ( 'NONE', #2, #108, #201 ) ;
#182 = CIRCLE ( 'NONE', #260, 0.06250000000000000000 ) ;
#183 = EDGE_CURVE ( 'NONE', #22, #18, #288, .T. ) ;
#184 = ORIENTED_EDGE ( 'NONE', *, *, #205, .F. ) ;
#185 = DIRECTION ( 'NONE',  ( -3.265724797726272097E-17, 1.000000000000000000, -0.000000000000000000 ) ) ;
#186 = VERTEX_POINT ( 'NONE', #131 ) ;
#187 = COLOUR_RGB ( '',1.000000000000000000, 0.000000000000000000, 0.000000000000000000 ) ;
#188 = DIRECTION ( 'NONE',  ( 1.000000000000000000, 3.265724797726272097E-17, 0.000000000000000000 ) ) ;
#189 = MANIFOLD_SOLID_BREP ( 'Revolve - Tool Body (Straight Shanked)', #28 ) ;
#190 = LENGTH_MEASURE_WITH_UNIT ( LENGTH_MEASURE( 0.02539999999999999897 ), #21 );
#191 = SURFACE_STYLE_FILL_AREA ( #94 ) ;
#192 = EDGE_LOOP ( 'NONE', ( #170, #127 ) ) ;
#193 = ADVANCED_FACE ( 'NONE', ( #112 ), #177, .T. ) ;
#194 = LINE ( 'NONE', #215, #178 ) ;
#195 = DIRECTION ( 'NONE',  ( 0.000000000000000000, 0.000000000000000000, -1.000000000000000000 ) ) ;
#196 = ORIENTED_EDGE ( 'NONE', *, *, #74, .F. ) ;
#197 = CARTESIAN_POINT ( 'NONE',  ( 0.000000000000000000, 0.000000000000000000, 0.000000000000000000 ) ) ;
#198 = ORIENTED_EDGE ( 'NONE', *, *, #59, .T. ) ;
#199 = MECHANICAL_DESIGN_GEOMETRIC_PRESENTATION_REPRESENTATION (  '', ( #289 ), #269 ) ;
#200 = AXIS2_PLACEMENT_3D ( 'NONE', #88, #57, #165 ) ;
#201 = DIRECTION ( 'NONE',  ( -1.000000000000000000, 0.000000000000000000, 0.000000000000000000 ) ) ;
#202 = DIMENSIONAL_EXPONENTS ( 1.000000000000000000, 0.000000000000000000, 0.000000000000000000, 0.000000000000000000, 0.000000000000000000, 0.000000000000000000, 0.000000000000000000 ) ;
#203 = CARTESIAN_POINT ( 'NONE',  ( -6.123233995736759873E-17, 2.500000000000000000, 0.000000000000000000 ) ) ;
#204 = PRESENTATION_LAYER_ASSIGNMENT (  '', '', ( #4 ) ) ;
#205 = EDGE_CURVE ( 'NONE', #25, #277, #53, .T. ) ;
#206 = PRESENTATION_STYLE_ASSIGNMENT (( #80 ) ) ;
#207 = CARTESIAN_POINT ( 'NONE',  ( 7.654042494670959086E-18, 0.6250000000000000000, 0.06250000000000000000 ) ) ;
#208 = CIRCLE ( 'NONE', #35, 0.06250000000000005551 ) ;
#209 = PRESENTATION_STYLE_ASSIGNMENT (( #236 ) ) ;
#210 = AXIS2_PLACEMENT_3D ( 'NONE', #85, #256, #234 ) ;
#211 =( LENGTH_UNIT ( ) NAMED_UNIT ( * ) SI_UNIT ( $, .METRE. ) );
#212 = ADVANCED_FACE ( 'NONE', ( #142 ), #39, .F. ) ;
#213 = SURFACE_STYLE_USAGE ( .BOTH. , #282 ) ;
#214 = DIRECTION ( 'NONE',  ( -0.000000000000000000, -1.000000000000000000, -0.000000000000000000 ) ) ;
#215 = CARTESIAN_POINT ( 'NONE',  ( 7.654042494670959086E-18, 0.000000000000000000, 0.06250000000000001388 ) ) ;
#216 = SHAPE_DEFINITION_REPRESENTATION ( #110, #290 ) ;
#217 = EDGE_CURVE ( 'NONE', #46, #22, #66, .T. ) ;
#218 = ORIENTED_EDGE ( 'NONE', *, *, #273, .T. ) ;
#219 = STYLED_ITEM ( 'NONE', ( #9 ), #255 ) ;
#220 =( CONVERSION_BASED_UNIT ( 'INCH', #60 ) LENGTH_UNIT ( ) NAMED_UNIT ( #286 ) );
#221 = ORIENTED_EDGE ( 'NONE', *, *, #6, .F. ) ;
#222 =( NAMED_UNIT ( * ) SI_UNIT ( $, .STERADIAN. ) SOLID_ANGLE_UNIT ( ) );
#223 = SURFACE_STYLE_FILL_AREA ( #128 ) ;
#224 = AXIS2_PLACEMENT_3D ( 'NONE', #203, #185, #145 ) ;
#225 = FILL_AREA_STYLE_COLOUR ( '', #264 ) ;
#226 = CARTESIAN_POINT ( 'NONE',  ( 0.000000000000000000, 0.000000000000000000, -0.06250000000000001388 ) ) ;
#227 =( NAMED_UNIT ( * ) PLANE_ANGLE_UNIT ( ) SI_UNIT ( $, .RADIAN. ) );
#228 = ORIENTED_EDGE ( 'NONE', *, *, #242, .T. ) ;
#229 = AXIS2_PLACEMENT_3D ( 'NONE', #308, #38, #195 ) ;
#230 =( LENGTH_UNIT ( ) NAMED_UNIT ( * ) SI_UNIT ( $, .METRE. ) );
#231 = MECHANICAL_DESIGN_GEOMETRIC_PRESENTATION_REPRESENTATION (  '', ( #265 ), #139 ) ;
#232 = LENGTH_MEASURE_WITH_UNIT ( LENGTH_MEASURE( 0.02539999999999999897 ), #12 );
#233 = EDGE_CURVE ( 'NONE', #46, #186, #194, .T. ) ;
#234 = DIRECTION ( 'NONE',  ( 0.000000000000000000, 0.000000000000000000, -1.000000000000000000 ) ) ;
#235 =( GEOMETRIC_REPRESENTATION_CONTEXT ( 3 ) GLOBAL_UNCERTAINTY_ASSIGNED_CONTEXT ( ( #43 ) ) GLOBAL_UNIT_ASSIGNED_CONTEXT ( ( #126, #271, #252 ) ) REPRESENTATION_CONTEXT ( 'NONE', 'WORKASPACE' ) );
#236 = SURFACE_STYLE_USAGE ( .BOTH. , #17 ) ;
#237 = AXIS2_PLACEMENT_3D ( 'NONE', #267, #26, #153 ) ;
#238 = ORIENTED_EDGE ( 'NONE', *, *, #233, .T. ) ;
#239 =( NAMED_UNIT ( * ) PLANE_ANGLE_UNIT ( ) SI_UNIT ( $, .RADIAN. ) );
#240 = ORIENTED_EDGE ( 'NONE', *, *, #183, .T. ) ;
#241 = EDGE_LOOP ( 'NONE', ( #284, #154 ) ) ;
#242 = EDGE_CURVE ( 'NONE', #151, #130, #182, .T. ) ;
#243 = DIRECTION ( 'NONE',  ( -0.000000000000000000, -1.000000000000000000, -0.000000000000000000 ) ) ;
#244 = DIRECTION ( 'NONE',  ( -3.265724797726272097E-17, 1.000000000000000000, -0.000000000000000000 ) ) ;
#245 = APPLICATION_CONTEXT ( 'automotive_design' ) ;
#246 = DIRECTION ( 'NONE',  ( 0.000000000000000000, 0.000000000000000000, -1.000000000000000000 ) ) ;
#247 = ORIENTED_EDGE ( 'NONE', *, *, #32, .F. ) ;
#248 = DIMENSIONAL_EXPONENTS ( 1.000000000000000000, 0.000000000000000000, 0.000000000000000000, 0.000000000000000000, 0.000000000000000000, 0.000000000000000000, 0.000000000000000000 ) ;
#249 = AXIS2_PLACEMENT_3D ( 'NONE', #306, #89, #148 ) ;
#250 = DIRECTION ( 'NONE',  ( 3.265724797726272097E-17, -1.000000000000000000, 0.000000000000000000 ) ) ;
#251 = PLANE ( 'NONE',  #152 ) ;
#252 =( NAMED_UNIT ( * ) SI_UNIT ( $, .STERADIAN. ) SOLID_ANGLE_UNIT ( ) );
#253 =( GEOMETRIC_REPRESENTATION_CONTEXT ( 3 ) GLOBAL_UNCERTAINTY_ASSIGNED_CONTEXT ( ( #86 ) ) GLOBAL_UNIT_ASSIGNED_CONTEXT ( ( #297, #101, #279 ) ) REPRESENTATION_CONTEXT ( 'NONE', 'WORKASPACE' ) );
#254 = SURFACE_STYLE_FILL_AREA ( #1 ) ;
#255 = ADVANCED_FACE ( 'NONE', ( #280 ), #296, .T. ) ;
#256 = DIRECTION ( 'NONE',  ( -0.000000000000000000, -1.000000000000000000, -0.000000000000000000 ) ) ;
#257 = CARTESIAN_POINT ( 'NONE',  ( 0.000000000000000000, 0.6250000000000000000, 0.000000000000000000 ) ) ;
#258 = CARTESIAN_POINT ( 'NONE',  ( 3.332799517026343682E-35, 0.6250000000000000000, 0.000000000000000000 ) ) ;
#259 = COLOUR_RGB ( '',1.000000000000000000, 0.000000000000000000, 0.000000000000000000 ) ;
#260 = AXIS2_PLACEMENT_3D ( 'NONE', #166, #93, #118 ) ;
#261 = CARTESIAN_POINT ( 'NONE',  ( 0.06250000000000000000, 2.500000000000000000, 7.654042494670963708E-18 ) ) ;
#262 = UNCERTAINTY_MEASURE_WITH_UNIT (LENGTH_MEASURE( 1.000000000000000082E-05 ), #95, 'distance_accuracy_value', 'NONE');
#263 = CARTESIAN_POINT ( 'NONE',  ( 0.000000000000000000, 0.6250000000000000000, -0.06250000000000000000 ) ) ;
#264 = COLOUR_RGB ( '',0.7921568627450980005, 0.8196078431372548767, 0.9333333333333333481 ) ;
#265 = STYLED_ITEM ( 'NONE', ( #162 ), #309 ) ;
#266 = EDGE_CURVE ( 'NONE', #277, #25, #208, .T. ) ;
#267 = CARTESIAN_POINT ( 'NONE',  ( 0.000000000000000000, 0.6250000000000000000, 0.000000000000000000 ) ) ;
#268 = MECHANICAL_DESIGN_GEOMETRIC_PRESENTATION_REPRESENTATION (  '', ( #138 ), #300 ) ;
#269 =( GEOMETRIC_REPRESENTATION_CONTEXT ( 3 ) GLOBAL_UNCERTAINTY_ASSIGNED_CONTEXT ( ( #114 ) ) GLOBAL_UNIT_ASSIGNED_CONTEXT ( ( #220, #62, #15 ) ) REPRESENTATION_CONTEXT ( 'NONE', 'WORKASPACE' ) );
#270 = SURFACE_STYLE_FILL_AREA ( #54 ) ;
#271 =( NAMED_UNIT ( * ) PLANE_ANGLE_UNIT ( ) SI_UNIT ( $, .RADIAN. ) );
#272 = PRODUCT_DEFINITION_CONTEXT ( 'detailed design', #245, 'design' ) ;
#273 = EDGE_CURVE ( 'NONE', #22, #46, #169, .T. ) ;
#274 = ORIENTED_EDGE ( 'NONE', *, *, #242, .F. ) ;
#275 = CIRCLE ( 'NONE', #229, 0.06250000000000001388 ) ;
#276 = AXIS2_PLACEMENT_3D ( 'NONE', #257, #285, #171 ) ;
#277 = VERTEX_POINT ( 'NONE', #261 ) ;
#278 = FILL_AREA_STYLE_COLOUR ( '', #187 ) ;
#279 =( NAMED_UNIT ( * ) SI_UNIT ( $, .STERADIAN. ) SOLID_ANGLE_UNIT ( ) );
#280 = FACE_OUTER_BOUND ( 'NONE', #192, .T. ) ;
#281 = ORIENTED_EDGE ( 'NONE', *, *, #59, .F. ) ;
#282 = SURFACE_SIDE_STYLE ('',( #117 ) ) ;
#283 = COLOUR_RGB ( '',1.000000000000000000, 0.000000000000000000, 0.000000000000000000 ) ;
#284 = ORIENTED_EDGE ( 'NONE', *, *, #273, .F. ) ;
#285 = DIRECTION ( 'NONE',  ( -0.000000000000000000, -1.000000000000000000, -0.000000000000000000 ) ) ;
#286 = DIMENSIONAL_EXPONENTS ( 1.000000000000000000, 0.000000000000000000, 0.000000000000000000, 0.000000000000000000, 0.000000000000000000, 0.000000000000000000, 0.000000000000000000 ) ;
#287 = MANIFOLD_SOLID_BREP ( 'Revolve - Cutting Edge', #29 ) ;
#288 = LINE ( 'NONE', #104, #160 ) ;
#289 = STYLED_ITEM ( 'NONE', ( #81 ), #193 ) ;
#290 = ADVANCED_BREP_SHAPE_REPRESENTATION ( '82526', ( #287, #189, #249 ), #253 ) ;
#291 = ORIENTED_EDGE ( 'NONE', *, *, #217, .T. ) ;
#292 =( NAMED_UNIT ( * ) PLANE_ANGLE_UNIT ( ) SI_UNIT ( $, .RADIAN. ) );
#293 = STYLED_ITEM ( 'NONE', ( #206 ), #287 ) ;
#294 = DIRECTION ( 'NONE',  ( -1.000000000000000000, 0.000000000000000000, 0.000000000000000000 ) ) ;
#295 = DIRECTION ( 'NONE',  ( -1.000000000000000000, 0.000000000000000000, 0.000000000000000000 ) ) ;
#296 = PLANE ( 'NONE',  #200 ) ;
#297 =( CONVERSION_BASED_UNIT ( 'INCH', #190 ) LENGTH_UNIT ( ) NAMED_UNIT ( #103 ) );
#298 = ADVANCED_FACE ( 'NONE', ( #11 ), #251, .F. ) ;
#299 = FILL_AREA_STYLE_COLOUR ( '', #283 ) ;
#300 =( GEOMETRIC_REPRESENTATION_CONTEXT ( 3 ) GLOBAL_UNCERTAINTY_ASSIGNED_CONTEXT ( ( #79 ) ) GLOBAL_UNIT_ASSIGNED_CONTEXT ( ( #13, #180, #109 ) ) REPRESENTATION_CONTEXT ( 'NONE', 'WORKASPACE' ) );
#301 = PLANE ( 'NONE',  #237 ) ;
#302 = FACE_OUTER_BOUND ( 'NONE', #172, .T. ) ;
#303 = PRODUCT ( '82526', '82526', '', ( #121 ) ) ;
#304 = DIRECTION ( 'NONE',  ( 0.000000000000000000, 0.000000000000000000, -1.000000000000000000 ) ) ;
#305 = UNCERTAINTY_MEASURE_WITH_UNIT (LENGTH_MEASURE( 1.000000000000000082E-05 ), #173, 'distance_accuracy_value', 'NONE');
#306 = CARTESIAN_POINT ( 'NONE',  ( 0.000000000000000000, 0.000000000000000000, 0.000000000000000000 ) ) ;
#307 = EDGE_LOOP ( 'NONE', ( #247, #228, #122, #106 ) ) ;
#308 = CARTESIAN_POINT ( 'NONE',  ( 0.000000000000000000, 0.000000000000000000, 0.000000000000000000 ) ) ;
#309 = ADVANCED_FACE ( 'NONE', ( #302 ), #168, .T. ) ;
ENDSEC;
END-ISO-10303-21;
