ISO-10303-21;
HEADER;
FILE_DESCRIPTION (( 'STEP AP214' ),
    '1' );
FILE_NAME ('03780.STEP',
    '2023-06-22T15:45:10',
    ( '' ),
    ( '' ),
    'SwSTEP 2.0',
    'SolidWorks 2023',
    '' );
FILE_SCHEMA (( 'AUTOMOTIVE_DESIGN' ));
ENDSEC;

DATA;
#1 = CIRCLE ( 'NONE', #55, 0.5000000000000000000 ) ;
#2 =( NAMED_UNIT ( * ) SI_UNIT ( $, .STERADIAN. ) SOLID_ANGLE_UNIT ( ) );
#3 = CARTESIAN_POINT ( 'NONE',  ( 0.5000000000000000000, 6.000000000000000888, 0.000000000000000000 ) ) ;
#4 =( NAMED_UNIT ( * ) PLANE_ANGLE_UNIT ( ) SI_UNIT ( $, .RADIAN. ) );
#5 = PRODUCT_DEFINITION ( 'UNKNOWN', '', #165, #147 ) ;
#6 = CARTESIAN_POINT ( 'NONE',  ( 4.957883579047472087E-34, 3.250000000000000000, 0.000000000000000000 ) ) ;
#7 = ORIENTED_EDGE ( 'NONE', *, *, #102, .T. ) ;
#8 = CIRCLE ( 'NONE', #65, 0.5000000000000000000 ) ;
#9 = PRESENTATION_STYLE_ASSIGNMENT (( #161 ) ) ;
#10 =( NAMED_UNIT ( * ) PLANE_ANGLE_UNIT ( ) SI_UNIT ( $, .RADIAN. ) );
#11 = ORIENTED_EDGE ( 'NONE', *, *, #52, .T. ) ;
#12 = SURFACE_SIDE_STYLE ('',( #241 ) ) ;
#13 = CLOSED_SHELL ( 'NONE', ( #48, #59, #118, #200 ) ) ;
#14 = CIRCLE ( 'NONE', #105, 0.5000000000000001110 ) ;
#15 = SURFACE_STYLE_FILL_AREA ( #302 ) ;
#16 = CARTESIAN_POINT ( 'NONE',  ( -0.5000000000000002220, 6.000000000000000888, 0.000000000000000000 ) ) ;
#17 = CARTESIAN_POINT ( 'NONE',  ( 6.123233995736766036E-17, 3.250000000000000000, 0.5000000000000000000 ) ) ;
#18 = CARTESIAN_POINT ( 'NONE',  ( 0.000000000000000000, 3.250000000000000000, 0.000000000000000000 ) ) ;
#19 = UNCERTAINTY_MEASURE_WITH_UNIT (LENGTH_MEASURE( 1.000000000000000082E-05 ), #229, 'distance_accuracy_value', 'NONE');
#20 = MECHANICAL_DESIGN_GEOMETRIC_PRESENTATION_REPRESENTATION (  '', ( #283 ), #286 ) ;
#21 = FILL_AREA_STYLE ('',( #129 ) ) ;
#22 = ADVANCED_FACE ( 'NONE', ( #218 ), #139, .T. ) ;
#23 = AXIS2_PLACEMENT_3D ( 'NONE', #39, #123, #43 ) ;
#24 = FACE_OUTER_BOUND ( 'NONE', #116, .T. ) ;
#25 = CARTESIAN_POINT ( 'NONE',  ( 0.000000000000000000, 3.250000000000000000, 0.000000000000000000 ) ) ;
#26 = LINE ( 'NONE', #159, #262 ) ;
#27 = AXIS2_PLACEMENT_3D ( 'NONE', #248, #298, #275 ) ;
#28 =( LENGTH_UNIT ( ) NAMED_UNIT ( * ) SI_UNIT ( $, .METRE. ) );
#29 = VERTEX_POINT ( 'NONE', #16 ) ;
#30 = EDGE_LOOP ( 'NONE', ( #7, #240, #94, #274 ) ) ;
#31 = FILL_AREA_STYLE_COLOUR ( '', #279 ) ;
#32 = CIRCLE ( 'NONE', #201, 0.5000000000000000000 ) ;
#33 = VERTEX_POINT ( 'NONE', #197 ) ;
#34 = EDGE_LOOP ( 'NONE', ( #251, #56, #92, #243 ) ) ;
#35 = SURFACE_SIDE_STYLE ('',( #68 ) ) ;
#36 =( LENGTH_UNIT ( ) NAMED_UNIT ( * ) SI_UNIT ( $, .METRE. ) );
#37 = COLOUR_RGB ( '',1.000000000000000000, 0.000000000000000000, 0.000000000000000000 ) ;
#38 = PRODUCT_CONTEXT ( 'NONE', #75, 'mechanical' ) ;
#39 = CARTESIAN_POINT ( 'NONE',  ( 0.000000000000000000, 0.000000000000000000, 0.000000000000000000 ) ) ;
#40 = FILL_AREA_STYLE_COLOUR ( '', #160 ) ;
#41 = DIRECTION ( 'NONE',  ( -0.000000000000000000, -1.000000000000000000, -0.000000000000000000 ) ) ;
#42 = EDGE_CURVE ( 'NONE', #166, #215, #145, .T. ) ;
#43 = DIRECTION ( 'NONE',  ( 0.000000000000000000, 0.000000000000000000, -1.000000000000000000 ) ) ;
#44 = STYLED_ITEM ( 'NONE', ( #172 ), #196 ) ;
#45 = DIRECTION ( 'NONE',  ( 0.000000000000000000, 1.000000000000000000, 0.000000000000000000 ) ) ;
#46 =( GEOMETRIC_REPRESENTATION_CONTEXT ( 3 ) GLOBAL_UNCERTAINTY_ASSIGNED_CONTEXT ( ( #19 ) ) GLOBAL_UNIT_ASSIGNED_CONTEXT ( ( #229, #103, #81 ) ) REPRESENTATION_CONTEXT ( 'NONE', 'WORKASPACE' ) );
#47 = FILL_AREA_STYLE_COLOUR ( '', #37 ) ;
#48 = ADVANCED_FACE ( 'NONE', ( #153 ), #237, .T. ) ;
#49 = DIRECTION ( 'NONE',  ( -0.000000000000000000, -1.000000000000000000, -0.000000000000000000 ) ) ;
#50 = DIRECTION ( 'NONE',  ( -4.453261087808560759E-17, 1.000000000000000000, -0.000000000000000000 ) ) ;
#51 = DIRECTION ( 'NONE',  ( -1.000000000000000000, 0.000000000000000000, 0.000000000000000000 ) ) ;
#52 = EDGE_CURVE ( 'NONE', #33, #72, #1, .T. ) ;
#53 = PLANE ( 'NONE',  #85 ) ;
#54 = ORIENTED_EDGE ( 'NONE', *, *, #264, .F. ) ;
#55 = AXIS2_PLACEMENT_3D ( 'NONE', #250, #290, #164 ) ;
#56 = ORIENTED_EDGE ( 'NONE', *, *, #42, .T. ) ;
#57 = SURFACE_STYLE_USAGE ( .BOTH. , #299 ) ;
#58 = STYLED_ITEM ( 'NONE', ( #223 ), #90 ) ;
#59 = ADVANCED_FACE ( 'NONE', ( #70 ), #53, .F. ) ;
#60 = LINE ( 'NONE', #226, #98 ) ;
#61 = PRODUCT ( '03780', '03780', '', ( #38 ) ) ;
#62 = DIRECTION ( 'NONE',  ( -4.453261087808560759E-17, 1.000000000000000000, -0.000000000000000000 ) ) ;
#63 = DIRECTION ( 'NONE',  ( -1.000000000000000000, 0.000000000000000000, 0.000000000000000000 ) ) ;
#64 = LENGTH_MEASURE_WITH_UNIT ( LENGTH_MEASURE( 0.02539999999999999897 ), #232 );
#65 = AXIS2_PLACEMENT_3D ( 'NONE', #199, #62, #124 ) ;
#66 = DIRECTION ( 'NONE',  ( 0.000000000000000000, -1.000000000000000000, -0.000000000000000000 ) ) ;
#67 = PRESENTATION_LAYER_ASSIGNMENT (  '', '', ( #300 ) ) ;
#68 = SURFACE_STYLE_FILL_AREA ( #168 ) ;
#69 = APPLICATION_CONTEXT ( 'automotive_design' ) ;
#70 = FACE_OUTER_BOUND ( 'NONE', #143, .T. ) ;
#71 = VECTOR ( 'NONE', #95, 39.37007874015748143 ) ;
#72 = VERTEX_POINT ( 'NONE', #186 ) ;
#73 = ORIENTED_EDGE ( 'NONE', *, *, #96, .T. ) ;
#74 =( NAMED_UNIT ( * ) PLANE_ANGLE_UNIT ( ) SI_UNIT ( $, .RADIAN. ) );
#75 = APPLICATION_CONTEXT ( 'automotive_design' ) ;
#76 = AXIS2_PLACEMENT_3D ( 'NONE', #149, #174, #63 ) ;
#77 = DIMENSIONAL_EXPONENTS ( 1.000000000000000000, 0.000000000000000000, 0.000000000000000000, 0.000000000000000000, 0.000000000000000000, 0.000000000000000000, 0.000000000000000000 ) ;
#78 = DIRECTION ( 'NONE',  ( 0.000000000000000000, 0.000000000000000000, -1.000000000000000000 ) ) ;
#79 = SHAPE_DEFINITION_REPRESENTATION ( #154, #278 ) ;
#80 = AXIS2_PLACEMENT_3D ( 'NONE', #221, #140, #244 ) ;
#81 =( NAMED_UNIT ( * ) SI_UNIT ( $, .STERADIAN. ) SOLID_ANGLE_UNIT ( ) );
#82 = DIRECTION ( 'NONE',  ( -4.453261087808560759E-17, 1.000000000000000000, -0.000000000000000000 ) ) ;
#83 = FACE_OUTER_BOUND ( 'NONE', #294, .T. ) ;
#84 = STYLED_ITEM ( 'NONE', ( #263 ), #242 ) ;
#85 = AXIS2_PLACEMENT_3D ( 'NONE', #6, #87, #181 ) ;
#86 = SURFACE_STYLE_FILL_AREA ( #239 ) ;
#87 = DIRECTION ( 'NONE',  ( -4.453261087808560759E-17, 1.000000000000000000, 0.000000000000000000 ) ) ;
#88 = ORIENTED_EDGE ( 'NONE', *, *, #206, .T. ) ;
#89 = CARTESIAN_POINT ( 'NONE',  ( -1.224646799147354440E-16, 6.000000000000000888, 0.000000000000000000 ) ) ;
#90 = MANIFOLD_SOLID_BREP ( 'Revolve - Cutting Edge', #245 ) ;
#91 = CIRCLE ( 'NONE', #80, 0.5000000000000000000 ) ;
#92 = ORIENTED_EDGE ( 'NONE', *, *, #264, .T. ) ;
#93 = LENGTH_MEASURE_WITH_UNIT ( LENGTH_MEASURE( 0.02539999999999999897 ), #219 );
#94 = ORIENTED_EDGE ( 'NONE', *, *, #206, .F. ) ;
#95 = DIRECTION ( 'NONE',  ( -0.000000000000000000, -1.000000000000000000, -0.000000000000000000 ) ) ;
#96 = EDGE_CURVE ( 'NONE', #166, #120, #225, .T. ) ;
#97 = ORIENTED_EDGE ( 'NONE', *, *, #42, .F. ) ;
#98 = VECTOR ( 'NONE', #151, 39.37007874015748143 ) ;
#99 = ORIENTED_EDGE ( 'NONE', *, *, #233, .T. ) ;
#100 = PRESENTATION_STYLE_ASSIGNMENT (( #217 ) ) ;
#101 = FILL_AREA_STYLE ('',( #31 ) ) ;
#102 = EDGE_CURVE ( 'NONE', #72, #33, #8, .T. ) ;
#103 =( NAMED_UNIT ( * ) PLANE_ANGLE_UNIT ( ) SI_UNIT ( $, .RADIAN. ) );
#104 = COLOUR_RGB ( '',1.000000000000000000, 0.000000000000000000, 0.000000000000000000 ) ;
#105 = AXIS2_PLACEMENT_3D ( 'NONE', #89, #134, #110 ) ;
#106 = SURFACE_STYLE_FILL_AREA ( #21 ) ;
#107 = PRESENTATION_LAYER_ASSIGNMENT (  '', '', ( #283 ) ) ;
#108 = CIRCLE ( 'NONE', #23, 0.5000000000000000000 ) ;
#109 = CYLINDRICAL_SURFACE ( 'NONE', #27, 0.5000000000000000000 ) ;
#110 = DIRECTION ( 'NONE',  ( -1.000000000000000000, 0.000000000000000000, 0.000000000000000000 ) ) ;
#111 = PRESENTATION_LAYER_ASSIGNMENT (  '', '', ( #268 ) ) ;
#112 = EDGE_LOOP ( 'NONE', ( #88, #99 ) ) ;
#113 =( NAMED_UNIT ( * ) PLANE_ANGLE_UNIT ( ) SI_UNIT ( $, .RADIAN. ) );
#114 = ORIENTED_EDGE ( 'NONE', *, *, #170, .F. ) ;
#115 =( GEOMETRIC_REPRESENTATION_CONTEXT ( 3 ) GLOBAL_UNCERTAINTY_ASSIGNED_CONTEXT ( ( #281 ) ) GLOBAL_UNIT_ASSIGNED_CONTEXT ( ( #207, #282, #2 ) ) REPRESENTATION_CONTEXT ( 'NONE', 'WORKASPACE' ) );
#116 = EDGE_LOOP ( 'NONE', ( #190, #73, #187, #54 ) ) ;
#117 =( NAMED_UNIT ( * ) PLANE_ANGLE_UNIT ( ) SI_UNIT ( $, .RADIAN. ) );
#118 = ADVANCED_FACE ( 'NONE', ( #202 ), #257, .T. ) ;
#119 = EDGE_LOOP ( 'NONE', ( #114, #11, #238, #247 ) ) ;
#120 = VERTEX_POINT ( 'NONE', #301 ) ;
#121 = AXIS2_PLACEMENT_3D ( 'NONE', #295, #293, #214 ) ;
#122 = LINE ( 'NONE', #195, #71 ) ;
#123 = DIRECTION ( 'NONE',  ( -0.000000000000000000, -1.000000000000000000, -0.000000000000000000 ) ) ;
#124 = DIRECTION ( 'NONE',  ( -1.000000000000000000, 0.000000000000000000, 0.000000000000000000 ) ) ;
#125 = UNCERTAINTY_MEASURE_WITH_UNIT (LENGTH_MEASURE( 1.000000000000000082E-05 ), #213, 'distance_accuracy_value', 'NONE');
#126 = AXIS2_PLACEMENT_3D ( 'NONE', #303, #227, #222 ) ;
#127 = CARTESIAN_POINT ( 'NONE',  ( 0.000000000000000000, 0.000000000000000000, 0.000000000000000000 ) ) ;
#128 = AXIS2_PLACEMENT_3D ( 'NONE', #235, #45, #231 ) ;
#129 = FILL_AREA_STYLE_COLOUR ( '', #220 ) ;
#130 = CARTESIAN_POINT ( 'NONE',  ( 6.123233995736766036E-17, 0.000000000000000000, 0.5000000000000000000 ) ) ;
#131 =( LENGTH_UNIT ( ) NAMED_UNIT ( * ) SI_UNIT ( $, .METRE. ) );
#132 = DIRECTION ( 'NONE',  ( 0.000000000000000000, 0.000000000000000000, -1.000000000000000000 ) ) ;
#133 = CARTESIAN_POINT ( 'NONE',  ( -1.224646799147354440E-16, 6.000000000000000888, 0.000000000000000000 ) ) ;
#134 = DIRECTION ( 'NONE',  ( -4.453261087808560759E-17, 1.000000000000000000, -0.000000000000000000 ) ) ;
#135 = AXIS2_PLACEMENT_3D ( 'NONE', #136, #66, #266 ) ;
#136 = CARTESIAN_POINT ( 'NONE',  ( 0.000000000000000000, 0.000000000000000000, 0.000000000000000000 ) ) ;
#137 = VERTEX_POINT ( 'NONE', #280 ) ;
#138 =( CONVERSION_BASED_UNIT ( 'INCH', #93 ) LENGTH_UNIT ( ) NAMED_UNIT ( #77 ) );
#139 = CYLINDRICAL_SURFACE ( 'NONE', #126, 0.5000000000000000000 ) ;
#140 = DIRECTION ( 'NONE',  ( -0.000000000000000000, -1.000000000000000000, -0.000000000000000000 ) ) ;
#141 = PRESENTATION_LAYER_ASSIGNMENT (  '', '', ( #58 ) ) ;
#142 = EDGE_LOOP ( 'NONE', ( #296, #182 ) ) ;
#143 = EDGE_LOOP ( 'NONE', ( #162, #270 ) ) ;
#144 =( CONVERSION_BASED_UNIT ( 'INCH', #254 ) LENGTH_UNIT ( ) NAMED_UNIT ( #253 ) );
#145 = CIRCLE ( 'NONE', #183, 0.5000000000000000000 ) ;
#146 = VECTOR ( 'NONE', #41, 39.37007874015748143 ) ;
#147 = PRODUCT_DEFINITION_CONTEXT ( 'detailed design', #69, 'design' ) ;
#148 = DIRECTION ( 'NONE',  ( 0.000000000000000000, 0.000000000000000000, 1.000000000000000000 ) ) ;
#149 = CARTESIAN_POINT ( 'NONE',  ( -1.224646799147354440E-16, 6.000000000000000888, 0.000000000000000000 ) ) ;
#150 = PLANE ( 'NONE',  #135 ) ;
#151 = DIRECTION ( 'NONE',  ( -4.453261087808560759E-17, 1.000000000000000000, -0.000000000000000000 ) ) ;
#152 = EDGE_CURVE ( 'NONE', #120, #137, #108, .T. ) ;
#153 = FACE_OUTER_BOUND ( 'NONE', #30, .T. ) ;
#154 = PRODUCT_DEFINITION_SHAPE ( 'NONE', 'NONE',  #5 ) ;
#155 = AXIS2_PLACEMENT_3D ( 'NONE', #127, #148, #304 ) ;
#156 =( LENGTH_UNIT ( ) NAMED_UNIT ( * ) SI_UNIT ( $, .METRE. ) );
#157 = DIMENSIONAL_EXPONENTS ( 1.000000000000000000, 0.000000000000000000, 0.000000000000000000, 0.000000000000000000, 0.000000000000000000, 0.000000000000000000, 0.000000000000000000 ) ;
#158 = CARTESIAN_POINT ( 'NONE',  ( 0.000000000000000000, 3.250000000000000000, -0.5000000000000000000 ) ) ;
#159 = CARTESIAN_POINT ( 'NONE',  ( -0.5000000000000002220, 6.000000000000000888, 0.000000000000000000 ) ) ;
#160 = COLOUR_RGB ( '',0.7921568627450980005, 0.8196078431372548767, 0.9333333333333333481 ) ;
#161 = SURFACE_STYLE_USAGE ( .BOTH. , #276 ) ;
#162 = ORIENTED_EDGE ( 'NONE', *, *, #102, .F. ) ;
#163 =( LENGTH_UNIT ( ) NAMED_UNIT ( * ) SI_UNIT ( $, .METRE. ) );
#164 = DIRECTION ( 'NONE',  ( -1.000000000000000000, 0.000000000000000000, 0.000000000000000000 ) ) ;
#165 = PRODUCT_DEFINITION_FORMATION_WITH_SPECIFIED_SOURCE ( 'ANY', '', #61, .NOT_KNOWN. ) ;
#166 = VERTEX_POINT ( 'NONE', #17 ) ;
#167 = ORIENTED_EDGE ( 'NONE', *, *, #185, .F. ) ;
#168 = FILL_AREA_STYLE ('',( #309 ) ) ;
#169 = MECHANICAL_DESIGN_GEOMETRIC_PRESENTATION_REPRESENTATION (  '', ( #84 ), #115 ) ;
#170 = EDGE_CURVE ( 'NONE', #33, #291, #60, .T. ) ;
#171 = FACE_OUTER_BOUND ( 'NONE', #142, .T. ) ;
#172 = PRESENTATION_STYLE_ASSIGNMENT (( #305 ) ) ;
#173 = MECHANICAL_DESIGN_GEOMETRIC_PRESENTATION_REPRESENTATION (  '', ( #300 ), #210 ) ;
#174 = DIRECTION ( 'NONE',  ( -4.453261087808560759E-17, 1.000000000000000000, -0.000000000000000000 ) ) ;
#175 = DIRECTION ( 'NONE',  ( 1.000000000000000000, 4.453261087808560759E-17, 0.000000000000000000 ) ) ;
#176 = SURFACE_STYLE_USAGE ( .BOTH. , #180 ) ;
#177 = AXIS2_PLACEMENT_3D ( 'NONE', #3, #285, #175 ) ;
#178 =( GEOMETRIC_REPRESENTATION_CONTEXT ( 3 ) GLOBAL_UNCERTAINTY_ASSIGNED_CONTEXT ( ( #261 ) ) GLOBAL_UNIT_ASSIGNED_CONTEXT ( ( #138, #10, #228 ) ) REPRESENTATION_CONTEXT ( 'NONE', 'WORKASPACE' ) );
#179 = PLANE ( 'NONE',  #128 ) ;
#180 = SURFACE_SIDE_STYLE ('',( #86 ) ) ;
#181 = DIRECTION ( 'NONE',  ( -1.000000000000000000, -4.453261087808560759E-17, 0.000000000000000000 ) ) ;
#182 = ORIENTED_EDGE ( 'NONE', *, *, #152, .T. ) ;
#183 = AXIS2_PLACEMENT_3D ( 'NONE', #25, #49, #132 ) ;
#184 = PRESENTATION_LAYER_ASSIGNMENT (  '', '', ( #44 ) ) ;
#185 = EDGE_CURVE ( 'NONE', #215, #166, #32, .T. ) ;
#186 = CARTESIAN_POINT ( 'NONE',  ( -0.5000000000000000000, 3.250000000000000000, 0.000000000000000000 ) ) ;
#187 = ORIENTED_EDGE ( 'NONE', *, *, #272, .F. ) ;
#188 =( NAMED_UNIT ( * ) SI_UNIT ( $, .STERADIAN. ) SOLID_ANGLE_UNIT ( ) );
#189 = LENGTH_MEASURE_WITH_UNIT ( LENGTH_MEASURE( 0.02539999999999999897 ), #163 );
#190 = ORIENTED_EDGE ( 'NONE', *, *, #185, .T. ) ;
#191 =( NAMED_UNIT ( * ) SI_UNIT ( $, .STERADIAN. ) SOLID_ANGLE_UNIT ( ) );
#192 = DIMENSIONAL_EXPONENTS ( 1.000000000000000000, 0.000000000000000000, 0.000000000000000000, 0.000000000000000000, 0.000000000000000000, 0.000000000000000000, 0.000000000000000000 ) ;
#193 = MECHANICAL_DESIGN_GEOMETRIC_PRESENTATION_REPRESENTATION (  '', ( #268 ), #205 ) ;
#194 = FILL_AREA_STYLE_COLOUR ( '', #104 ) ;
#195 = CARTESIAN_POINT ( 'NONE',  ( 0.000000000000000000, 0.000000000000000000, -0.5000000000000000000 ) ) ;
#196 = ADVANCED_FACE ( 'NONE', ( #171 ), #150, .T. ) ;
#197 = CARTESIAN_POINT ( 'NONE',  ( 0.5000000000000000000, 3.250000000000000000, 6.123233995736767268E-17 ) ) ;
#198 =( CONVERSION_BASED_UNIT ( 'INCH', #189 ) LENGTH_UNIT ( ) NAMED_UNIT ( #192 ) );
#199 = CARTESIAN_POINT ( 'NONE',  ( 0.000000000000000000, 3.250000000000000000, 0.000000000000000000 ) ) ;
#200 = ADVANCED_FACE ( 'NONE', ( #288 ), #208, .F. ) ;
#201 = AXIS2_PLACEMENT_3D ( 'NONE', #18, #258, #78 ) ;
#202 = FACE_OUTER_BOUND ( 'NONE', #119, .T. ) ;
#203 = SURFACE_SIDE_STYLE ('',( #106 ) ) ;
#204 = COLOUR_RGB ( '',1.000000000000000000, 0.000000000000000000, 0.000000000000000000 ) ;
#205 =( GEOMETRIC_REPRESENTATION_CONTEXT ( 3 ) GLOBAL_UNCERTAINTY_ASSIGNED_CONTEXT ( ( #236 ) ) GLOBAL_UNIT_ASSIGNED_CONTEXT ( ( #198, #74, #188 ) ) REPRESENTATION_CONTEXT ( 'NONE', 'WORKASPACE' ) );
#206 = EDGE_CURVE ( 'NONE', #29, #291, #14, .T. ) ;
#207 =( CONVERSION_BASED_UNIT ( 'INCH', #265 ) LENGTH_UNIT ( ) NAMED_UNIT ( #271 ) );
#208 = PLANE ( 'NONE',  #177 ) ;
#209 = EDGE_CURVE ( 'NONE', #72, #29, #26, .T. ) ;
#210 =( GEOMETRIC_REPRESENTATION_CONTEXT ( 3 ) GLOBAL_UNCERTAINTY_ASSIGNED_CONTEXT ( ( #255 ) ) GLOBAL_UNIT_ASSIGNED_CONTEXT ( ( #144, #117, #191 ) ) REPRESENTATION_CONTEXT ( 'NONE', 'WORKASPACE' ) );
#211 = DIMENSIONAL_EXPONENTS ( 1.000000000000000000, 0.000000000000000000, 0.000000000000000000, 0.000000000000000000, 0.000000000000000000, 0.000000000000000000, 0.000000000000000000 ) ;
#212 =( CONVERSION_BASED_UNIT ( 'INCH', #64 ) LENGTH_UNIT ( ) NAMED_UNIT ( #234 ) );
#213 =( CONVERSION_BASED_UNIT ( 'INCH', #287 ) LENGTH_UNIT ( ) NAMED_UNIT ( #157 ) );
#214 = DIRECTION ( 'NONE',  ( -1.000000000000000000, 0.000000000000000000, 0.000000000000000000 ) ) ;
#215 = VERTEX_POINT ( 'NONE', #158 ) ;
#216 = SURFACE_STYLE_FILL_AREA ( #297 ) ;
#217 = SURFACE_STYLE_USAGE ( .BOTH. , #12 ) ;
#218 = FACE_OUTER_BOUND ( 'NONE', #34, .T. ) ;
#219 =( LENGTH_UNIT ( ) NAMED_UNIT ( * ) SI_UNIT ( $, .METRE. ) );
#220 = COLOUR_RGB ( '',1.000000000000000000, 0.000000000000000000, 0.000000000000000000 ) ;
#221 = CARTESIAN_POINT ( 'NONE',  ( 0.000000000000000000, 0.000000000000000000, 0.000000000000000000 ) ) ;
#222 = DIRECTION ( 'NONE',  ( 0.000000000000000000, 0.000000000000000000, -1.000000000000000000 ) ) ;
#223 = PRESENTATION_STYLE_ASSIGNMENT (( #57 ) ) ;
#224 = PRODUCT_RELATED_PRODUCT_CATEGORY ( 'part', '', ( #61 ) ) ;
#225 = LINE ( 'NONE', #130, #146 ) ;
#226 = CARTESIAN_POINT ( 'NONE',  ( 0.4999999999999999445, 6.000000000000000888, 6.123233995736767268E-17 ) ) ;
#227 = DIRECTION ( 'NONE',  ( -0.000000000000000000, -1.000000000000000000, -0.000000000000000000 ) ) ;
#228 =( NAMED_UNIT ( * ) SI_UNIT ( $, .STERADIAN. ) SOLID_ANGLE_UNIT ( ) );
#229 =( CONVERSION_BASED_UNIT ( 'INCH', #307 ) LENGTH_UNIT ( ) NAMED_UNIT ( #211 ) );
#230 = MECHANICAL_DESIGN_GEOMETRIC_PRESENTATION_REPRESENTATION (  '', ( #44 ), #246 ) ;
#231 = DIRECTION ( 'NONE',  ( 0.000000000000000000, -0.000000000000000000, 1.000000000000000000 ) ) ;
#232 =( LENGTH_UNIT ( ) NAMED_UNIT ( * ) SI_UNIT ( $, .METRE. ) );
#233 = EDGE_CURVE ( 'NONE', #291, #29, #306, .T. ) ;
#234 = DIMENSIONAL_EXPONENTS ( 1.000000000000000000, 0.000000000000000000, 0.000000000000000000, 0.000000000000000000, 0.000000000000000000, 0.000000000000000000, 0.000000000000000000 ) ;
#235 = CARTESIAN_POINT ( 'NONE',  ( 0.000000000000000000, 3.250000000000000000, 0.000000000000000000 ) ) ;
#236 = UNCERTAINTY_MEASURE_WITH_UNIT (LENGTH_MEASURE( 1.000000000000000082E-05 ), #198, 'distance_accuracy_value', 'NONE');
#237 = CYLINDRICAL_SURFACE ( 'NONE', #121, 0.5000000000000001110 ) ;
#238 = ORIENTED_EDGE ( 'NONE', *, *, #209, .T. ) ;
#239 = FILL_AREA_STYLE ('',( #47 ) ) ;
#240 = ORIENTED_EDGE ( 'NONE', *, *, #170, .T. ) ;
#241 = SURFACE_STYLE_FILL_AREA ( #101 ) ;
#242 = ADVANCED_FACE ( 'NONE', ( #83 ), #179, .T. ) ;
#243 = ORIENTED_EDGE ( 'NONE', *, *, #152, .F. ) ;
#244 = DIRECTION ( 'NONE',  ( 0.000000000000000000, 0.000000000000000000, -1.000000000000000000 ) ) ;
#245 = CLOSED_SHELL ( 'NONE', ( #249, #242, #22, #196 ) ) ;
#246 =( GEOMETRIC_REPRESENTATION_CONTEXT ( 3 ) GLOBAL_UNCERTAINTY_ASSIGNED_CONTEXT ( ( #259 ) ) GLOBAL_UNIT_ASSIGNED_CONTEXT ( ( #212, #113, #267 ) ) REPRESENTATION_CONTEXT ( 'NONE', 'WORKASPACE' ) );
#247 = ORIENTED_EDGE ( 'NONE', *, *, #233, .F. ) ;
#248 = CARTESIAN_POINT ( 'NONE',  ( 0.000000000000000000, 0.000000000000000000, 0.000000000000000000 ) ) ;
#249 = ADVANCED_FACE ( 'NONE', ( #24 ), #109, .T. ) ;
#250 = CARTESIAN_POINT ( 'NONE',  ( 0.000000000000000000, 3.250000000000000000, 0.000000000000000000 ) ) ;
#251 = ORIENTED_EDGE ( 'NONE', *, *, #96, .F. ) ;
#252 = CARTESIAN_POINT ( 'NONE',  ( 0.5000000000000000000, 6.000000000000000888, 6.123233995736767268E-17 ) ) ;
#253 = DIMENSIONAL_EXPONENTS ( 1.000000000000000000, 0.000000000000000000, 0.000000000000000000, 0.000000000000000000, 0.000000000000000000, 0.000000000000000000, 0.000000000000000000 ) ;
#254 = LENGTH_MEASURE_WITH_UNIT ( LENGTH_MEASURE( 0.02539999999999999897 ), #36 );
#255 = UNCERTAINTY_MEASURE_WITH_UNIT (LENGTH_MEASURE( 1.000000000000000082E-05 ), #144, 'distance_accuracy_value', 'NONE');
#256 = APPLICATION_PROTOCOL_DEFINITION ( 'draft international standard', 'automotive_design', 1998, #75 ) ;
#257 = CYLINDRICAL_SURFACE ( 'NONE', #76, 0.5000000000000001110 ) ;
#258 = DIRECTION ( 'NONE',  ( -0.000000000000000000, -1.000000000000000000, -0.000000000000000000 ) ) ;
#259 = UNCERTAINTY_MEASURE_WITH_UNIT (LENGTH_MEASURE( 1.000000000000000082E-05 ), #212, 'distance_accuracy_value', 'NONE');
#260 = APPLICATION_PROTOCOL_DEFINITION ( 'draft international standard', 'automotive_design', 1998, #69 ) ;
#261 = UNCERTAINTY_MEASURE_WITH_UNIT (LENGTH_MEASURE( 1.000000000000000082E-05 ), #138, 'distance_accuracy_value', 'NONE');
#262 = VECTOR ( 'NONE', #50, 39.37007874015748143 ) ;
#263 = PRESENTATION_STYLE_ASSIGNMENT (( #176 ) ) ;
#264 = EDGE_CURVE ( 'NONE', #215, #137, #122, .T. ) ;
#265 = LENGTH_MEASURE_WITH_UNIT ( LENGTH_MEASURE( 0.02539999999999999897 ), #156 );
#266 = DIRECTION ( 'NONE',  ( 0.000000000000000000, 0.000000000000000000, -1.000000000000000000 ) ) ;
#267 =( NAMED_UNIT ( * ) SI_UNIT ( $, .STERADIAN. ) SOLID_ANGLE_UNIT ( ) );
#268 = STYLED_ITEM ( 'NONE', ( #100 ), #308 ) ;
#269 =( NAMED_UNIT ( * ) SI_UNIT ( $, .STERADIAN. ) SOLID_ANGLE_UNIT ( ) );
#270 = ORIENTED_EDGE ( 'NONE', *, *, #52, .F. ) ;
#271 = DIMENSIONAL_EXPONENTS ( 1.000000000000000000, 0.000000000000000000, 0.000000000000000000, 0.000000000000000000, 0.000000000000000000, 0.000000000000000000, 0.000000000000000000 ) ;
#272 = EDGE_CURVE ( 'NONE', #137, #120, #91, .T. ) ;
#273 = AXIS2_PLACEMENT_3D ( 'NONE', #133, #82, #51 ) ;
#274 = ORIENTED_EDGE ( 'NONE', *, *, #209, .F. ) ;
#275 = DIRECTION ( 'NONE',  ( 0.000000000000000000, 0.000000000000000000, -1.000000000000000000 ) ) ;
#276 = SURFACE_SIDE_STYLE ('',( #216 ) ) ;
#277 = SURFACE_STYLE_USAGE ( .BOTH. , #35 ) ;
#278 = ADVANCED_BREP_SHAPE_REPRESENTATION ( '03780', ( #90, #308, #155 ), #178 ) ;
#279 = COLOUR_RGB ( '',0.7921568627450980005, 0.8196078431372548767, 0.9333333333333333481 ) ;
#280 = CARTESIAN_POINT ( 'NONE',  ( 0.000000000000000000, 0.000000000000000000, -0.5000000000000000000 ) ) ;
#281 = UNCERTAINTY_MEASURE_WITH_UNIT (LENGTH_MEASURE( 1.000000000000000082E-05 ), #207, 'distance_accuracy_value', 'NONE');
#282 =( NAMED_UNIT ( * ) PLANE_ANGLE_UNIT ( ) SI_UNIT ( $, .RADIAN. ) );
#283 = STYLED_ITEM ( 'NONE', ( #9 ), #22 ) ;
#284 = MECHANICAL_DESIGN_GEOMETRIC_PRESENTATION_REPRESENTATION (  '', ( #58 ), #46 ) ;
#285 = DIRECTION ( 'NONE',  ( 4.453261087808560759E-17, -1.000000000000000000, 0.000000000000000000 ) ) ;
#286 =( GEOMETRIC_REPRESENTATION_CONTEXT ( 3 ) GLOBAL_UNCERTAINTY_ASSIGNED_CONTEXT ( ( #125 ) ) GLOBAL_UNIT_ASSIGNED_CONTEXT ( ( #213, #4, #269 ) ) REPRESENTATION_CONTEXT ( 'NONE', 'WORKASPACE' ) );
#287 = LENGTH_MEASURE_WITH_UNIT ( LENGTH_MEASURE( 0.02539999999999999897 ), #28 );
#288 = FACE_OUTER_BOUND ( 'NONE', #112, .T. ) ;
#289 = PRESENTATION_LAYER_ASSIGNMENT (  '', '', ( #84 ) ) ;
#290 = DIRECTION ( 'NONE',  ( -4.453261087808560759E-17, 1.000000000000000000, -0.000000000000000000 ) ) ;
#291 = VERTEX_POINT ( 'NONE', #252 ) ;
#292 = PRESENTATION_STYLE_ASSIGNMENT (( #277 ) ) ;
#293 = DIRECTION ( 'NONE',  ( -4.453261087808560759E-17, 1.000000000000000000, -0.000000000000000000 ) ) ;
#294 = EDGE_LOOP ( 'NONE', ( #167, #97 ) ) ;
#295 = CARTESIAN_POINT ( 'NONE',  ( -1.224646799147354440E-16, 6.000000000000000888, 0.000000000000000000 ) ) ;
#296 = ORIENTED_EDGE ( 'NONE', *, *, #272, .T. ) ;
#297 = FILL_AREA_STYLE ('',( #194 ) ) ;
#298 = DIRECTION ( 'NONE',  ( -0.000000000000000000, -1.000000000000000000, -0.000000000000000000 ) ) ;
#299 = SURFACE_SIDE_STYLE ('',( #15 ) ) ;
#300 = STYLED_ITEM ( 'NONE', ( #292 ), #249 ) ;
#301 = CARTESIAN_POINT ( 'NONE',  ( 6.123233995736766036E-17, 0.000000000000000000, 0.5000000000000000000 ) ) ;
#302 = FILL_AREA_STYLE ('',( #40 ) ) ;
#303 = CARTESIAN_POINT ( 'NONE',  ( 0.000000000000000000, 0.000000000000000000, 0.000000000000000000 ) ) ;
#304 = DIRECTION ( 'NONE',  ( 1.000000000000000000, 0.000000000000000000, 0.000000000000000000 ) ) ;
#305 = SURFACE_STYLE_USAGE ( .BOTH. , #203 ) ;
#306 = CIRCLE ( 'NONE', #273, 0.5000000000000001110 ) ;
#307 = LENGTH_MEASURE_WITH_UNIT ( LENGTH_MEASURE( 0.02539999999999999897 ), #131 );
#308 = MANIFOLD_SOLID_BREP ( 'Revolve - Tool Body (Straight Shanked)', #13 ) ;
#309 = FILL_AREA_STYLE_COLOUR ( '', #204 ) ;
ENDSEC;
END-ISO-10303-21;
