ISO-10303-21;
HEADER;
FILE_DESCRIPTION (( 'STEP AP214' ),
    '1' );
FILE_NAME ('59519.STEP',
    '2023-07-24T15:48:21',
    ( '' ),
    ( '' ),
    'SwSTEP 2.0',
    'SolidWorks 2023',
    '' );
FILE_SCHEMA (( 'AUTOMOTIVE_DESIGN' ));
ENDSEC;

DATA;
#1 = DIRECTION ( 'NONE',  ( 2.881521880346712812E-17, 1.000000000000000000, -0.000000000000000000 ) ) ;
#2 = CIRCLE ( 'NONE', #261, 4.000000000000000000 ) ;
#3 = ORIENTED_EDGE ( 'NONE', *, *, #253, .T. ) ;
#4 = ORIENTED_EDGE ( 'NONE', *, *, #278, .T. ) ;
#5 = FILL_AREA_STYLE_COLOUR ( '', #248 ) ;
#6 = PLANE ( 'NONE',  #242 ) ;
#7 = COLOUR_RGB ( '',1.000000000000000000, 0.000000000000000000, 0.000000000000000000 ) ;
#8 = VECTOR ( 'NONE', #47, 1000.000000000000000 ) ;
#9 = DIRECTION ( 'NONE',  ( -0.000000000000000000, -1.000000000000000000, -0.000000000000000000 ) ) ;
#10 = ADVANCED_FACE ( 'NONE', ( #288 ), #6, .F. ) ;
#11 = MECHANICAL_DESIGN_GEOMETRIC_PRESENTATION_REPRESENTATION (  '', ( #35 ), #153 ) ;
#12 = FACE_OUTER_BOUND ( 'NONE', #76, .T. ) ;
#13 = ORIENTED_EDGE ( 'NONE', *, *, #143, .F. ) ;
#14 =( NAMED_UNIT ( * ) SI_UNIT ( $, .STERADIAN. ) SOLID_ANGLE_UNIT ( ) );
#15 = VERTEX_POINT ( 'NONE', #270 ) ;
#16 =( NAMED_UNIT ( * ) SI_UNIT ( $, .STERADIAN. ) SOLID_ANGLE_UNIT ( ) );
#17 =( NAMED_UNIT ( * ) SI_UNIT ( $, .STERADIAN. ) SOLID_ANGLE_UNIT ( ) );
#18 = PRESENTATION_STYLE_ASSIGNMENT (( #187 ) ) ;
#19 = DIRECTION ( 'NONE',  ( -0.000000000000000000, -1.000000000000000000, -0.000000000000000000 ) ) ;
#20 =( LENGTH_UNIT ( ) NAMED_UNIT ( * ) SI_UNIT ( .MILLI., .METRE. ) );
#21 = CARTESIAN_POINT ( 'NONE',  ( 0.000000000000000000, 0.000000000000000000, -4.000000000000000000 ) ) ;
#22 =( NAMED_UNIT ( * ) SI_UNIT ( $, .STERADIAN. ) SOLID_ANGLE_UNIT ( ) );
#23 = DIRECTION ( 'NONE',  ( 2.881521880346712812E-17, 1.000000000000000000, -0.000000000000000000 ) ) ;
#24 = PRESENTATION_LAYER_ASSIGNMENT (  '', '', ( #35 ) ) ;
#25 = PRODUCT ( '59519', '59519', '', ( #137 ) ) ;
#26 = DIRECTION ( 'NONE',  ( 0.000000000000000000, -0.000000000000000000, 1.000000000000000000 ) ) ;
#27 = CIRCLE ( 'NONE', #139, 3.999999999999998224 ) ;
#28 = PRESENTATION_LAYER_ASSIGNMENT (  '', '', ( #149 ) ) ;
#29 = AXIS2_PLACEMENT_3D ( 'NONE', #262, #58, #114 ) ;
#30 = FILL_AREA_STYLE ('',( #83 ) ) ;
#31 = EDGE_CURVE ( 'NONE', #164, #34, #27, .T. ) ;
#32 = DIRECTION ( 'NONE',  ( 0.000000000000000000, 0.000000000000000000, -1.000000000000000000 ) ) ;
#33 = UNCERTAINTY_MEASURE_WITH_UNIT (LENGTH_MEASURE( 1.000000000000000082E-05 ), #206, 'distance_accuracy_value', 'NONE');
#34 = VERTEX_POINT ( 'NONE', #98 ) ;
#35 = STYLED_ITEM ( 'NONE', ( #18 ), #66 ) ;
#36 = AXIS2_PLACEMENT_3D ( 'NONE', #134, #9, #225 ) ;
#37 = DIRECTION ( 'NONE',  ( 0.000000000000000000, 0.000000000000000000, -1.000000000000000000 ) ) ;
#38 = EDGE_LOOP ( 'NONE', ( #286, #52 ) ) ;
#39 = LINE ( 'NONE', #21, #175 ) ;
#40 = DIRECTION ( 'NONE',  ( 1.000000000000000000, 0.000000000000000000, 0.000000000000000000 ) ) ;
#41 = FILL_AREA_STYLE_COLOUR ( '', #218 ) ;
#42 = CIRCLE ( 'NONE', #172, 4.000000000000000000 ) ;
#43 = CARTESIAN_POINT ( 'NONE',  ( 0.000000000000000000, 0.000000000000000000, -4.000000000000000000 ) ) ;
#44 = DIRECTION ( 'NONE',  ( 1.000000000000000000, -2.881521880346712812E-17, 0.000000000000000000 ) ) ;
#45 = FACE_OUTER_BOUND ( 'NONE', #84, .T. ) ;
#46 = EDGE_LOOP ( 'NONE', ( #281, #217, #223, #13 ) ) ;
#47 = DIRECTION ( 'NONE',  ( 2.881521880346712812E-17, 1.000000000000000000, -0.000000000000000000 ) ) ;
#48 = ADVANCED_FACE ( 'NONE', ( #115 ), #235, .T. ) ;
#49 = CARTESIAN_POINT ( 'NONE',  ( 0.000000000000000000, 11.99999999999999645, 0.000000000000000000 ) ) ;
#50 = AXIS2_PLACEMENT_3D ( 'NONE', #148, #256, #189 ) ;
#51 = DIRECTION ( 'NONE',  ( 0.000000000000000000, 0.000000000000000000, 1.000000000000000000 ) ) ;
#52 = ORIENTED_EDGE ( 'NONE', *, *, #31, .T. ) ;
#53 = UNCERTAINTY_MEASURE_WITH_UNIT (LENGTH_MEASURE( 1.000000000000000082E-05 ), #167, 'distance_accuracy_value', 'NONE');
#54 = CIRCLE ( 'NONE', #57, 3.999999999999998224 ) ;
#55 = AXIS2_PLACEMENT_3D ( 'NONE', #272, #51, #40 ) ;
#56 = DIRECTION ( 'NONE',  ( 0.000000000000000000, 0.000000000000000000, -1.000000000000000000 ) ) ;
#57 = AXIS2_PLACEMENT_3D ( 'NONE', #194, #1, #287 ) ;
#58 = DIRECTION ( 'NONE',  ( 2.881521880346712812E-17, 1.000000000000000000, -0.000000000000000000 ) ) ;
#59 = VERTEX_POINT ( 'NONE', #212 ) ;
#60 =( NAMED_UNIT ( * ) PLANE_ANGLE_UNIT ( ) SI_UNIT ( $, .RADIAN. ) );
#61 = DIRECTION ( 'NONE',  ( 2.881521880346712812E-17, 1.000000000000000000, -0.000000000000000000 ) ) ;
#62 = CARTESIAN_POINT ( 'NONE',  ( 4.898587196589412829E-16, 0.000000000000000000, 4.000000000000000000 ) ) ;
#63 = STYLED_ITEM ( 'NONE', ( #257 ), #190 ) ;
#64 =( NAMED_UNIT ( * ) SI_UNIT ( $, .STERADIAN. ) SOLID_ANGLE_UNIT ( ) );
#65 = ORIENTED_EDGE ( 'NONE', *, *, #234, .F. ) ;
#66 = MANIFOLD_SOLID_BREP ( 'Revolve - Cutting Edge', #239 ) ;
#67 = DIRECTION ( 'NONE',  ( 0.000000000000000000, 1.000000000000000000, 0.000000000000000000 ) ) ;
#68 =( LENGTH_UNIT ( ) NAMED_UNIT ( * ) SI_UNIT ( .MILLI., .METRE. ) );
#69 = ORIENTED_EDGE ( 'NONE', *, *, #231, .F. ) ;
#70 =( GEOMETRIC_REPRESENTATION_CONTEXT ( 3 ) GLOBAL_UNCERTAINTY_ASSIGNED_CONTEXT ( ( #33 ) ) GLOBAL_UNIT_ASSIGNED_CONTEXT ( ( #206, #229, #17 ) ) REPRESENTATION_CONTEXT ( 'NONE', 'WORKASPACE' ) );
#71 = CARTESIAN_POINT ( 'NONE',  ( 1.660633669383370983E-33, 12.00000000000000000, 0.000000000000000000 ) ) ;
#72 = APPLICATION_CONTEXT ( 'automotive_design' ) ;
#73 = MANIFOLD_SOLID_BREP ( 'Revolve - Tool Body (Straight Shanked)', #283 ) ;
#74 = EDGE_LOOP ( 'NONE', ( #93, #3 ) ) ;
#75 = DIRECTION ( 'NONE',  ( 2.881521880346712812E-17, 1.000000000000000000, -0.000000000000000000 ) ) ;
#76 = EDGE_LOOP ( 'NONE', ( #65, #146, #132, #250 ) ) ;
#77 = SURFACE_SIDE_STYLE ('',( #99 ) ) ;
#78 = UNCERTAINTY_MEASURE_WITH_UNIT (LENGTH_MEASURE( 1.000000000000000082E-05 ), #238, 'distance_accuracy_value', 'NONE');
#79 = SURFACE_STYLE_USAGE ( .BOTH. , #222 ) ;
#80 = AXIS2_PLACEMENT_3D ( 'NONE', #269, #67, #26 ) ;
#81 = FILL_AREA_STYLE ('',( #196 ) ) ;
#82 = EDGE_CURVE ( 'NONE', #34, #164, #54, .T. ) ;
#83 = FILL_AREA_STYLE_COLOUR ( '', #243 ) ;
#84 = EDGE_LOOP ( 'NONE', ( #246, #198 ) ) ;
#85 = CYLINDRICAL_SURFACE ( 'NONE', #109, 3.999999999999999112 ) ;
#86 = EDGE_LOOP ( 'NONE', ( #69, #203 ) ) ;
#87 = CARTESIAN_POINT ( 'NONE',  ( -4.000000000000000000, 11.99999999999999645, 0.000000000000000000 ) ) ;
#88 = STYLED_ITEM ( 'NONE', ( #202 ), #208 ) ;
#89 = CIRCLE ( 'NONE', #36, 4.000000000000000000 ) ;
#90 = CARTESIAN_POINT ( 'NONE',  ( -3.999999999999997335, 63.00000000000000000, 0.000000000000000000 ) ) ;
#91 = ADVANCED_FACE ( 'NONE', ( #45 ), #144, .F. ) ;
#92 = DIRECTION ( 'NONE',  ( -1.000000000000000000, 0.000000000000000000, 0.000000000000000000 ) ) ;
#93 = ORIENTED_EDGE ( 'NONE', *, *, #126, .T. ) ;
#94 = AXIS2_PLACEMENT_3D ( 'NONE', #71, #23, #97 ) ;
#95 = DIRECTION ( 'NONE',  ( 2.881521880346712812E-17, 1.000000000000000000, -0.000000000000000000 ) ) ;
#96 = CARTESIAN_POINT ( 'NONE',  ( 1.469576158976823750E-15, 63.00000000000000000, 0.000000000000000000 ) ) ;
#97 = DIRECTION ( 'NONE',  ( -1.000000000000000000, 2.881521880346712812E-17, 0.000000000000000000 ) ) ;
#98 = CARTESIAN_POINT ( 'NONE',  ( -3.999999999999996447, 63.00000000000000000, 0.000000000000000000 ) ) ;
#99 = SURFACE_STYLE_FILL_AREA ( #191 ) ;
#100 = VERTEX_POINT ( 'NONE', #43 ) ;
#101 = AXIS2_PLACEMENT_3D ( 'NONE', #129, #180, #220 ) ;
#102 = CIRCLE ( 'NONE', #101, 4.000000000000000000 ) ;
#103 = AXIS2_PLACEMENT_3D ( 'NONE', #265, #159, #37 ) ;
#104 = FACE_OUTER_BOUND ( 'NONE', #135, .T. ) ;
#105 = VERTEX_POINT ( 'NONE', #141 ) ;
#106 = EDGE_CURVE ( 'NONE', #15, #201, #42, .T. ) ;
#107 =( NAMED_UNIT ( * ) PLANE_ANGLE_UNIT ( ) SI_UNIT ( $, .RADIAN. ) );
#108 = ORIENTED_EDGE ( 'NONE', *, *, #253, .F. ) ;
#109 = AXIS2_PLACEMENT_3D ( 'NONE', #157, #61, #156 ) ;
#110 = SURFACE_SIDE_STYLE ('',( #155 ) ) ;
#111 = LINE ( 'NONE', #161, #271 ) ;
#112 = ORIENTED_EDGE ( 'NONE', *, *, #152, .F. ) ;
#113 = PRESENTATION_LAYER_ASSIGNMENT (  '', '', ( #88 ) ) ;
#114 = DIRECTION ( 'NONE',  ( -1.000000000000000000, 0.000000000000000000, 0.000000000000000000 ) ) ;
#115 = FACE_OUTER_BOUND ( 'NONE', #74, .T. ) ;
#116 = DIRECTION ( 'NONE',  ( -0.000000000000000000, -1.000000000000000000, -0.000000000000000000 ) ) ;
#117 = DIRECTION ( 'NONE',  ( -2.881521880346712812E-17, -1.000000000000000000, 0.000000000000000000 ) ) ;
#118 = VECTOR ( 'NONE', #116, 1000.000000000000000 ) ;
#119 = CARTESIAN_POINT ( 'NONE',  ( 0.000000000000000000, 11.99999999999999645, 0.000000000000000000 ) ) ;
#120 =( NAMED_UNIT ( * ) PLANE_ANGLE_UNIT ( ) SI_UNIT ( $, .RADIAN. ) );
#121 = CARTESIAN_POINT ( 'NONE',  ( 4.898587196589412829E-16, 0.000000000000000000, 4.000000000000000000 ) ) ;
#122 = ORIENTED_EDGE ( 'NONE', *, *, #234, .T. ) ;
#123 = FACE_OUTER_BOUND ( 'NONE', #46, .T. ) ;
#124 = EDGE_CURVE ( 'NONE', #201, #15, #133, .T. ) ;
#125 =( GEOMETRIC_REPRESENTATION_CONTEXT ( 3 ) GLOBAL_UNCERTAINTY_ASSIGNED_CONTEXT ( ( #78 ) ) GLOBAL_UNIT_ASSIGNED_CONTEXT ( ( #238, #107, #14 ) ) REPRESENTATION_CONTEXT ( 'NONE', 'WORKASPACE' ) );
#126 = EDGE_CURVE ( 'NONE', #100, #228, #2, .T. ) ;
#127 = AXIS2_PLACEMENT_3D ( 'NONE', #266, #200, #56 ) ;
#128 = APPLICATION_CONTEXT ( 'automotive_design' ) ;
#129 = CARTESIAN_POINT ( 'NONE',  ( 0.000000000000000000, 12.00000000000000000, 0.000000000000000000 ) ) ;
#130 =( LENGTH_UNIT ( ) NAMED_UNIT ( * ) SI_UNIT ( .MILLI., .METRE. ) );
#131 = FACE_OUTER_BOUND ( 'NONE', #226, .T. ) ;
#132 = ORIENTED_EDGE ( 'NONE', *, *, #173, .T. ) ;
#133 = CIRCLE ( 'NONE', #230, 4.000000000000000000 ) ;
#134 = CARTESIAN_POINT ( 'NONE',  ( 0.000000000000000000, 12.00000000000000000, 0.000000000000000000 ) ) ;
#135 = EDGE_LOOP ( 'NONE', ( #162, #122, #232, #158 ) ) ;
#136 = SURFACE_STYLE_FILL_AREA ( #30 ) ;
#137 = PRODUCT_CONTEXT ( 'NONE', #128, 'mechanical' ) ;
#138 = SURFACE_STYLE_USAGE ( .BOTH. , #151 ) ;
#139 = AXIS2_PLACEMENT_3D ( 'NONE', #96, #251, #192 ) ;
#140 = COLOUR_RGB ( '',0.7921568627450980005, 0.8196078431372548767, 0.9333333333333333481 ) ;
#141 = CARTESIAN_POINT ( 'NONE',  ( 0.000000000000000000, 12.00000000000000000, -4.000000000000000000 ) ) ;
#142 = FILL_AREA_STYLE ('',( #237 ) ) ;
#143 = EDGE_CURVE ( 'NONE', #105, #100, #39, .T. ) ;
#144 = PLANE ( 'NONE',  #94 ) ;
#145 = APPLICATION_PROTOCOL_DEFINITION ( 'draft international standard', 'automotive_design', 1998, #128 ) ;
#146 = ORIENTED_EDGE ( 'NONE', *, *, #106, .T. ) ;
#147 = PLANE ( 'NONE',  #80 ) ;
#148 = CARTESIAN_POINT ( 'NONE',  ( 0.000000000000000000, 0.000000000000000000, 0.000000000000000000 ) ) ;
#149 = STYLED_ITEM ( 'NONE', ( #199 ), #73 ) ;
#150 = CARTESIAN_POINT ( 'NONE',  ( 0.000000000000000000, 0.000000000000000000, 0.000000000000000000 ) ) ;
#151 = SURFACE_SIDE_STYLE ('',( #254 ) ) ;
#152 = EDGE_CURVE ( 'NONE', #59, #228, #236, .T. ) ;
#153 =( GEOMETRIC_REPRESENTATION_CONTEXT ( 3 ) GLOBAL_UNCERTAINTY_ASSIGNED_CONTEXT ( ( #221 ) ) GLOBAL_UNIT_ASSIGNED_CONTEXT ( ( #20, #183, #176 ) ) REPRESENTATION_CONTEXT ( 'NONE', 'WORKASPACE' ) );
#154 =( GEOMETRIC_REPRESENTATION_CONTEXT ( 3 ) GLOBAL_UNCERTAINTY_ASSIGNED_CONTEXT ( ( #263 ) ) GLOBAL_UNIT_ASSIGNED_CONTEXT ( ( #130, #227, #16 ) ) REPRESENTATION_CONTEXT ( 'NONE', 'WORKASPACE' ) );
#155 = SURFACE_STYLE_FILL_AREA ( #81 ) ;
#156 = DIRECTION ( 'NONE',  ( -1.000000000000000000, 0.000000000000000000, 0.000000000000000000 ) ) ;
#157 = CARTESIAN_POINT ( 'NONE',  ( 1.469576158976823750E-15, 63.00000000000000000, 0.000000000000000000 ) ) ;
#158 = ORIENTED_EDGE ( 'NONE', *, *, #173, .F. ) ;
#159 = DIRECTION ( 'NONE',  ( -0.000000000000000000, -1.000000000000000000, -0.000000000000000000 ) ) ;
#160 = COLOUR_RGB ( '',0.7921568627450980005, 0.8196078431372548767, 0.9333333333333333481 ) ;
#161 = CARTESIAN_POINT ( 'NONE',  ( 4.000000000000000888, 63.00000000000000000, 4.898587196589411843E-16 ) ) ;
#162 = ORIENTED_EDGE ( 'NONE', *, *, #124, .T. ) ;
#163 =( NAMED_UNIT ( * ) SI_UNIT ( $, .STERADIAN. ) SOLID_ANGLE_UNIT ( ) );
#164 = VERTEX_POINT ( 'NONE', #216 ) ;
#165 =( GEOMETRIC_REPRESENTATION_CONTEXT ( 3 ) GLOBAL_UNCERTAINTY_ASSIGNED_CONTEXT ( ( #53 ) ) GLOBAL_UNIT_ASSIGNED_CONTEXT ( ( #167, #120, #22 ) ) REPRESENTATION_CONTEXT ( 'NONE', 'WORKASPACE' ) );
#166 = FACE_OUTER_BOUND ( 'NONE', #86, .T. ) ;
#167 =( LENGTH_UNIT ( ) NAMED_UNIT ( * ) SI_UNIT ( .MILLI., .METRE. ) );
#168 = CARTESIAN_POINT ( 'NONE',  ( 4.000000000000000000, 63.00000000000000000, 0.000000000000000000 ) ) ;
#169 = DIRECTION ( 'NONE',  ( -0.000000000000000000, -1.000000000000000000, -0.000000000000000000 ) ) ;
#170 =( NAMED_UNIT ( * ) PLANE_ANGLE_UNIT ( ) SI_UNIT ( $, .RADIAN. ) );
#171 = MECHANICAL_DESIGN_GEOMETRIC_PRESENTATION_REPRESENTATION (  '', ( #213 ), #165 ) ;
#172 = AXIS2_PLACEMENT_3D ( 'NONE', #49, #75, #188 ) ;
#173 = EDGE_CURVE ( 'NONE', #201, #34, #186, .T. ) ;
#174 = SURFACE_STYLE_USAGE ( .BOTH. , #77 ) ;
#175 = VECTOR ( 'NONE', #19, 1000.000000000000000 ) ;
#176 =( NAMED_UNIT ( * ) SI_UNIT ( $, .STERADIAN. ) SOLID_ANGLE_UNIT ( ) );
#177 = ADVANCED_FACE ( 'NONE', ( #166 ), #147, .T. ) ;
#178 = MECHANICAL_DESIGN_GEOMETRIC_PRESENTATION_REPRESENTATION (  '', ( #214 ), #70 ) ;
#179 =( GEOMETRIC_REPRESENTATION_CONTEXT ( 3 ) GLOBAL_UNCERTAINTY_ASSIGNED_CONTEXT ( ( #181 ) ) GLOBAL_UNIT_ASSIGNED_CONTEXT ( ( #68, #170, #163 ) ) REPRESENTATION_CONTEXT ( 'NONE', 'WORKASPACE' ) );
#180 = DIRECTION ( 'NONE',  ( -0.000000000000000000, -1.000000000000000000, -0.000000000000000000 ) ) ;
#181 = UNCERTAINTY_MEASURE_WITH_UNIT (LENGTH_MEASURE( 1.000000000000000082E-05 ), #68, 'distance_accuracy_value', 'NONE');
#182 =( GEOMETRIC_REPRESENTATION_CONTEXT ( 3 ) GLOBAL_UNCERTAINTY_ASSIGNED_CONTEXT ( ( #244 ) ) GLOBAL_UNIT_ASSIGNED_CONTEXT ( ( #264, #60, #64 ) ) REPRESENTATION_CONTEXT ( 'NONE', 'WORKASPACE' ) );
#183 =( NAMED_UNIT ( * ) PLANE_ANGLE_UNIT ( ) SI_UNIT ( $, .RADIAN. ) );
#184 = FILL_AREA_STYLE ('',( #41 ) ) ;
#185 = MECHANICAL_DESIGN_GEOMETRIC_PRESENTATION_REPRESENTATION (  '', ( #63 ), #125 ) ;
#186 = LINE ( 'NONE', #90, #8 ) ;
#187 = SURFACE_STYLE_USAGE ( .BOTH. , #276 ) ;
#188 = DIRECTION ( 'NONE',  ( -1.000000000000000000, 0.000000000000000000, 0.000000000000000000 ) ) ;
#189 = DIRECTION ( 'NONE',  ( 0.000000000000000000, 0.000000000000000000, -1.000000000000000000 ) ) ;
#190 = ADVANCED_FACE ( 'NONE', ( #123 ), #277, .T. ) ;
#191 = FILL_AREA_STYLE ('',( #5 ) ) ;
#192 = DIRECTION ( 'NONE',  ( -1.000000000000000000, 0.000000000000000000, 0.000000000000000000 ) ) ;
#193 = ADVANCED_BREP_SHAPE_REPRESENTATION ( '59519', ( #66, #73, #55 ), #179 ) ;
#194 = CARTESIAN_POINT ( 'NONE',  ( 1.469576158976823750E-15, 63.00000000000000000, 0.000000000000000000 ) ) ;
#195 = PRESENTATION_LAYER_ASSIGNMENT (  '', '', ( #214 ) ) ;
#196 = FILL_AREA_STYLE_COLOUR ( '', #160 ) ;
#197 = CYLINDRICAL_SURFACE ( 'NONE', #29, 3.999999999999999112 ) ;
#198 = ORIENTED_EDGE ( 'NONE', *, *, #106, .F. ) ;
#199 = PRESENTATION_STYLE_ASSIGNMENT (( #224 ) ) ;
#200 = DIRECTION ( 'NONE',  ( -0.000000000000000000, -1.000000000000000000, -0.000000000000000000 ) ) ;
#201 = VERTEX_POINT ( 'NONE', #87 ) ;
#202 = PRESENTATION_STYLE_ASSIGNMENT (( #79 ) ) ;
#203 = ORIENTED_EDGE ( 'NONE', *, *, #278, .F. ) ;
#204 = PRESENTATION_LAYER_ASSIGNMENT (  '', '', ( #63 ) ) ;
#205 = PRODUCT_DEFINITION_FORMATION_WITH_SPECIFIED_SOURCE ( 'ANY', '', #25, .NOT_KNOWN. ) ;
#206 =( LENGTH_UNIT ( ) NAMED_UNIT ( * ) SI_UNIT ( .MILLI., .METRE. ) );
#207 = APPLICATION_PROTOCOL_DEFINITION ( 'draft international standard', 'automotive_design', 1998, #72 ) ;
#208 = ADVANCED_FACE ( 'NONE', ( #131 ), #260, .T. ) ;
#209 = SURFACE_SIDE_STYLE ('',( #211 ) ) ;
#210 = ORIENTED_EDGE ( 'NONE', *, *, #143, .T. ) ;
#211 = SURFACE_STYLE_FILL_AREA ( #275 ) ;
#212 = CARTESIAN_POINT ( 'NONE',  ( 4.898587196589412829E-16, 12.00000000000000000, 4.000000000000000000 ) ) ;
#213 = STYLED_ITEM ( 'NONE', ( #273 ), #48 ) ;
#214 = STYLED_ITEM ( 'NONE', ( #252 ), #177 ) ;
#215 = SURFACE_STYLE_FILL_AREA ( #142 ) ;
#216 = CARTESIAN_POINT ( 'NONE',  ( 4.000000000000000000, 63.00000000000000000, 4.898587196589411843E-16 ) ) ;
#217 = ORIENTED_EDGE ( 'NONE', *, *, #152, .T. ) ;
#218 = COLOUR_RGB ( '',1.000000000000000000, 0.000000000000000000, 0.000000000000000000 ) ;
#219 = ADVANCED_FACE ( 'NONE', ( #12 ), #85, .T. ) ;
#220 = DIRECTION ( 'NONE',  ( 0.000000000000000000, 0.000000000000000000, -1.000000000000000000 ) ) ;
#221 = UNCERTAINTY_MEASURE_WITH_UNIT (LENGTH_MEASURE( 1.000000000000000082E-05 ), #20, 'distance_accuracy_value', 'NONE');
#222 = SURFACE_SIDE_STYLE ('',( #136 ) ) ;
#223 = ORIENTED_EDGE ( 'NONE', *, *, #126, .F. ) ;
#224 = SURFACE_STYLE_USAGE ( .BOTH. , #110 ) ;
#225 = DIRECTION ( 'NONE',  ( 0.000000000000000000, 0.000000000000000000, -1.000000000000000000 ) ) ;
#226 = EDGE_LOOP ( 'NONE', ( #112, #4, #210, #108 ) ) ;
#227 =( NAMED_UNIT ( * ) PLANE_ANGLE_UNIT ( ) SI_UNIT ( $, .RADIAN. ) );
#228 = VERTEX_POINT ( 'NONE', #62 ) ;
#229 =( NAMED_UNIT ( * ) PLANE_ANGLE_UNIT ( ) SI_UNIT ( $, .RADIAN. ) );
#230 = AXIS2_PLACEMENT_3D ( 'NONE', #119, #95, #92 ) ;
#231 = EDGE_CURVE ( 'NONE', #105, #59, #102, .T. ) ;
#232 = ORIENTED_EDGE ( 'NONE', *, *, #82, .F. ) ;
#233 = SHAPE_DEFINITION_REPRESENTATION ( #258, #193 ) ;
#234 = EDGE_CURVE ( 'NONE', #15, #164, #111, .T. ) ;
#235 = PLANE ( 'NONE',  #50 ) ;
#236 = LINE ( 'NONE', #121, #118 ) ;
#237 = FILL_AREA_STYLE_COLOUR ( '', #140 ) ;
#238 =( LENGTH_UNIT ( ) NAMED_UNIT ( * ) SI_UNIT ( .MILLI., .METRE. ) );
#239 = CLOSED_SHELL ( 'NONE', ( #190, #177, #208, #48 ) ) ;
#240 = AXIS2_PLACEMENT_3D ( 'NONE', #280, #245, #32 ) ;
#241 = CIRCLE ( 'NONE', #103, 4.000000000000000000 ) ;
#242 = AXIS2_PLACEMENT_3D ( 'NONE', #168, #117, #44 ) ;
#243 = COLOUR_RGB ( '',1.000000000000000000, 0.000000000000000000, 0.000000000000000000 ) ;
#244 = UNCERTAINTY_MEASURE_WITH_UNIT (LENGTH_MEASURE( 1.000000000000000082E-05 ), #264, 'distance_accuracy_value', 'NONE');
#245 = DIRECTION ( 'NONE',  ( -0.000000000000000000, -1.000000000000000000, -0.000000000000000000 ) ) ;
#246 = ORIENTED_EDGE ( 'NONE', *, *, #124, .F. ) ;
#247 = PRODUCT_DEFINITION_CONTEXT ( 'detailed design', #72, 'design' ) ;
#248 = COLOUR_RGB ( '',1.000000000000000000, 0.000000000000000000, 0.000000000000000000 ) ;
#249 = DIRECTION ( 'NONE',  ( 2.881521880346712812E-17, 1.000000000000000000, -0.000000000000000000 ) ) ;
#250 = ORIENTED_EDGE ( 'NONE', *, *, #31, .F. ) ;
#251 = DIRECTION ( 'NONE',  ( 2.881521880346712812E-17, 1.000000000000000000, -0.000000000000000000 ) ) ;
#252 = PRESENTATION_STYLE_ASSIGNMENT (( #268 ) ) ;
#253 = EDGE_CURVE ( 'NONE', #228, #100, #241, .T. ) ;
#254 = SURFACE_STYLE_FILL_AREA ( #184 ) ;
#255 = DIRECTION ( 'NONE',  ( 0.000000000000000000, 0.000000000000000000, -1.000000000000000000 ) ) ;
#256 = DIRECTION ( 'NONE',  ( 0.000000000000000000, -1.000000000000000000, -0.000000000000000000 ) ) ;
#257 = PRESENTATION_STYLE_ASSIGNMENT (( #174 ) ) ;
#258 = PRODUCT_DEFINITION_SHAPE ( 'NONE', 'NONE',  #259 ) ;
#259 = PRODUCT_DEFINITION ( 'UNKNOWN', '', #205, #247 ) ;
#260 = CYLINDRICAL_SURFACE ( 'NONE', #127, 4.000000000000000000 ) ;
#261 = AXIS2_PLACEMENT_3D ( 'NONE', #150, #169, #255 ) ;
#262 = CARTESIAN_POINT ( 'NONE',  ( 1.469576158976823750E-15, 63.00000000000000000, 0.000000000000000000 ) ) ;
#263 = UNCERTAINTY_MEASURE_WITH_UNIT (LENGTH_MEASURE( 1.000000000000000082E-05 ), #130, 'distance_accuracy_value', 'NONE');
#264 =( LENGTH_UNIT ( ) NAMED_UNIT ( * ) SI_UNIT ( .MILLI., .METRE. ) );
#265 = CARTESIAN_POINT ( 'NONE',  ( 0.000000000000000000, 0.000000000000000000, 0.000000000000000000 ) ) ;
#266 = CARTESIAN_POINT ( 'NONE',  ( 0.000000000000000000, 0.000000000000000000, 0.000000000000000000 ) ) ;
#267 = PRESENTATION_LAYER_ASSIGNMENT (  '', '', ( #213 ) ) ;
#268 = SURFACE_STYLE_USAGE ( .BOTH. , #209 ) ;
#269 = CARTESIAN_POINT ( 'NONE',  ( 0.000000000000000000, 12.00000000000000000, 0.000000000000000000 ) ) ;
#270 = CARTESIAN_POINT ( 'NONE',  ( 4.000000000000000000, 11.99999999999999645, 4.898587196589411843E-16 ) ) ;
#271 = VECTOR ( 'NONE', #249, 1000.000000000000000 ) ;
#272 = CARTESIAN_POINT ( 'NONE',  ( 0.000000000000000000, 0.000000000000000000, 0.000000000000000000 ) ) ;
#273 = PRESENTATION_STYLE_ASSIGNMENT (( #138 ) ) ;
#274 = PRODUCT_RELATED_PRODUCT_CATEGORY ( 'part', '', ( #25 ) ) ;
#275 = FILL_AREA_STYLE ('',( #285 ) ) ;
#276 = SURFACE_SIDE_STYLE ('',( #215 ) ) ;
#277 = CYLINDRICAL_SURFACE ( 'NONE', #240, 4.000000000000000000 ) ;
#278 = EDGE_CURVE ( 'NONE', #59, #105, #89, .T. ) ;
#279 = MECHANICAL_DESIGN_GEOMETRIC_PRESENTATION_REPRESENTATION (  '', ( #88 ), #154 ) ;
#280 = CARTESIAN_POINT ( 'NONE',  ( 0.000000000000000000, 0.000000000000000000, 0.000000000000000000 ) ) ;
#281 = ORIENTED_EDGE ( 'NONE', *, *, #231, .T. ) ;
#282 = ADVANCED_FACE ( 'NONE', ( #104 ), #197, .T. ) ;
#283 = CLOSED_SHELL ( 'NONE', ( #282, #91, #219, #10 ) ) ;
#284 = MECHANICAL_DESIGN_GEOMETRIC_PRESENTATION_REPRESENTATION (  '', ( #149 ), #182 ) ;
#285 = FILL_AREA_STYLE_COLOUR ( '', #7 ) ;
#286 = ORIENTED_EDGE ( 'NONE', *, *, #82, .T. ) ;
#287 = DIRECTION ( 'NONE',  ( -1.000000000000000000, 0.000000000000000000, 0.000000000000000000 ) ) ;
#288 = FACE_OUTER_BOUND ( 'NONE', #38, .T. ) ;
ENDSEC;
END-ISO-10303-21;
