ISO-10303-21;
HEADER;
FILE_DESCRIPTION (( 'STEP AP214' ),
    '1' );
FILE_NAME ('83437.STEP',
    '2023-06-23T10:16:48',
    ( '' ),
    ( '' ),
    'SwSTEP 2.0',
    'SolidWorks 2023',
    '' );
FILE_SCHEMA (( 'AUTOMOTIVE_DESIGN' ));
ENDSEC;

DATA;
#1 = EDGE_CURVE ( 'NONE', #285, #212, #4, .T. ) ;
#2 = ORIENTED_EDGE ( 'NONE', *, *, #281, .F. ) ;
#3 = FACE_OUTER_BOUND ( 'NONE', #74, .T. ) ;
#4 = CIRCLE ( 'NONE', #69, 0.2500000000000000000 ) ;
#5 = PRESENTATION_STYLE_ASSIGNMENT (( #213 ) ) ;
#6 = DIRECTION ( 'NONE',  ( 0.000000000000000000, 0.000000000000000000, -1.000000000000000000 ) ) ;
#7 = FACE_OUTER_BOUND ( 'NONE', #198, .T. ) ;
#8 =( CONVERSION_BASED_UNIT ( 'INCH', #169 ) LENGTH_UNIT ( ) NAMED_UNIT ( #224 ) );
#9 =( NAMED_UNIT ( * ) SI_UNIT ( $, .STERADIAN. ) SOLID_ANGLE_UNIT ( ) );
#10 = CARTESIAN_POINT ( 'NONE',  ( 0.000000000000000000, 0.000000000000000000, -0.2500000000000000000 ) ) ;
#11 = DIMENSIONAL_EXPONENTS ( 1.000000000000000000, 0.000000000000000000, 0.000000000000000000, 0.000000000000000000, 0.000000000000000000, 0.000000000000000000, 0.000000000000000000 ) ;
#12 = DIRECTION ( 'NONE',  ( 1.000000000000000000, 1.031281515071455676E-16, 0.000000000000000000 ) ) ;
#13 = PRESENTATION_LAYER_ASSIGNMENT (  '', '', ( #53 ) ) ;
#14 = PRESENTATION_STYLE_ASSIGNMENT (( #200 ) ) ;
#15 = CARTESIAN_POINT ( 'NONE',  ( 0.000000000000000000, 3.625000000000000444, -0.2500000000000000000 ) ) ;
#16 = ORIENTED_EDGE ( 'NONE', *, *, #1, .T. ) ;
#17 = LENGTH_MEASURE_WITH_UNIT ( LENGTH_MEASURE( 0.02539999999999999897 ), #87 );
#18 = ORIENTED_EDGE ( 'NONE', *, *, #89, .T. ) ;
#19 = PRESENTATION_STYLE_ASSIGNMENT (( #115 ) ) ;
#20 = DIRECTION ( 'NONE',  ( -1.000000000000000000, -1.031281515071455676E-16, 0.000000000000000000 ) ) ;
#21 = LENGTH_MEASURE_WITH_UNIT ( LENGTH_MEASURE( 0.02539999999999999897 ), #260 );
#22 = EDGE_LOOP ( 'NONE', ( #257, #110 ) ) ;
#23 = AXIS2_PLACEMENT_3D ( 'NONE', #29, #216, #6 ) ;
#24 = PRODUCT_DEFINITION_SHAPE ( 'NONE', 'NONE',  #168 ) ;
#25 = FILL_AREA_STYLE_COLOUR ( '', #259 ) ;
#26 =( LENGTH_UNIT ( ) NAMED_UNIT ( * ) SI_UNIT ( $, .METRE. ) );
#27 = ORIENTED_EDGE ( 'NONE', *, *, #52, .T. ) ;
#28 = PRODUCT_RELATED_PRODUCT_CATEGORY ( 'part', '', ( #73 ) ) ;
#29 = CARTESIAN_POINT ( 'NONE',  ( 0.000000000000000000, 0.000000000000000000, 0.000000000000000000 ) ) ;
#30 = COLOUR_RGB ( '',0.7921568627450980005, 0.8196078431372548767, 0.9333333333333333481 ) ;
#31 =( NAMED_UNIT ( * ) SI_UNIT ( $, .STERADIAN. ) SOLID_ANGLE_UNIT ( ) );
#32 = DIMENSIONAL_EXPONENTS ( 1.000000000000000000, 0.000000000000000000, 0.000000000000000000, 0.000000000000000000, 0.000000000000000000, 0.000000000000000000, 0.000000000000000000 ) ;
#33 = DIRECTION ( 'NONE',  ( -1.031281515071455799E-16, 1.000000000000000000, -0.000000000000000000 ) ) ;
#34 = LINE ( 'NONE', #10, #249 ) ;
#35 = SURFACE_STYLE_FILL_AREA ( #158 ) ;
#36 = ORIENTED_EDGE ( 'NONE', *, *, #116, .T. ) ;
#37 = ADVANCED_FACE ( 'NONE', ( #3 ), #291, .F. ) ;
#38 = AXIS2_PLACEMENT_3D ( 'NONE', #218, #193, #146 ) ;
#39 = EDGE_CURVE ( 'NONE', #206, #86, #78, .T. ) ;
#40 = PRESENTATION_STYLE_ASSIGNMENT (( #130 ) ) ;
#41 = ADVANCED_BREP_SHAPE_REPRESENTATION ( '83437', ( #255, #268, #272 ), #101 ) ;
#42 = LINE ( 'NONE', #235, #70 ) ;
#43 = AXIS2_PLACEMENT_3D ( 'NONE', #232, #283, #71 ) ;
#44 = ORIENTED_EDGE ( 'NONE', *, *, #48, .T. ) ;
#45 = CARTESIAN_POINT ( 'NONE',  ( 0.2500000000000000000, 6.000000000000000888, 3.061616997868385483E-17 ) ) ;
#46 = DIRECTION ( 'NONE',  ( 0.000000000000000000, 0.000000000000000000, -1.000000000000000000 ) ) ;
#47 = SURFACE_STYLE_FILL_AREA ( #253 ) ;
#48 = EDGE_CURVE ( 'NONE', #72, #117, #108, .T. ) ;
#49 = CARTESIAN_POINT ( 'NONE',  ( 0.000000000000000000, 3.625000000000000444, 0.000000000000000000 ) ) ;
#50 = DIRECTION ( 'NONE',  ( 0.000000000000000000, 0.000000000000000000, -1.000000000000000000 ) ) ;
#51 = ORIENTED_EDGE ( 'NONE', *, *, #39, .F. ) ;
#52 = EDGE_CURVE ( 'NONE', #201, #254, #147, .T. ) ;
#53 = STYLED_ITEM ( 'NONE', ( #97 ), #246 ) ;
#54 = APPLICATION_CONTEXT ( 'automotive_design' ) ;
#55 = DIRECTION ( 'NONE',  ( 0.000000000000000000, 0.000000000000000000, 1.000000000000000000 ) ) ;
#56 = DIRECTION ( 'NONE',  ( -1.000000000000000000, 0.000000000000000000, 0.000000000000000000 ) ) ;
#57 =( NAMED_UNIT ( * ) PLANE_ANGLE_UNIT ( ) SI_UNIT ( $, .RADIAN. ) );
#58 = ADVANCED_FACE ( 'NONE', ( #119 ), #98, .T. ) ;
#59 = DIRECTION ( 'NONE',  ( 1.000000000000000000, 0.000000000000000000, 0.000000000000000000 ) ) ;
#60 = DIRECTION ( 'NONE',  ( -1.000000000000000000, 0.000000000000000000, 0.000000000000000000 ) ) ;
#61 = FILL_AREA_STYLE ('',( #274 ) ) ;
#62 = MECHANICAL_DESIGN_GEOMETRIC_PRESENTATION_REPRESENTATION (  '', ( #113 ), #180 ) ;
#63 = STYLED_ITEM ( 'NONE', ( #40 ), #219 ) ;
#64 = ORIENTED_EDGE ( 'NONE', *, *, #116, .F. ) ;
#65 = PLANE ( 'NONE',  #77 ) ;
#66 = FACE_OUTER_BOUND ( 'NONE', #226, .T. ) ;
#67 = EDGE_LOOP ( 'NONE', ( #302, #223, #145, #179 ) ) ;
#68 = SURFACE_SIDE_STYLE ('',( #47 ) ) ;
#69 = AXIS2_PLACEMENT_3D ( 'NONE', #214, #190, #46 ) ;
#70 = VECTOR ( 'NONE', #265, 39.37007874015748143 ) ;
#71 = DIRECTION ( 'NONE',  ( 0.000000000000000000, 0.000000000000000000, -1.000000000000000000 ) ) ;
#72 = VERTEX_POINT ( 'NONE', #217 ) ;
#73 = PRODUCT ( '83437', '83437', '', ( #262 ) ) ;
#74 = EDGE_LOOP ( 'NONE', ( #51, #76 ) ) ;
#75 = CARTESIAN_POINT ( 'NONE',  ( 0.000000000000000000, 0.000000000000000000, 0.000000000000000000 ) ) ;
#76 = ORIENTED_EDGE ( 'NONE', *, *, #83, .F. ) ;
#77 = AXIS2_PLACEMENT_3D ( 'NONE', #159, #118, #189 ) ;
#78 = CIRCLE ( 'NONE', #91, 0.2500000000000000000 ) ;
#79 = SURFACE_SIDE_STYLE ('',( #205 ) ) ;
#80 = LINE ( 'NONE', #269, #233 ) ;
#81 = ADVANCED_FACE ( 'NONE', ( #7 ), #267, .T. ) ;
#82 = CARTESIAN_POINT ( 'NONE',  ( 0.000000000000000000, 0.000000000000000000, 0.000000000000000000 ) ) ;
#83 = EDGE_CURVE ( 'NONE', #86, #206, #124, .T. ) ;
#84 = AXIS2_PLACEMENT_3D ( 'NONE', #220, #294, #56 ) ;
#85 = PLANE ( 'NONE',  #148 ) ;
#86 = VERTEX_POINT ( 'NONE', #125 ) ;
#87 =( LENGTH_UNIT ( ) NAMED_UNIT ( * ) SI_UNIT ( $, .METRE. ) );
#88 =( NAMED_UNIT ( * ) PLANE_ANGLE_UNIT ( ) SI_UNIT ( $, .RADIAN. ) );
#89 = EDGE_CURVE ( 'NONE', #254, #201, #296, .T. ) ;
#90 = FILL_AREA_STYLE ('',( #280 ) ) ;
#91 = AXIS2_PLACEMENT_3D ( 'NONE', #49, #251, #184 ) ;
#92 = CIRCLE ( 'NONE', #266, 0.2500000000000000000 ) ;
#93 = SURFACE_STYLE_FILL_AREA ( #304 ) ;
#94 =( CONVERSION_BASED_UNIT ( 'INCH', #256 ) LENGTH_UNIT ( ) NAMED_UNIT ( #196 ) );
#95 = SURFACE_STYLE_USAGE ( .BOTH. , #309 ) ;
#96 = UNCERTAINTY_MEASURE_WITH_UNIT (LENGTH_MEASURE( 1.000000000000000082E-05 ), #173, 'distance_accuracy_value', 'NONE');
#97 = PRESENTATION_STYLE_ASSIGNMENT (( #287 ) ) ;
#98 = CYLINDRICAL_SURFACE ( 'NONE', #242, 0.2500000000000000000 ) ;
#99 =( GEOMETRIC_REPRESENTATION_CONTEXT ( 3 ) GLOBAL_UNCERTAINTY_ASSIGNED_CONTEXT ( ( #264 ) ) GLOBAL_UNIT_ASSIGNED_CONTEXT ( ( #171, #149, #9 ) ) REPRESENTATION_CONTEXT ( 'NONE', 'WORKASPACE' ) );
#100 = ORIENTED_EDGE ( 'NONE', *, *, #221, .T. ) ;
#101 =( GEOMETRIC_REPRESENTATION_CONTEXT ( 3 ) GLOBAL_UNCERTAINTY_ASSIGNED_CONTEXT ( ( #276 ) ) GLOBAL_UNIT_ASSIGNED_CONTEXT ( ( #8, #191, #31 ) ) REPRESENTATION_CONTEXT ( 'NONE', 'WORKASPACE' ) );
#102 = DIRECTION ( 'NONE',  ( -0.000000000000000000, -1.000000000000000000, -0.000000000000000000 ) ) ;
#103 = EDGE_CURVE ( 'NONE', #86, #254, #80, .T. ) ;
#104 = VECTOR ( 'NONE', #247, 39.37007874015748143 ) ;
#105 =( LENGTH_UNIT ( ) NAMED_UNIT ( * ) SI_UNIT ( $, .METRE. ) );
#106 = FILL_AREA_STYLE_COLOUR ( '', #252 ) ;
#107 = ORIENTED_EDGE ( 'NONE', *, *, #175, .F. ) ;
#108 = CIRCLE ( 'NONE', #43, 0.2500000000000000000 ) ;
#109 =( GEOMETRIC_REPRESENTATION_CONTEXT ( 3 ) GLOBAL_UNCERTAINTY_ASSIGNED_CONTEXT ( ( #307 ) ) GLOBAL_UNIT_ASSIGNED_CONTEXT ( ( #185, #187, #164 ) ) REPRESENTATION_CONTEXT ( 'NONE', 'WORKASPACE' ) );
#110 = ORIENTED_EDGE ( 'NONE', *, *, #1, .F. ) ;
#111 = FACE_OUTER_BOUND ( 'NONE', #297, .T. ) ;
#112 = DIRECTION ( 'NONE',  ( -1.031281515071455799E-16, 1.000000000000000000, -0.000000000000000000 ) ) ;
#113 = STYLED_ITEM ( 'NONE', ( #14 ), #165 ) ;
#114 =( GEOMETRIC_REPRESENTATION_CONTEXT ( 3 ) GLOBAL_UNCERTAINTY_ASSIGNED_CONTEXT ( ( #211 ) ) GLOBAL_UNIT_ASSIGNED_CONTEXT ( ( #94, #284, #207 ) ) REPRESENTATION_CONTEXT ( 'NONE', 'WORKASPACE' ) );
#115 = SURFACE_STYLE_USAGE ( .BOTH. , #140 ) ;
#116 = EDGE_CURVE ( 'NONE', #212, #117, #34, .T. ) ;
#117 = VERTEX_POINT ( 'NONE', #261 ) ;
#118 = DIRECTION ( 'NONE',  ( 0.000000000000000000, -1.000000000000000000, -0.000000000000000000 ) ) ;
#119 = FACE_OUTER_BOUND ( 'NONE', #141, .T. ) ;
#120 = UNCERTAINTY_MEASURE_WITH_UNIT (LENGTH_MEASURE( 1.000000000000000082E-05 ), #295, 'distance_accuracy_value', 'NONE');
#121 = CLOSED_SHELL ( 'NONE', ( #246, #165, #58, #219 ) ) ;
#122 = DIRECTION ( 'NONE',  ( -1.000000000000000000, 0.000000000000000000, 0.000000000000000000 ) ) ;
#123 = ORIENTED_EDGE ( 'NONE', *, *, #135, .T. ) ;
#124 = CIRCLE ( 'NONE', #170, 0.2500000000000000000 ) ;
#125 = CARTESIAN_POINT ( 'NONE',  ( 0.2500000000000000000, 3.625000000000000444, 3.061616997868385483E-17 ) ) ;
#126 = STYLED_ITEM ( 'NONE', ( #19 ), #255 ) ;
#127 = APPLICATION_PROTOCOL_DEFINITION ( 'draft international standard', 'automotive_design', 1998, #258 ) ;
#128 = COLOUR_RGB ( '',1.000000000000000000, 0.000000000000000000, 0.000000000000000000 ) ;
#129 = DIMENSIONAL_EXPONENTS ( 1.000000000000000000, 0.000000000000000000, 0.000000000000000000, 0.000000000000000000, 0.000000000000000000, 0.000000000000000000, 0.000000000000000000 ) ;
#130 = SURFACE_STYLE_USAGE ( .BOTH. , #176 ) ;
#131 = DIRECTION ( 'NONE',  ( 0.000000000000000000, -0.000000000000000000, 1.000000000000000000 ) ) ;
#132 = DIMENSIONAL_EXPONENTS ( 1.000000000000000000, 0.000000000000000000, 0.000000000000000000, 0.000000000000000000, 0.000000000000000000, 0.000000000000000000, 0.000000000000000000 ) ;
#133 = STYLED_ITEM ( 'NONE', ( #5 ), #268 ) ;
#134 = DIRECTION ( 'NONE',  ( 0.000000000000000000, 1.000000000000000000, 0.000000000000000000 ) ) ;
#135 = EDGE_CURVE ( 'NONE', #117, #72, #155, .T. ) ;
#136 = PRODUCT_DEFINITION_CONTEXT ( 'detailed design', #258, 'design' ) ;
#137 = CARTESIAN_POINT ( 'NONE',  ( 0.000000000000000000, 3.625000000000000444, 0.000000000000000000 ) ) ;
#138 =( GEOMETRIC_REPRESENTATION_CONTEXT ( 3 ) GLOBAL_UNCERTAINTY_ASSIGNED_CONTEXT ( ( #120 ) ) GLOBAL_UNIT_ASSIGNED_CONTEXT ( ( #295, #222, #275 ) ) REPRESENTATION_CONTEXT ( 'NONE', 'WORKASPACE' ) );
#139 = FILL_AREA_STYLE ('',( #25 ) ) ;
#140 = SURFACE_SIDE_STYLE ('',( #203 ) ) ;
#141 = EDGE_LOOP ( 'NONE', ( #107, #16, #36, #204 ) ) ;
#142 = EDGE_LOOP ( 'NONE', ( #27, #18 ) ) ;
#143 = COLOUR_RGB ( '',1.000000000000000000, 0.000000000000000000, 0.000000000000000000 ) ;
#144 = FILL_AREA_STYLE_COLOUR ( '', #128 ) ;
#145 = ORIENTED_EDGE ( 'NONE', *, *, #281, .T. ) ;
#146 = DIRECTION ( 'NONE',  ( -1.000000000000000000, 0.000000000000000000, 0.000000000000000000 ) ) ;
#147 = CIRCLE ( 'NONE', #215, 0.2500000000000002220 ) ;
#148 = AXIS2_PLACEMENT_3D ( 'NONE', #137, #134, #131 ) ;
#149 =( NAMED_UNIT ( * ) PLANE_ANGLE_UNIT ( ) SI_UNIT ( $, .RADIAN. ) );
#150 =( GEOMETRIC_REPRESENTATION_CONTEXT ( 3 ) GLOBAL_UNCERTAINTY_ASSIGNED_CONTEXT ( ( #96 ) ) GLOBAL_UNIT_ASSIGNED_CONTEXT ( ( #173, #57, #239 ) ) REPRESENTATION_CONTEXT ( 'NONE', 'WORKASPACE' ) );
#151 = MECHANICAL_DESIGN_GEOMETRIC_PRESENTATION_REPRESENTATION (  '', ( #126 ), #109 ) ;
#152 = CARTESIAN_POINT ( 'NONE',  ( 3.061616997868383018E-17, 0.000000000000000000, 0.2500000000000000000 ) ) ;
#153 = LINE ( 'NONE', #152, #104 ) ;
#154 =( CONVERSION_BASED_UNIT ( 'INCH', #250 ) LENGTH_UNIT ( ) NAMED_UNIT ( #244 ) );
#155 = CIRCLE ( 'NONE', #23, 0.2500000000000000000 ) ;
#156 = MECHANICAL_DESIGN_GEOMETRIC_PRESENTATION_REPRESENTATION (  '', ( #63 ), #138 ) ;
#157 =( LENGTH_UNIT ( ) NAMED_UNIT ( * ) SI_UNIT ( $, .METRE. ) );
#158 = FILL_AREA_STYLE ('',( #106 ) ) ;
#159 = CARTESIAN_POINT ( 'NONE',  ( 0.000000000000000000, 0.000000000000000000, 0.000000000000000000 ) ) ;
#160 = AXIS2_PLACEMENT_3D ( 'NONE', #245, #112, #60 ) ;
#161 = DIRECTION ( 'NONE',  ( -1.031281515071455799E-16, 1.000000000000000000, -0.000000000000000000 ) ) ;
#162 = FILL_AREA_STYLE_COLOUR ( '', #143 ) ;
#163 = DIRECTION ( 'NONE',  ( -1.031281515071455676E-16, 1.000000000000000000, 0.000000000000000000 ) ) ;
#164 =( NAMED_UNIT ( * ) SI_UNIT ( $, .STERADIAN. ) SOLID_ANGLE_UNIT ( ) );
#165 = ADVANCED_FACE ( 'NONE', ( #178 ), #85, .T. ) ;
#166 = DIRECTION ( 'NONE',  ( -0.000000000000000000, -1.000000000000000000, -0.000000000000000000 ) ) ;
#167 = PRESENTATION_LAYER_ASSIGNMENT (  '', '', ( #300 ) ) ;
#168 = PRODUCT_DEFINITION ( 'UNKNOWN', '', #177, #136 ) ;
#169 = LENGTH_MEASURE_WITH_UNIT ( LENGTH_MEASURE( 0.02539999999999999897 ), #293 );
#170 = AXIS2_PLACEMENT_3D ( 'NONE', #243, #33, #174 ) ;
#171 =( CONVERSION_BASED_UNIT ( 'INCH', #263 ) LENGTH_UNIT ( ) NAMED_UNIT ( #129 ) );
#172 = PRESENTATION_LAYER_ASSIGNMENT (  '', '', ( #133 ) ) ;
#173 =( CONVERSION_BASED_UNIT ( 'INCH', #194 ) LENGTH_UNIT ( ) NAMED_UNIT ( #132 ) );
#174 = DIRECTION ( 'NONE',  ( -1.000000000000000000, 0.000000000000000000, 0.000000000000000000 ) ) ;
#175 = EDGE_CURVE ( 'NONE', #285, #72, #153, .T. ) ;
#176 = SURFACE_SIDE_STYLE ('',( #35 ) ) ;
#177 = PRODUCT_DEFINITION_FORMATION_WITH_SPECIFIED_SOURCE ( 'ANY', '', #73, .NOT_KNOWN. ) ;
#178 = FACE_OUTER_BOUND ( 'NONE', #22, .T. ) ;
#179 = ORIENTED_EDGE ( 'NONE', *, *, #89, .F. ) ;
#180 =( GEOMETRIC_REPRESENTATION_CONTEXT ( 3 ) GLOBAL_UNCERTAINTY_ASSIGNED_CONTEXT ( ( #231 ) ) GLOBAL_UNIT_ASSIGNED_CONTEXT ( ( #154, #88, #277 ) ) REPRESENTATION_CONTEXT ( 'NONE', 'WORKASPACE' ) );
#181 = DIRECTION ( 'NONE',  ( 1.031281515071455676E-16, -1.000000000000000000, 0.000000000000000000 ) ) ;
#182 = ADVANCED_FACE ( 'NONE', ( #197 ), #225, .T. ) ;
#183 = DIRECTION ( 'NONE',  ( -0.000000000000000000, -1.000000000000000000, -0.000000000000000000 ) ) ;
#184 = DIRECTION ( 'NONE',  ( -1.000000000000000000, 0.000000000000000000, 0.000000000000000000 ) ) ;
#185 =( CONVERSION_BASED_UNIT ( 'INCH', #21 ) LENGTH_UNIT ( ) NAMED_UNIT ( #32 ) );
#186 = ORIENTED_EDGE ( 'NONE', *, *, #39, .T. ) ;
#187 =( NAMED_UNIT ( * ) PLANE_ANGLE_UNIT ( ) SI_UNIT ( $, .RADIAN. ) );
#188 = PRESENTATION_STYLE_ASSIGNMENT (( #95 ) ) ;
#189 = DIRECTION ( 'NONE',  ( 0.000000000000000000, 0.000000000000000000, -1.000000000000000000 ) ) ;
#190 = DIRECTION ( 'NONE',  ( -0.000000000000000000, -1.000000000000000000, -0.000000000000000000 ) ) ;
#191 =( NAMED_UNIT ( * ) PLANE_ANGLE_UNIT ( ) SI_UNIT ( $, .RADIAN. ) );
#192 = COLOUR_RGB ( '',1.000000000000000000, 0.000000000000000000, 0.000000000000000000 ) ;
#193 = DIRECTION ( 'NONE',  ( -1.031281515071455799E-16, 1.000000000000000000, -0.000000000000000000 ) ) ;
#194 = LENGTH_MEASURE_WITH_UNIT ( LENGTH_MEASURE( 0.02539999999999999897 ), #105 );
#195 = DIRECTION ( 'NONE',  ( -0.000000000000000000, -1.000000000000000000, -0.000000000000000000 ) ) ;
#196 = DIMENSIONAL_EXPONENTS ( 1.000000000000000000, 0.000000000000000000, 0.000000000000000000, 0.000000000000000000, 0.000000000000000000, 0.000000000000000000, 0.000000000000000000 ) ;
#197 = FACE_OUTER_BOUND ( 'NONE', #67, .T. ) ;
#198 = EDGE_LOOP ( 'NONE', ( #186, #237, #278, #2 ) ) ;
#199 = ADVANCED_FACE ( 'NONE', ( #273 ), #202, .F. ) ;
#200 = SURFACE_STYLE_USAGE ( .BOTH. , #228 ) ;
#201 = VERTEX_POINT ( 'NONE', #298 ) ;
#202 = PLANE ( 'NONE',  #306 ) ;
#203 = SURFACE_STYLE_FILL_AREA ( #90 ) ;
#204 = ORIENTED_EDGE ( 'NONE', *, *, #48, .F. ) ;
#205 = SURFACE_STYLE_FILL_AREA ( #139 ) ;
#206 = VERTEX_POINT ( 'NONE', #299 ) ;
#207 =( NAMED_UNIT ( * ) SI_UNIT ( $, .STERADIAN. ) SOLID_ANGLE_UNIT ( ) );
#208 = CARTESIAN_POINT ( 'NONE',  ( -2.449293598294707400E-16, 6.000000000000000888, 0.000000000000000000 ) ) ;
#209 = CLOSED_SHELL ( 'NONE', ( #81, #37, #182, #199 ) ) ;
#210 = ORIENTED_EDGE ( 'NONE', *, *, #135, .F. ) ;
#211 = UNCERTAINTY_MEASURE_WITH_UNIT (LENGTH_MEASURE( 1.000000000000000082E-05 ), #94, 'distance_accuracy_value', 'NONE');
#212 = VERTEX_POINT ( 'NONE', #15 ) ;
#213 = SURFACE_STYLE_USAGE ( .BOTH. , #79 ) ;
#214 = CARTESIAN_POINT ( 'NONE',  ( 0.000000000000000000, 3.625000000000000444, 0.000000000000000000 ) ) ;
#215 = AXIS2_PLACEMENT_3D ( 'NONE', #208, #161, #122 ) ;
#216 = DIRECTION ( 'NONE',  ( -0.000000000000000000, -1.000000000000000000, -0.000000000000000000 ) ) ;
#217 = CARTESIAN_POINT ( 'NONE',  ( 3.061616997868383018E-17, 0.000000000000000000, 0.2500000000000000000 ) ) ;
#218 = CARTESIAN_POINT ( 'NONE',  ( -2.449293598294707400E-16, 6.000000000000000888, 0.000000000000000000 ) ) ;
#219 = ADVANCED_FACE ( 'NONE', ( #111 ), #65, .T. ) ;
#220 = CARTESIAN_POINT ( 'NONE',  ( -2.449293598294707400E-16, 6.000000000000000888, 0.000000000000000000 ) ) ;
#221 = EDGE_CURVE ( 'NONE', #212, #285, #92, .T. ) ;
#222 =( NAMED_UNIT ( * ) PLANE_ANGLE_UNIT ( ) SI_UNIT ( $, .RADIAN. ) );
#223 = ORIENTED_EDGE ( 'NONE', *, *, #83, .T. ) ;
#224 = DIMENSIONAL_EXPONENTS ( 1.000000000000000000, 0.000000000000000000, 0.000000000000000000, 0.000000000000000000, 0.000000000000000000, 0.000000000000000000, 0.000000000000000000 ) ;
#225 = CYLINDRICAL_SURFACE ( 'NONE', #160, 0.2500000000000001110 ) ;
#226 = EDGE_LOOP ( 'NONE', ( #100, #303, #210, #64 ) ) ;
#227 = CARTESIAN_POINT ( 'NONE',  ( 0.2500000000000000000, 6.000000000000000888, 0.000000000000000000 ) ) ;
#228 = SURFACE_SIDE_STYLE ('',( #248 ) ) ;
#229 = MECHANICAL_DESIGN_GEOMETRIC_PRESENTATION_REPRESENTATION (  '', ( #300 ), #99 ) ;
#230 = CARTESIAN_POINT ( 'NONE',  ( 1.329426954160096669E-33, 3.625000000000000444, 0.000000000000000000 ) ) ;
#231 = UNCERTAINTY_MEASURE_WITH_UNIT (LENGTH_MEASURE( 1.000000000000000082E-05 ), #154, 'distance_accuracy_value', 'NONE');
#232 = CARTESIAN_POINT ( 'NONE',  ( 0.000000000000000000, 0.000000000000000000, 0.000000000000000000 ) ) ;
#233 = VECTOR ( 'NONE', #238, 39.37007874015748143 ) ;
#234 = PRESENTATION_LAYER_ASSIGNMENT (  '', '', ( #63 ) ) ;
#235 = CARTESIAN_POINT ( 'NONE',  ( -0.2500000000000003886, 6.000000000000000888, 0.000000000000000000 ) ) ;
#236 =( LENGTH_UNIT ( ) NAMED_UNIT ( * ) SI_UNIT ( $, .METRE. ) );
#237 = ORIENTED_EDGE ( 'NONE', *, *, #103, .T. ) ;
#238 = DIRECTION ( 'NONE',  ( -1.031281515071455676E-16, 1.000000000000000000, -0.000000000000000000 ) ) ;
#239 =( NAMED_UNIT ( * ) SI_UNIT ( $, .STERADIAN. ) SOLID_ANGLE_UNIT ( ) );
#240 = SHAPE_DEFINITION_REPRESENTATION ( #24, #41 ) ;
#241 = CARTESIAN_POINT ( 'NONE',  ( 3.061616997868383018E-17, 3.625000000000000444, 0.2500000000000000000 ) ) ;
#242 = AXIS2_PLACEMENT_3D ( 'NONE', #82, #102, #271 ) ;
#243 = CARTESIAN_POINT ( 'NONE',  ( 0.000000000000000000, 3.625000000000000444, 0.000000000000000000 ) ) ;
#244 = DIMENSIONAL_EXPONENTS ( 1.000000000000000000, 0.000000000000000000, 0.000000000000000000, 0.000000000000000000, 0.000000000000000000, 0.000000000000000000, 0.000000000000000000 ) ;
#245 = CARTESIAN_POINT ( 'NONE',  ( -2.449293598294707400E-16, 6.000000000000000888, 0.000000000000000000 ) ) ;
#246 = ADVANCED_FACE ( 'NONE', ( #66 ), #282, .T. ) ;
#247 = DIRECTION ( 'NONE',  ( -0.000000000000000000, -1.000000000000000000, -0.000000000000000000 ) ) ;
#248 = SURFACE_STYLE_FILL_AREA ( #61 ) ;
#249 = VECTOR ( 'NONE', #195, 39.37007874015748143 ) ;
#250 = LENGTH_MEASURE_WITH_UNIT ( LENGTH_MEASURE( 0.02539999999999999897 ), #157 );
#251 = DIRECTION ( 'NONE',  ( -1.031281515071455799E-16, 1.000000000000000000, -0.000000000000000000 ) ) ;
#252 = COLOUR_RGB ( '',1.000000000000000000, 0.000000000000000000, 0.000000000000000000 ) ;
#253 = FILL_AREA_STYLE ('',( #162 ) ) ;
#254 = VERTEX_POINT ( 'NONE', #45 ) ;
#255 = MANIFOLD_SOLID_BREP ( 'Revolve - Cutting Edge', #121 ) ;
#256 = LENGTH_MEASURE_WITH_UNIT ( LENGTH_MEASURE( 0.02539999999999999897 ), #26 );
#257 = ORIENTED_EDGE ( 'NONE', *, *, #221, .F. ) ;
#258 = APPLICATION_CONTEXT ( 'automotive_design' ) ;
#259 = COLOUR_RGB ( '',0.7921568627450980005, 0.8196078431372548767, 0.9333333333333333481 ) ;
#260 =( LENGTH_UNIT ( ) NAMED_UNIT ( * ) SI_UNIT ( $, .METRE. ) );
#261 = CARTESIAN_POINT ( 'NONE',  ( 0.000000000000000000, 0.000000000000000000, -0.2500000000000000000 ) ) ;
#262 = PRODUCT_CONTEXT ( 'NONE', #54, 'mechanical' ) ;
#263 = LENGTH_MEASURE_WITH_UNIT ( LENGTH_MEASURE( 0.02539999999999999897 ), #236 );
#264 = UNCERTAINTY_MEASURE_WITH_UNIT (LENGTH_MEASURE( 1.000000000000000082E-05 ), #171, 'distance_accuracy_value', 'NONE');
#265 = DIRECTION ( 'NONE',  ( -1.031281515071455676E-16, 1.000000000000000000, -0.000000000000000000 ) ) ;
#266 = AXIS2_PLACEMENT_3D ( 'NONE', #308, #183, #50 ) ;
#267 = CYLINDRICAL_SURFACE ( 'NONE', #84, 0.2500000000000001110 ) ;
#268 = MANIFOLD_SOLID_BREP ( 'Revolve - Tool Body (Straight Shanked)', #209 ) ;
#269 = CARTESIAN_POINT ( 'NONE',  ( 0.2499999999999998890, 6.000000000000000888, 3.061616997868384251E-17 ) ) ;
#270 = CARTESIAN_POINT ( 'NONE',  ( 0.000000000000000000, 0.000000000000000000, 0.000000000000000000 ) ) ;
#271 = DIRECTION ( 'NONE',  ( 0.000000000000000000, 0.000000000000000000, -1.000000000000000000 ) ) ;
#272 = AXIS2_PLACEMENT_3D ( 'NONE', #270, #55, #59 ) ;
#273 = FACE_OUTER_BOUND ( 'NONE', #142, .T. ) ;
#274 = FILL_AREA_STYLE_COLOUR ( '', #192 ) ;
#275 =( NAMED_UNIT ( * ) SI_UNIT ( $, .STERADIAN. ) SOLID_ANGLE_UNIT ( ) );
#276 = UNCERTAINTY_MEASURE_WITH_UNIT (LENGTH_MEASURE( 1.000000000000000082E-05 ), #8, 'distance_accuracy_value', 'NONE');
#277 =( NAMED_UNIT ( * ) SI_UNIT ( $, .STERADIAN. ) SOLID_ANGLE_UNIT ( ) );
#278 = ORIENTED_EDGE ( 'NONE', *, *, #52, .F. ) ;
#279 = AXIS2_PLACEMENT_3D ( 'NONE', #75, #166, #286 ) ;
#280 = FILL_AREA_STYLE_COLOUR ( '', #30 ) ;
#281 = EDGE_CURVE ( 'NONE', #206, #201, #42, .T. ) ;
#282 = CYLINDRICAL_SURFACE ( 'NONE', #279, 0.2500000000000000000 ) ;
#283 = DIRECTION ( 'NONE',  ( -0.000000000000000000, -1.000000000000000000, -0.000000000000000000 ) ) ;
#284 =( NAMED_UNIT ( * ) PLANE_ANGLE_UNIT ( ) SI_UNIT ( $, .RADIAN. ) );
#285 = VERTEX_POINT ( 'NONE', #241 ) ;
#286 = DIRECTION ( 'NONE',  ( 0.000000000000000000, 0.000000000000000000, -1.000000000000000000 ) ) ;
#287 = SURFACE_STYLE_USAGE ( .BOTH. , #68 ) ;
#288 = PRESENTATION_LAYER_ASSIGNMENT (  '', '', ( #113 ) ) ;
#289 = MECHANICAL_DESIGN_GEOMETRIC_PRESENTATION_REPRESENTATION (  '', ( #133 ), #150 ) ;
#290 = PRESENTATION_LAYER_ASSIGNMENT (  '', '', ( #126 ) ) ;
#291 = PLANE ( 'NONE',  #305 ) ;
#292 = APPLICATION_PROTOCOL_DEFINITION ( 'draft international standard', 'automotive_design', 1998, #54 ) ;
#293 =( LENGTH_UNIT ( ) NAMED_UNIT ( * ) SI_UNIT ( $, .METRE. ) );
#294 = DIRECTION ( 'NONE',  ( -1.031281515071455799E-16, 1.000000000000000000, -0.000000000000000000 ) ) ;
#295 =( CONVERSION_BASED_UNIT ( 'INCH', #17 ) LENGTH_UNIT ( ) NAMED_UNIT ( #11 ) );
#296 = CIRCLE ( 'NONE', #38, 0.2500000000000002220 ) ;
#297 = EDGE_LOOP ( 'NONE', ( #123, #44 ) ) ;
#298 = CARTESIAN_POINT ( 'NONE',  ( -0.2500000000000004996, 6.000000000000000888, 0.000000000000000000 ) ) ;
#299 = CARTESIAN_POINT ( 'NONE',  ( -0.2500000000000000000, 3.625000000000000444, 0.000000000000000000 ) ) ;
#300 = STYLED_ITEM ( 'NONE', ( #188 ), #58 ) ;
#301 = MECHANICAL_DESIGN_GEOMETRIC_PRESENTATION_REPRESENTATION (  '', ( #53 ), #114 ) ;
#302 = ORIENTED_EDGE ( 'NONE', *, *, #103, .F. ) ;
#303 = ORIENTED_EDGE ( 'NONE', *, *, #175, .T. ) ;
#304 = FILL_AREA_STYLE ('',( #144 ) ) ;
#305 = AXIS2_PLACEMENT_3D ( 'NONE', #230, #163, #20 ) ;
#306 = AXIS2_PLACEMENT_3D ( 'NONE', #227, #181, #12 ) ;
#307 = UNCERTAINTY_MEASURE_WITH_UNIT (LENGTH_MEASURE( 1.000000000000000082E-05 ), #185, 'distance_accuracy_value', 'NONE');
#308 = CARTESIAN_POINT ( 'NONE',  ( 0.000000000000000000, 3.625000000000000444, 0.000000000000000000 ) ) ;
#309 = SURFACE_SIDE_STYLE ('',( #93 ) ) ;
ENDSEC;
END-ISO-10303-21;
