ISO-10303-21;
HEADER;
FILE_DESCRIPTION (( 'STEP AP214' ),
    '1' );
FILE_NAME ('48336.STEP',
    '2023-06-22T21:26:53',
    ( '' ),
    ( '' ),
    'SwSTEP 2.0',
    'SolidWorks 2023',
    '' );
FILE_SCHEMA (( 'AUTOMOTIVE_DESIGN' ));
ENDSEC;

DATA;
#1 = FILL_AREA_STYLE ('',( #30 ) ) ;
#2 = MANIFOLD_SOLID_BREP ( 'Revolve - Cutting Edge', #194 ) ;
#3 = AXIS2_PLACEMENT_3D ( 'NONE', #66, #307, #111 ) ;
#4 = DIRECTION ( 'NONE',  ( -1.000000000000000000, 0.000000000000000000, 0.000000000000000000 ) ) ;
#5 = MANIFOLD_SOLID_BREP ( 'Revolve - Tool Body (Straight Shanked)', #172 ) ;
#6 = EDGE_CURVE ( 'NONE', #289, #285, #220, .T. ) ;
#7 = FACE_OUTER_BOUND ( 'NONE', #134, .T. ) ;
#8 = AXIS2_PLACEMENT_3D ( 'NONE', #163, #45, #88 ) ;
#9 = DIRECTION ( 'NONE',  ( 6.531449595452550356E-17, 1.000000000000000000, -0.000000000000000000 ) ) ;
#10 = PRODUCT_DEFINITION_SHAPE ( 'NONE', 'NONE',  #29 ) ;
#11 = UNCERTAINTY_MEASURE_WITH_UNIT (LENGTH_MEASURE( 1.000000000000000082E-05 ), #139, 'distance_accuracy_value', 'NONE');
#12 = DIRECTION ( 'NONE',  ( 1.000000000000000000, 0.000000000000000000, 0.000000000000000000 ) ) ;
#13 = ORIENTED_EDGE ( 'NONE', *, *, #33, .F. ) ;
#14 = COLOUR_RGB ( '',1.000000000000000000, 0.000000000000000000, 0.000000000000000000 ) ;
#15 = DIRECTION ( 'NONE',  ( -6.531449595452550356E-17, -1.000000000000000000, 0.000000000000000000 ) ) ;
#16 = ORIENTED_EDGE ( 'NONE', *, *, #17, .F. ) ;
#17 = EDGE_CURVE ( 'NONE', #266, #285, #63, .T. ) ;
#18 = VERTEX_POINT ( 'NONE', #117 ) ;
#19 = CIRCLE ( 'NONE', #85, 0.2500000000000000000 ) ;
#20 = EDGE_LOOP ( 'NONE', ( #68, #137 ) ) ;
#21 = ORIENTED_EDGE ( 'NONE', *, *, #36, .T. ) ;
#22 = DIRECTION ( 'NONE',  ( -0.000000000000000000, -1.000000000000000000, -0.000000000000000000 ) ) ;
#23 = EDGE_CURVE ( 'NONE', #169, #281, #114, .T. ) ;
#24 =( NAMED_UNIT ( * ) SI_UNIT ( $, .STERADIAN. ) SOLID_ANGLE_UNIT ( ) );
#25 = FACE_OUTER_BOUND ( 'NONE', #144, .T. ) ;
#26 = VECTOR ( 'NONE', #222, 39.37007874015748143 ) ;
#27 = FILL_AREA_STYLE_COLOUR ( '', #52 ) ;
#28 =( GEOMETRIC_REPRESENTATION_CONTEXT ( 3 ) GLOBAL_UNCERTAINTY_ASSIGNED_CONTEXT ( ( #102 ) ) GLOBAL_UNIT_ASSIGNED_CONTEXT ( ( #156, #302, #130 ) ) REPRESENTATION_CONTEXT ( 'NONE', 'WORKASPACE' ) );
#29 = PRODUCT_DEFINITION ( 'UNKNOWN', '', #226, #60 ) ;
#30 = FILL_AREA_STYLE_COLOUR ( '', #39 ) ;
#31 = FACE_OUTER_BOUND ( 'NONE', #51, .T. ) ;
#32 = AXIS2_PLACEMENT_3D ( 'NONE', #214, #9, #276 ) ;
#33 = EDGE_CURVE ( 'NONE', #18, #266, #87, .T. ) ;
#34 = DIRECTION ( 'NONE',  ( -0.000000000000000000, -1.000000000000000000, -0.000000000000000000 ) ) ;
#35 = AXIS2_PLACEMENT_3D ( 'NONE', #76, #174, #274 ) ;
#36 = EDGE_CURVE ( 'NONE', #289, #18, #181, .T. ) ;
#37 = SURFACE_SIDE_STYLE ('',( #138 ) ) ;
#38 =( LENGTH_UNIT ( ) NAMED_UNIT ( * ) SI_UNIT ( $, .METRE. ) );
#39 = COLOUR_RGB ( '',0.7921568627450980005, 0.8196078431372548767, 0.9333333333333333481 ) ;
#40 = AXIS2_PLACEMENT_3D ( 'NONE', #54, #57, #151 ) ;
#41 = CARTESIAN_POINT ( 'NONE',  ( 0.2499999999999999722, 2.500000000000000000, 0.000000000000000000 ) ) ;
#42 = CARTESIAN_POINT ( 'NONE',  ( 0.000000000000000000, 0.000000000000000000, 0.000000000000000000 ) ) ;
#43 =( LENGTH_UNIT ( ) NAMED_UNIT ( * ) SI_UNIT ( $, .METRE. ) );
#44 =( GEOMETRIC_REPRESENTATION_CONTEXT ( 3 ) GLOBAL_UNCERTAINTY_ASSIGNED_CONTEXT ( ( #264 ) ) GLOBAL_UNIT_ASSIGNED_CONTEXT ( ( #110, #53, #24 ) ) REPRESENTATION_CONTEXT ( 'NONE', 'WORKASPACE' ) );
#45 = DIRECTION ( 'NONE',  ( -0.000000000000000000, -1.000000000000000000, -0.000000000000000000 ) ) ;
#46 = EDGE_LOOP ( 'NONE', ( #189, #248, #186, #301 ) ) ;
#47 = SURFACE_SIDE_STYLE ('',( #208 ) ) ;
#48 = SURFACE_STYLE_USAGE ( .BOTH. , #37 ) ;
#49 = SURFACE_SIDE_STYLE ('',( #70 ) ) ;
#50 = LINE ( 'NONE', #56, #150 ) ;
#51 = EDGE_LOOP ( 'NONE', ( #21, #112, #229, #293 ) ) ;
#52 = COLOUR_RGB ( '',0.7921568627450980005, 0.8196078431372548767, 0.9333333333333333481 ) ;
#53 =( NAMED_UNIT ( * ) PLANE_ANGLE_UNIT ( ) SI_UNIT ( $, .RADIAN. ) );
#54 = CARTESIAN_POINT ( 'NONE',  ( 0.000000000000000000, 0.6250000000000000000, 0.000000000000000000 ) ) ;
#55 = CARTESIAN_POINT ( 'NONE',  ( 0.000000000000000000, 0.000000000000000000, 0.000000000000000000 ) ) ;
#56 = CARTESIAN_POINT ( 'NONE',  ( -0.2499999999999997502, 2.500000000000000000, 0.000000000000000000 ) ) ;
#57 = DIRECTION ( 'NONE',  ( 6.531449595452550356E-17, 1.000000000000000000, -0.000000000000000000 ) ) ;
#58 = ADVANCED_FACE ( 'NONE', ( #185 ), #180, .F. ) ;
#59 = PRESENTATION_LAYER_ASSIGNMENT (  '', '', ( #273 ) ) ;
#60 = PRODUCT_DEFINITION_CONTEXT ( 'detailed design', #255, 'design' ) ;
#61 = SURFACE_STYLE_FILL_AREA ( #82 ) ;
#62 = LENGTH_MEASURE_WITH_UNIT ( LENGTH_MEASURE( 0.02539999999999999897 ), #38 );
#63 = CIRCLE ( 'NONE', #204, 0.2500000000000000000 ) ;
#64 = ORIENTED_EDGE ( 'NONE', *, *, #36, .F. ) ;
#65 = PRESENTATION_STYLE_ASSIGNMENT (( #221 ) ) ;
#66 = CARTESIAN_POINT ( 'NONE',  ( 1.224646799147353207E-16, 2.500000000000000000, 0.000000000000000000 ) ) ;
#67 = DIRECTION ( 'NONE',  ( -1.000000000000000000, 0.000000000000000000, 0.000000000000000000 ) ) ;
#68 = ORIENTED_EDGE ( 'NONE', *, *, #126, .T. ) ;
#69 = ADVANCED_BREP_SHAPE_REPRESENTATION ( '48336', ( #2, #5, #155 ), #28 ) ;
#70 = SURFACE_STYLE_FILL_AREA ( #284 ) ;
#71 =( LENGTH_UNIT ( ) NAMED_UNIT ( * ) SI_UNIT ( $, .METRE. ) );
#72 = CIRCLE ( 'NONE', #32, 0.2499999999999999722 ) ;
#73 =( NAMED_UNIT ( * ) SI_UNIT ( $, .STERADIAN. ) SOLID_ANGLE_UNIT ( ) );
#74 =( NAMED_UNIT ( * ) PLANE_ANGLE_UNIT ( ) SI_UNIT ( $, .RADIAN. ) );
#75 = STYLED_ITEM ( 'NONE', ( #176 ), #5 ) ;
#76 = CARTESIAN_POINT ( 'NONE',  ( 5.332479227242159300E-34, 0.6250000000000000000, 0.000000000000000000 ) ) ;
#77 = DIRECTION ( 'NONE',  ( 0.000000000000000000, -1.000000000000000000, -0.000000000000000000 ) ) ;
#78 = DIRECTION ( 'NONE',  ( -0.000000000000000000, -1.000000000000000000, -0.000000000000000000 ) ) ;
#79 = CARTESIAN_POINT ( 'NONE',  ( 1.224646799147353207E-16, 2.500000000000000000, 0.000000000000000000 ) ) ;
#80 = ADVANCED_FACE ( 'NONE', ( #165 ), #228, .T. ) ;
#81 = CIRCLE ( 'NONE', #40, 0.2499999999999999722 ) ;
#82 = FILL_AREA_STYLE ('',( #131 ) ) ;
#83 = CARTESIAN_POINT ( 'NONE',  ( 0.2500000000000000000, 2.500000000000000000, 3.061616997868382402E-17 ) ) ;
#84 = LENGTH_MEASURE_WITH_UNIT ( LENGTH_MEASURE( 0.02539999999999999897 ), #161 );
#85 = AXIS2_PLACEMENT_3D ( 'NONE', #55, #78, #241 ) ;
#86 =( LENGTH_UNIT ( ) NAMED_UNIT ( * ) SI_UNIT ( $, .METRE. ) );
#87 = LINE ( 'NONE', #182, #235 ) ;
#88 = DIRECTION ( 'NONE',  ( 0.000000000000000000, 0.000000000000000000, -1.000000000000000000 ) ) ;
#89 = ORIENTED_EDGE ( 'NONE', *, *, #23, .T. ) ;
#90 = SURFACE_STYLE_USAGE ( .BOTH. , #47 ) ;
#91 = PRESENTATION_STYLE_ASSIGNMENT (( #184 ) ) ;
#92 = STYLED_ITEM ( 'NONE', ( #65 ), #291 ) ;
#93 = SURFACE_SIDE_STYLE ('',( #124 ) ) ;
#94 = DIMENSIONAL_EXPONENTS ( 1.000000000000000000, 0.000000000000000000, 0.000000000000000000, 0.000000000000000000, 0.000000000000000000, 0.000000000000000000, 0.000000000000000000 ) ;
#95 = UNCERTAINTY_MEASURE_WITH_UNIT (LENGTH_MEASURE( 1.000000000000000082E-05 ), #271, 'distance_accuracy_value', 'NONE');
#96 = ORIENTED_EDGE ( 'NONE', *, *, #6, .T. ) ;
#97 = SURFACE_STYLE_FILL_AREA ( #1 ) ;
#98 = PRESENTATION_LAYER_ASSIGNMENT (  '', '', ( #92 ) ) ;
#99 = DIRECTION ( 'NONE',  ( 6.531449595452550356E-17, 1.000000000000000000, -0.000000000000000000 ) ) ;
#100 = AXIS2_PLACEMENT_3D ( 'NONE', #41, #15, #288 ) ;
#101 = PRESENTATION_LAYER_ASSIGNMENT (  '', '', ( #290 ) ) ;
#102 = UNCERTAINTY_MEASURE_WITH_UNIT (LENGTH_MEASURE( 1.000000000000000082E-05 ), #156, 'distance_accuracy_value', 'NONE');
#103 = VERTEX_POINT ( 'NONE', #168 ) ;
#104 =( CONVERSION_BASED_UNIT ( 'INCH', #296 ) LENGTH_UNIT ( ) NAMED_UNIT ( #94 ) );
#105 = MECHANICAL_DESIGN_GEOMETRIC_PRESENTATION_REPRESENTATION (  '', ( #273 ), #160 ) ;
#106 = ADVANCED_FACE ( 'NONE', ( #31 ), #243, .T. ) ;
#107 = DIRECTION ( 'NONE',  ( 6.531449595452550356E-17, 1.000000000000000000, -0.000000000000000000 ) ) ;
#108 = FILL_AREA_STYLE_COLOUR ( '', #283 ) ;
#109 = PLANE ( 'NONE',  #210 ) ;
#110 =( CONVERSION_BASED_UNIT ( 'INCH', #197 ) LENGTH_UNIT ( ) NAMED_UNIT ( #115 ) );
#111 = DIRECTION ( 'NONE',  ( -1.000000000000000000, 0.000000000000000000, 0.000000000000000000 ) ) ;
#112 = ORIENTED_EDGE ( 'NONE', *, *, #33, .T. ) ;
#113 = SURFACE_SIDE_STYLE ('',( #61 ) ) ;
#114 = CIRCLE ( 'NONE', #3, 0.2499999999999998335 ) ;
#115 = DIMENSIONAL_EXPONENTS ( 1.000000000000000000, 0.000000000000000000, 0.000000000000000000, 0.000000000000000000, 0.000000000000000000, 0.000000000000000000, 0.000000000000000000 ) ;
#116 = EDGE_CURVE ( 'NONE', #103, #209, #81, .T. ) ;
#117 = CARTESIAN_POINT ( 'NONE',  ( 3.061616997868382402E-17, 0.6250000000000000000, 0.2499999999999999722 ) ) ;
#118 = APPLICATION_PROTOCOL_DEFINITION ( 'draft international standard', 'automotive_design', 1998, #255 ) ;
#119 = LENGTH_MEASURE_WITH_UNIT ( LENGTH_MEASURE( 0.02539999999999999897 ), #71 );
#120 = SURFACE_STYLE_USAGE ( .BOTH. , #93 ) ;
#121 = EDGE_LOOP ( 'NONE', ( #89, #170 ) ) ;
#122 = CARTESIAN_POINT ( 'NONE',  ( 1.224646799147353207E-16, 2.500000000000000000, 0.000000000000000000 ) ) ;
#123 = PRESENTATION_STYLE_ASSIGNMENT (( #120 ) ) ;
#124 = SURFACE_STYLE_FILL_AREA ( #234 ) ;
#125 = CYLINDRICAL_SURFACE ( 'NONE', #132, 0.2499999999999998890 ) ;
#126 = EDGE_CURVE ( 'NONE', #285, #266, #19, .T. ) ;
#127 = DIRECTION ( 'NONE',  ( 0.000000000000000000, 0.000000000000000000, -1.000000000000000000 ) ) ;
#128 = MECHANICAL_DESIGN_GEOMETRIC_PRESENTATION_REPRESENTATION (  '', ( #215 ), #44 ) ;
#129 = MECHANICAL_DESIGN_GEOMETRIC_PRESENTATION_REPRESENTATION (  '', ( #92 ), #171 ) ;
#130 =( NAMED_UNIT ( * ) SI_UNIT ( $, .STERADIAN. ) SOLID_ANGLE_UNIT ( ) );
#131 = FILL_AREA_STYLE_COLOUR ( '', #14 ) ;
#132 = AXIS2_PLACEMENT_3D ( 'NONE', #122, #99, #4 ) ;
#133 = DIRECTION ( 'NONE',  ( -0.000000000000000000, -1.000000000000000000, -0.000000000000000000 ) ) ;
#134 = EDGE_LOOP ( 'NONE', ( #192, #142 ) ) ;
#135 = FILL_AREA_STYLE_COLOUR ( '', #306 ) ;
#136 =( LENGTH_UNIT ( ) NAMED_UNIT ( * ) SI_UNIT ( $, .METRE. ) );
#137 = ORIENTED_EDGE ( 'NONE', *, *, #17, .T. ) ;
#138 = SURFACE_STYLE_FILL_AREA ( #203 ) ;
#139 =( CONVERSION_BASED_UNIT ( 'INCH', #119 ) LENGTH_UNIT ( ) NAMED_UNIT ( #237 ) );
#140 = MECHANICAL_DESIGN_GEOMETRIC_PRESENTATION_REPRESENTATION (  '', ( #272 ), #159 ) ;
#141 = CARTESIAN_POINT ( 'NONE',  ( 0.000000000000000000, 0.000000000000000000, 0.000000000000000000 ) ) ;
#142 = ORIENTED_EDGE ( 'NONE', *, *, #187, .F. ) ;
#143 = CARTESIAN_POINT ( 'NONE',  ( 0.2500000000000000555, 2.500000000000000000, 3.061616997868381785E-17 ) ) ;
#144 = EDGE_LOOP ( 'NONE', ( #294, #231, #223, #265 ) ) ;
#145 =( GEOMETRIC_REPRESENTATION_CONTEXT ( 3 ) GLOBAL_UNCERTAINTY_ASSIGNED_CONTEXT ( ( #287 ) ) GLOBAL_UNIT_ASSIGNED_CONTEXT ( ( #104, #260, #258 ) ) REPRESENTATION_CONTEXT ( 'NONE', 'WORKASPACE' ) );
#146 = VECTOR ( 'NONE', #233, 39.37007874015748143 ) ;
#147 = SURFACE_STYLE_USAGE ( .BOTH. , #195 ) ;
#148 = CARTESIAN_POINT ( 'NONE',  ( 0.000000000000000000, 0.6250000000000000000, 0.000000000000000000 ) ) ;
#149 = DIRECTION ( 'NONE',  ( 6.531449595452550356E-17, 1.000000000000000000, -0.000000000000000000 ) ) ;
#150 = VECTOR ( 'NONE', #149, 39.37007874015748143 ) ;
#151 = DIRECTION ( 'NONE',  ( -1.000000000000000000, 0.000000000000000000, 0.000000000000000000 ) ) ;
#152 = CYLINDRICAL_SURFACE ( 'NONE', #268, 0.2499999999999998890 ) ;
#153 = ADVANCED_FACE ( 'NONE', ( #7 ), #297, .F. ) ;
#154 = DIRECTION ( 'NONE',  ( -0.000000000000000000, -1.000000000000000000, -0.000000000000000000 ) ) ;
#155 = AXIS2_PLACEMENT_3D ( 'NONE', #303, #278, #12 ) ;
#156 =( CONVERSION_BASED_UNIT ( 'INCH', #84 ) LENGTH_UNIT ( ) NAMED_UNIT ( #157 ) );
#157 = DIMENSIONAL_EXPONENTS ( 1.000000000000000000, 0.000000000000000000, 0.000000000000000000, 0.000000000000000000, 0.000000000000000000, 0.000000000000000000, 0.000000000000000000 ) ;
#158 = CARTESIAN_POINT ( 'NONE',  ( 1.224646799147353207E-16, 2.500000000000000000, 0.000000000000000000 ) ) ;
#159 =( GEOMETRIC_REPRESENTATION_CONTEXT ( 3 ) GLOBAL_UNCERTAINTY_ASSIGNED_CONTEXT ( ( #11 ) ) GLOBAL_UNIT_ASSIGNED_CONTEXT ( ( #139, #262, #269 ) ) REPRESENTATION_CONTEXT ( 'NONE', 'WORKASPACE' ) );
#160 =( GEOMETRIC_REPRESENTATION_CONTEXT ( 3 ) GLOBAL_UNCERTAINTY_ASSIGNED_CONTEXT ( ( #95 ) ) GLOBAL_UNIT_ASSIGNED_CONTEXT ( ( #271, #74, #73 ) ) REPRESENTATION_CONTEXT ( 'NONE', 'WORKASPACE' ) );
#161 =( LENGTH_UNIT ( ) NAMED_UNIT ( * ) SI_UNIT ( $, .METRE. ) );
#162 = ORIENTED_EDGE ( 'NONE', *, *, #167, .T. ) ;
#163 = CARTESIAN_POINT ( 'NONE',  ( 0.000000000000000000, 0.6250000000000000000, 0.000000000000000000 ) ) ;
#164 = CIRCLE ( 'NONE', #256, 0.2499999999999998335 ) ;
#165 = FACE_OUTER_BOUND ( 'NONE', #166, .T. ) ;
#166 = EDGE_LOOP ( 'NONE', ( #13, #162, #96, #16 ) ) ;
#167 = EDGE_CURVE ( 'NONE', #18, #289, #227, .T. ) ;
#168 = CARTESIAN_POINT ( 'NONE',  ( -0.2499999999999999722, 0.6250000000000000000, 0.000000000000000000 ) ) ;
#169 = VERTEX_POINT ( 'NONE', #239 ) ;
#170 = ORIENTED_EDGE ( 'NONE', *, *, #245, .T. ) ;
#171 =( GEOMETRIC_REPRESENTATION_CONTEXT ( 3 ) GLOBAL_UNCERTAINTY_ASSIGNED_CONTEXT ( ( #247 ) ) GLOBAL_UNIT_ASSIGNED_CONTEXT ( ( #252, #282, #175 ) ) REPRESENTATION_CONTEXT ( 'NONE', 'WORKASPACE' ) );
#172 = CLOSED_SHELL ( 'NONE', ( #207, #153, #219, #58 ) ) ;
#173 = MECHANICAL_DESIGN_GEOMETRIC_PRESENTATION_REPRESENTATION (  '', ( #290 ), #240 ) ;
#174 = DIRECTION ( 'NONE',  ( 6.531449595452550356E-17, 1.000000000000000000, -0.000000000000000000 ) ) ;
#175 =( NAMED_UNIT ( * ) SI_UNIT ( $, .STERADIAN. ) SOLID_ANGLE_UNIT ( ) );
#176 = PRESENTATION_STYLE_ASSIGNMENT (( #147 ) ) ;
#177 = PLANE ( 'NONE',  #246 ) ;
#178 = DIMENSIONAL_EXPONENTS ( 1.000000000000000000, 0.000000000000000000, 0.000000000000000000, 0.000000000000000000, 0.000000000000000000, 0.000000000000000000, 0.000000000000000000 ) ;
#179 = APPLICATION_CONTEXT ( 'automotive_design' ) ;
#180 = PLANE ( 'NONE',  #100 ) ;
#181 = CIRCLE ( 'NONE', #8, 0.2499999999999999722 ) ;
#182 = CARTESIAN_POINT ( 'NONE',  ( 3.061616997868383018E-17, 0.000000000000000000, 0.2500000000000000000 ) ) ;
#183 = PRODUCT_CONTEXT ( 'NONE', #179, 'mechanical' ) ;
#184 = SURFACE_STYLE_USAGE ( .BOTH. , #49 ) ;
#185 = FACE_OUTER_BOUND ( 'NONE', #121, .T. ) ;
#186 = ORIENTED_EDGE ( 'NONE', *, *, #23, .F. ) ;
#187 = EDGE_CURVE ( 'NONE', #209, #103, #72, .T. ) ;
#188 = PRESENTATION_STYLE_ASSIGNMENT (( #90 ) ) ;
#189 = ORIENTED_EDGE ( 'NONE', *, *, #116, .T. ) ;
#190 = LENGTH_MEASURE_WITH_UNIT ( LENGTH_MEASURE( 0.02539999999999999897 ), #232 );
#191 = ADVANCED_FACE ( 'NONE', ( #238 ), #177, .T. ) ;
#192 = ORIENTED_EDGE ( 'NONE', *, *, #116, .F. ) ;
#193 =( CONVERSION_BASED_UNIT ( 'INCH', #190 ) LENGTH_UNIT ( ) NAMED_UNIT ( #178 ) );
#194 = CLOSED_SHELL ( 'NONE', ( #106, #291, #80, #191 ) ) ;
#195 = SURFACE_SIDE_STYLE ('',( #97 ) ) ;
#196 = COLOUR_RGB ( '',1.000000000000000000, 0.000000000000000000, 0.000000000000000000 ) ;
#197 = LENGTH_MEASURE_WITH_UNIT ( LENGTH_MEASURE( 0.02539999999999999897 ), #86 );
#198 = EDGE_CURVE ( 'NONE', #103, #169, #50, .T. ) ;
#199 = DIRECTION ( 'NONE',  ( 0.000000000000000000, -0.000000000000000000, 1.000000000000000000 ) ) ;
#200 = AXIS2_PLACEMENT_3D ( 'NONE', #148, #154, #127 ) ;
#201 = SHAPE_DEFINITION_REPRESENTATION ( #10, #69 ) ;
#202 = APPLICATION_PROTOCOL_DEFINITION ( 'draft international standard', 'automotive_design', 1998, #179 ) ;
#203 = FILL_AREA_STYLE ('',( #135 ) ) ;
#204 = AXIS2_PLACEMENT_3D ( 'NONE', #42, #133, #286 ) ;
#205 = FILL_AREA_STYLE_COLOUR ( '', #196 ) ;
#206 = CARTESIAN_POINT ( 'NONE',  ( 0.000000000000000000, 0.000000000000000000, -0.2500000000000000000 ) ) ;
#207 = ADVANCED_FACE ( 'NONE', ( #275 ), #152, .T. ) ;
#208 = SURFACE_STYLE_FILL_AREA ( #230 ) ;
#209 = VERTEX_POINT ( 'NONE', #242 ) ;
#210 = AXIS2_PLACEMENT_3D ( 'NONE', #279, #305, #199 ) ;
#211 = UNCERTAINTY_MEASURE_WITH_UNIT (LENGTH_MEASURE( 1.000000000000000082E-05 ), #193, 'distance_accuracy_value', 'NONE');
#212 = CARTESIAN_POINT ( 'NONE',  ( 0.000000000000000000, 0.000000000000000000, 0.000000000000000000 ) ) ;
#213 = CARTESIAN_POINT ( 'NONE',  ( 0.000000000000000000, 0.000000000000000000, 0.000000000000000000 ) ) ;
#214 = CARTESIAN_POINT ( 'NONE',  ( 0.000000000000000000, 0.6250000000000000000, 0.000000000000000000 ) ) ;
#215 = STYLED_ITEM ( 'NONE', ( #91 ), #80 ) ;
#216 = AXIS2_PLACEMENT_3D ( 'NONE', #141, #22, #292 ) ;
#217 = LINE ( 'NONE', #143, #146 ) ;
#218 = EDGE_CURVE ( 'NONE', #209, #281, #217, .T. ) ;
#219 = ADVANCED_FACE ( 'NONE', ( #25 ), #125, .T. ) ;
#220 = LINE ( 'NONE', #206, #26 ) ;
#221 = SURFACE_STYLE_USAGE ( .BOTH. , #113 ) ;
#222 = DIRECTION ( 'NONE',  ( -0.000000000000000000, -1.000000000000000000, -0.000000000000000000 ) ) ;
#223 = ORIENTED_EDGE ( 'NONE', *, *, #198, .T. ) ;
#224 = CARTESIAN_POINT ( 'NONE',  ( 0.000000000000000000, 0.000000000000000000, -0.2500000000000000000 ) ) ;
#225 = PRESENTATION_LAYER_ASSIGNMENT (  '', '', ( #75 ) ) ;
#226 = PRODUCT_DEFINITION_FORMATION_WITH_SPECIFIED_SOURCE ( 'ANY', '', #250, .NOT_KNOWN. ) ;
#227 = CIRCLE ( 'NONE', #200, 0.2499999999999999722 ) ;
#228 = CYLINDRICAL_SURFACE ( 'NONE', #216, 0.2500000000000000000 ) ;
#229 = ORIENTED_EDGE ( 'NONE', *, *, #126, .F. ) ;
#230 = FILL_AREA_STYLE ('',( #205 ) ) ;
#231 = ORIENTED_EDGE ( 'NONE', *, *, #187, .T. ) ;
#232 =( LENGTH_UNIT ( ) NAMED_UNIT ( * ) SI_UNIT ( $, .METRE. ) );
#233 = DIRECTION ( 'NONE',  ( 6.531449595452550356E-17, 1.000000000000000000, -0.000000000000000000 ) ) ;
#234 = FILL_AREA_STYLE ('',( #27 ) ) ;
#235 = VECTOR ( 'NONE', #308, 39.37007874015748143 ) ;
#236 = AXIS2_PLACEMENT_3D ( 'NONE', #212, #34, #270 ) ;
#237 = DIMENSIONAL_EXPONENTS ( 1.000000000000000000, 0.000000000000000000, 0.000000000000000000, 0.000000000000000000, 0.000000000000000000, 0.000000000000000000, 0.000000000000000000 ) ;
#238 = FACE_OUTER_BOUND ( 'NONE', #20, .T. ) ;
#239 = CARTESIAN_POINT ( 'NONE',  ( -0.2499999999999996947, 2.500000000000000000, 0.000000000000000000 ) ) ;
#240 =( GEOMETRIC_REPRESENTATION_CONTEXT ( 3 ) GLOBAL_UNCERTAINTY_ASSIGNED_CONTEXT ( ( #211 ) ) GLOBAL_UNIT_ASSIGNED_CONTEXT ( ( #193, #244, #295 ) ) REPRESENTATION_CONTEXT ( 'NONE', 'WORKASPACE' ) );
#241 = DIRECTION ( 'NONE',  ( 0.000000000000000000, 0.000000000000000000, -1.000000000000000000 ) ) ;
#242 = CARTESIAN_POINT ( 'NONE',  ( 0.2500000000000000000, 0.6250000000000000000, 3.061616997868382402E-17 ) ) ;
#243 = CYLINDRICAL_SURFACE ( 'NONE', #236, 0.2500000000000000000 ) ;
#244 =( NAMED_UNIT ( * ) PLANE_ANGLE_UNIT ( ) SI_UNIT ( $, .RADIAN. ) );
#245 = EDGE_CURVE ( 'NONE', #281, #169, #164, .T. ) ;
#246 = AXIS2_PLACEMENT_3D ( 'NONE', #213, #77, #300 ) ;
#247 = UNCERTAINTY_MEASURE_WITH_UNIT (LENGTH_MEASURE( 1.000000000000000082E-05 ), #252, 'distance_accuracy_value', 'NONE');
#248 = ORIENTED_EDGE ( 'NONE', *, *, #218, .T. ) ;
#249 = CARTESIAN_POINT ( 'NONE',  ( 3.061616997868383018E-17, 0.000000000000000000, 0.2500000000000000000 ) ) ;
#250 = PRODUCT ( '48336', '48336', '', ( #183 ) ) ;
#251 = EDGE_LOOP ( 'NONE', ( #64, #309 ) ) ;
#252 =( CONVERSION_BASED_UNIT ( 'INCH', #62 ) LENGTH_UNIT ( ) NAMED_UNIT ( #261 ) );
#253 = MECHANICAL_DESIGN_GEOMETRIC_PRESENTATION_REPRESENTATION (  '', ( #75 ), #145 ) ;
#254 = DIMENSIONAL_EXPONENTS ( 1.000000000000000000, 0.000000000000000000, 0.000000000000000000, 0.000000000000000000, 0.000000000000000000, 0.000000000000000000, 0.000000000000000000 ) ;
#255 = APPLICATION_CONTEXT ( 'automotive_design' ) ;
#256 = AXIS2_PLACEMENT_3D ( 'NONE', #158, #107, #259 ) ;
#257 = CARTESIAN_POINT ( 'NONE',  ( 0.000000000000000000, 0.6250000000000000000, -0.2499999999999999722 ) ) ;
#258 =( NAMED_UNIT ( * ) SI_UNIT ( $, .STERADIAN. ) SOLID_ANGLE_UNIT ( ) );
#259 = DIRECTION ( 'NONE',  ( -1.000000000000000000, 0.000000000000000000, 0.000000000000000000 ) ) ;
#260 =( NAMED_UNIT ( * ) PLANE_ANGLE_UNIT ( ) SI_UNIT ( $, .RADIAN. ) );
#261 = DIMENSIONAL_EXPONENTS ( 1.000000000000000000, 0.000000000000000000, 0.000000000000000000, 0.000000000000000000, 0.000000000000000000, 0.000000000000000000, 0.000000000000000000 ) ;
#262 =( NAMED_UNIT ( * ) PLANE_ANGLE_UNIT ( ) SI_UNIT ( $, .RADIAN. ) );
#263 = PRESENTATION_STYLE_ASSIGNMENT (( #48 ) ) ;
#264 = UNCERTAINTY_MEASURE_WITH_UNIT (LENGTH_MEASURE( 1.000000000000000082E-05 ), #110, 'distance_accuracy_value', 'NONE');
#265 = ORIENTED_EDGE ( 'NONE', *, *, #245, .F. ) ;
#266 = VERTEX_POINT ( 'NONE', #249 ) ;
#267 = PRESENTATION_LAYER_ASSIGNMENT (  '', '', ( #215 ) ) ;
#268 = AXIS2_PLACEMENT_3D ( 'NONE', #79, #277, #67 ) ;
#269 =( NAMED_UNIT ( * ) SI_UNIT ( $, .STERADIAN. ) SOLID_ANGLE_UNIT ( ) );
#270 = DIRECTION ( 'NONE',  ( 0.000000000000000000, 0.000000000000000000, -1.000000000000000000 ) ) ;
#271 =( CONVERSION_BASED_UNIT ( 'INCH', #298 ) LENGTH_UNIT ( ) NAMED_UNIT ( #254 ) );
#272 = STYLED_ITEM ( 'NONE', ( #123 ), #2 ) ;
#273 = STYLED_ITEM ( 'NONE', ( #188 ), #191 ) ;
#274 = DIRECTION ( 'NONE',  ( -1.000000000000000000, 6.531449595452550356E-17, 0.000000000000000000 ) ) ;
#275 = FACE_OUTER_BOUND ( 'NONE', #46, .T. ) ;
#276 = DIRECTION ( 'NONE',  ( -1.000000000000000000, 0.000000000000000000, 0.000000000000000000 ) ) ;
#277 = DIRECTION ( 'NONE',  ( 6.531449595452550356E-17, 1.000000000000000000, -0.000000000000000000 ) ) ;
#278 = DIRECTION ( 'NONE',  ( 0.000000000000000000, 0.000000000000000000, 1.000000000000000000 ) ) ;
#279 = CARTESIAN_POINT ( 'NONE',  ( 0.000000000000000000, 0.6250000000000000000, 0.000000000000000000 ) ) ;
#280 = PRESENTATION_LAYER_ASSIGNMENT (  '', '', ( #272 ) ) ;
#281 = VERTEX_POINT ( 'NONE', #83 ) ;
#282 =( NAMED_UNIT ( * ) PLANE_ANGLE_UNIT ( ) SI_UNIT ( $, .RADIAN. ) );
#283 = COLOUR_RGB ( '',1.000000000000000000, 0.000000000000000000, 0.000000000000000000 ) ;
#284 = FILL_AREA_STYLE ('',( #108 ) ) ;
#285 = VERTEX_POINT ( 'NONE', #224 ) ;
#286 = DIRECTION ( 'NONE',  ( 0.000000000000000000, 0.000000000000000000, -1.000000000000000000 ) ) ;
#287 = UNCERTAINTY_MEASURE_WITH_UNIT (LENGTH_MEASURE( 1.000000000000000082E-05 ), #104, 'distance_accuracy_value', 'NONE');
#288 = DIRECTION ( 'NONE',  ( 1.000000000000000000, -6.531449595452550356E-17, 0.000000000000000000 ) ) ;
#289 = VERTEX_POINT ( 'NONE', #257 ) ;
#290 = STYLED_ITEM ( 'NONE', ( #263 ), #106 ) ;
#291 = ADVANCED_FACE ( 'NONE', ( #304 ), #109, .T. ) ;
#292 = DIRECTION ( 'NONE',  ( 0.000000000000000000, 0.000000000000000000, -1.000000000000000000 ) ) ;
#293 = ORIENTED_EDGE ( 'NONE', *, *, #6, .F. ) ;
#294 = ORIENTED_EDGE ( 'NONE', *, *, #218, .F. ) ;
#295 =( NAMED_UNIT ( * ) SI_UNIT ( $, .STERADIAN. ) SOLID_ANGLE_UNIT ( ) );
#296 = LENGTH_MEASURE_WITH_UNIT ( LENGTH_MEASURE( 0.02539999999999999897 ), #43 );
#297 = PLANE ( 'NONE',  #35 ) ;
#298 = LENGTH_MEASURE_WITH_UNIT ( LENGTH_MEASURE( 0.02539999999999999897 ), #136 );
#299 = PRODUCT_RELATED_PRODUCT_CATEGORY ( 'part', '', ( #250 ) ) ;
#300 = DIRECTION ( 'NONE',  ( 0.000000000000000000, 0.000000000000000000, -1.000000000000000000 ) ) ;
#301 = ORIENTED_EDGE ( 'NONE', *, *, #198, .F. ) ;
#302 =( NAMED_UNIT ( * ) PLANE_ANGLE_UNIT ( ) SI_UNIT ( $, .RADIAN. ) );
#303 = CARTESIAN_POINT ( 'NONE',  ( 0.000000000000000000, 0.000000000000000000, 0.000000000000000000 ) ) ;
#304 = FACE_OUTER_BOUND ( 'NONE', #251, .T. ) ;
#305 = DIRECTION ( 'NONE',  ( 0.000000000000000000, 1.000000000000000000, 0.000000000000000000 ) ) ;
#306 = COLOUR_RGB ( '',1.000000000000000000, 0.000000000000000000, 0.000000000000000000 ) ;
#307 = DIRECTION ( 'NONE',  ( 6.531449595452550356E-17, 1.000000000000000000, -0.000000000000000000 ) ) ;
#308 = DIRECTION ( 'NONE',  ( -0.000000000000000000, -1.000000000000000000, -0.000000000000000000 ) ) ;
#309 = ORIENTED_EDGE ( 'NONE', *, *, #167, .F. ) ;
ENDSEC;
END-ISO-10303-21;
