ISO-10303-21;
HEADER;
FILE_DESCRIPTION (( 'STEP AP214' ),
    '1' );
FILE_NAME ('Micro_GEMM-180-3X.STEP',
    '2021-09-01T22:14:45',
    ( '' ),
    ( '' ),
    'SwSTEP 2.0',
    'SolidWorks 2020',
    '' );
FILE_SCHEMA (( 'AUTOMOTIVE_DESIGN' ));
ENDSEC;

DATA;
#1 = ORIENTED_EDGE ( 'NONE', *, *, #72, .T. ) ;
#2 = DIRECTION ( 'NONE',  ( 1.000000000000000000, 0.0000000000000000000, 0.0000000000000000000 ) ) ;
#3 = ORIENTED_EDGE ( 'NONE', *, *, #115, .F. ) ;
#4 = ORIENTED_EDGE ( 'NONE', *, *, #67, .T. ) ;
#5 = FILL_AREA_STYLE_COLOUR ( '', #43 ) ;
#6 = SURFACE_STYLE_USAGE ( .BOTH. , #34 ) ;
#7 = SURFACE_STYLE_FILL_AREA ( #139 ) ;
#8 = CIRCLE ( 'NONE', #170, 0.3393305000000003124 ) ;
#9 = ADVANCED_FACE ( 'NONE', ( #241 ), #74, .T. ) ;
#10 = DIRECTION ( 'NONE',  ( -1.224646799147353207E-16, -0.0000000000000000000, -1.000000000000000000 ) ) ;
#11 = ORIENTED_EDGE ( 'NONE', *, *, #285, .F. ) ;
#12 =( CONVERSION_BASED_UNIT ( 'INCH', #71 ) LENGTH_UNIT ( ) NAMED_UNIT ( #258 ) );
#13 =( NAMED_UNIT ( * ) PLANE_ANGLE_UNIT ( ) SI_UNIT ( $, .RADIAN. ) );
#14 =( GEOMETRIC_REPRESENTATION_CONTEXT ( 3 ) GLOBAL_UNCERTAINTY_ASSIGNED_CONTEXT ( ( #133 ) ) GLOBAL_UNIT_ASSIGNED_CONTEXT ( ( #62, #196, #138 ) ) REPRESENTATION_CONTEXT ( 'NONE', 'WORKASPACE' ) );
#15 = AXIS2_PLACEMENT_3D ( 'NONE', #96, #257, #45 ) ;
#16 = DIRECTION ( 'NONE',  ( -0.0000000000000000000, -0.0000000000000000000, -1.000000000000000000 ) ) ;
#17 = ADVANCED_FACE ( 'NONE', ( #131 ), #299, .F. ) ;
#18 = DIRECTION ( 'NONE',  ( 1.000000000000000000, 0.0000000000000000000, 0.0000000000000000000 ) ) ;
#19 = CIRCLE ( 'NONE', #129, 0.3543304999999999927 ) ;
#20 = FILL_AREA_STYLE_COLOUR ( '', #252 ) ;
#21 = VERTEX_POINT ( 'NONE', #179 ) ;
#22 = DIRECTION ( 'NONE',  ( -1.224646799147353207E-16, -0.0000000000000000000, -1.000000000000000000 ) ) ;
#23 =( NAMED_UNIT ( * ) SI_UNIT ( $, .STERADIAN. ) SOLID_ANGLE_UNIT ( ) );
#24 = DIRECTION ( 'NONE',  ( -0.1736481776669312194, 2.126576849575783625E-17, 0.9848077530122080203 ) ) ;
#25 = DIRECTION ( 'NONE',  ( 0.0000000000000000000, 0.0000000000000000000, 1.000000000000000000 ) ) ;
#26 = CONICAL_SURFACE ( 'NONE', #107, 0.3539761694999999930, 0.1745329251994339192 ) ;
#27 = MECHANICAL_DESIGN_GEOMETRIC_PRESENTATION_REPRESENTATION (  '', ( #33 ), #191 ) ;
#28 = DIRECTION ( 'NONE',  ( -1.000000000000000000, 0.0000000000000000000, 1.224646799147353207E-16 ) ) ;
#29 = EDGE_LOOP ( 'NONE', ( #157, #298, #1, #53 ) ) ;
#30 = LINE ( 'NONE', #116, #190 ) ;
#31 = APPLICATION_CONTEXT ( 'automotive_design' ) ;
#32 = LINE ( 'NONE', #223, #259 ) ;
#33 = STYLED_ITEM ( 'NONE', ( #153 ), #222 ) ;
#34 = SURFACE_SIDE_STYLE ('',( #7 ) ) ;
#35 = DIRECTION ( 'NONE',  ( 1.000000000000000000, 0.0000000000000000000, 0.0000000000000000000 ) ) ;
#36 = DIRECTION ( 'NONE',  ( 0.1736481776669314137, 0.0000000000000000000, 0.9848077530122077983 ) ) ;
#37 = AXIS2_PLACEMENT_3D ( 'NONE', #213, #265, #28 ) ;
#38 = CARTESIAN_POINT ( 'NONE',  ( 0.3543304999999999927, 4.339297126652812347E-17, 3.622047000000000239 ) ) ;
#39 = PRODUCT ( 'Micro_GEMM-180-3X', 'Micro_GEMM-180-3X', '', ( #147 ) ) ;
#40 = DIRECTION ( 'NONE',  ( 0.0000000000000000000, 0.0000000000000000000, -1.000000000000000000 ) ) ;
#41 = ORIENTED_EDGE ( 'NONE', *, *, #54, .F. ) ;
#42 = DIRECTION ( 'NONE',  ( -1.000000000000000000, 0.0000000000000000000, 1.224646799147353207E-16 ) ) ;
#43 = COLOUR_RGB ( '',0.7921568627450980005, 0.8196078431372548767, 0.9333333333333333481 ) ;
#44 = LINE ( 'NONE', #38, #201 ) ;
#45 = DIRECTION ( 'NONE',  ( 1.000000000000000000, 0.0000000000000000000, 0.0000000000000000000 ) ) ;
#46 = EDGE_CURVE ( 'NONE', #141, #108, #260, .T. ) ;
#47 = AXIS2_PLACEMENT_3D ( 'NONE', #185, #283, #286 ) ;
#48 = LENGTH_MEASURE_WITH_UNIT ( LENGTH_MEASURE( 0.02539999999999999897 ), #102 );
#49 = CARTESIAN_POINT ( 'NONE',  ( 1.253575405836812198E-16, 0.0000000000000000000, 1.023622000000000032 ) ) ;
#50 =( CONVERSION_BASED_UNIT ( 'INCH', #48 ) LENGTH_UNIT ( ) NAMED_UNIT ( #99 ) );
#51 = ORIENTED_EDGE ( 'NONE', *, *, #269, .F. ) ;
#52 = APPLICATION_PROTOCOL_DEFINITION ( 'draft international standard', 'automotive_design', 1998, #81 ) ;
#53 = ORIENTED_EDGE ( 'NONE', *, *, #150, .F. ) ;
#54 = EDGE_CURVE ( 'NONE', #180, #141, #160, .T. ) ;
#55 = AXIS2_PLACEMENT_3D ( 'NONE', #221, #247, #35 ) ;
#56 = ORIENTED_EDGE ( 'NONE', *, *, #193, .T. ) ;
#57 = ORIENTED_EDGE ( 'NONE', *, *, #164, .T. ) ;
#58 = ADVANCED_FACE ( 'NONE', ( #105 ), #174, .T. ) ;
#59 = FACE_OUTER_BOUND ( 'NONE', #90, .T. ) ;
#60 = DIRECTION ( 'NONE',  ( -1.224646799147353207E-16, -0.0000000000000000000, -1.000000000000000000 ) ) ;
#61 = CIRCLE ( 'NONE', #75, 0.3539761694999999930 ) ;
#62 =( CONVERSION_BASED_UNIT ( 'INCH', #268 ) LENGTH_UNIT ( ) NAMED_UNIT ( #93 ) );
#63 = ORIENTED_EDGE ( 'NONE', *, *, #245, .F. ) ;
#64 = CARTESIAN_POINT ( 'NONE',  ( 1.253575405836812198E-16, 0.0000000000000000000, 1.023622000000000032 ) ) ;
#65 = AXIS2_PLACEMENT_3D ( 'NONE', #231, #206, #294 ) ;
#66 = DIRECTION ( 'NONE',  ( -1.224646799147353207E-16, -0.0000000000000000000, -1.000000000000000000 ) ) ;
#67 = EDGE_CURVE ( 'NONE', #292, #111, #8, .T. ) ;
#68 = FACE_OUTER_BOUND ( 'NONE', #279, .T. ) ;
#69 = FACE_OUTER_BOUND ( 'NONE', #85, .T. ) ;
#70 = CLOSED_SHELL ( 'NONE', ( #9, #106, #58, #119, #78, #264, #98, #187, #234, #17 ) ) ;
#71 = LENGTH_MEASURE_WITH_UNIT ( LENGTH_MEASURE( 0.02539999999999999897 ), #97 );
#72 = EDGE_CURVE ( 'NONE', #108, #21, #19, .T. ) ;
#73 = CARTESIAN_POINT ( 'NONE',  ( 0.0000000000000000000, 0.0000000000000000000, 0.0000000000000000000 ) ) ;
#74 = CYLINDRICAL_SURFACE ( 'NONE', #37, 0.3539761694999999930 ) ;
#75 = AXIS2_PLACEMENT_3D ( 'NONE', #64, #10, #88 ) ;
#76 = CIRCLE ( 'NONE', #15, 0.3543304999999999927 ) ;
#77 = DIRECTION ( 'NONE',  ( 0.0000000000000000000, 0.0000000000000000000, -1.000000000000000000 ) ) ;
#78 = ADVANCED_FACE ( 'NONE', ( #59 ), #91, .T. ) ;
#79 = SURFACE_SIDE_STYLE ('',( #209 ) ) ;
#80 = ORIENTED_EDGE ( 'NONE', *, *, #172, .F. ) ;
#81 = APPLICATION_CONTEXT ( 'automotive_design' ) ;
#82 = EDGE_LOOP ( 'NONE', ( #194, #192, #11, #51 ) ) ;
#83 = VECTOR ( 'NONE', #24, 39.37007874015747433 ) ;
#84 = PRODUCT_DEFINITION_FORMATION_WITH_SPECIFIED_SOURCE ( 'ANY', '', #39, .NOT_KNOWN. ) ;
#85 = EDGE_LOOP ( 'NONE', ( #155, #41, #237, #230 ) ) ;
#86 = CARTESIAN_POINT ( 'NONE',  ( 0.3393305000000003124, 4.155600106780712238E-17, 3.622047000000000239 ) ) ;
#87 = DIRECTION ( 'NONE',  ( 1.000000000000000000, 0.0000000000000000000, 0.0000000000000000000 ) ) ;
#88 = DIRECTION ( 'NONE',  ( -1.000000000000000000, 0.0000000000000000000, 0.0000000000000000000 ) ) ;
#89 = CIRCLE ( 'NONE', #287, 0.3539761694999999930 ) ;
#90 = EDGE_LOOP ( 'NONE', ( #152, #236, #282, #3 ) ) ;
#91 = CYLINDRICAL_SURFACE ( 'NONE', #47, 0.3543304999999999927 ) ;
#92 = FACE_OUTER_BOUND ( 'NONE', #143, .T. ) ;
#93 = DIMENSIONAL_EXPONENTS ( 1.000000000000000000, 0.0000000000000000000, 0.0000000000000000000, 0.0000000000000000000, 0.0000000000000000000, 0.0000000000000000000, 0.0000000000000000000 ) ;
#94 = AXIS2_PLACEMENT_3D ( 'NONE', #134, #219, #113 ) ;
#95 = PRODUCT_DEFINITION ( 'UNKNOWN', '', #84, #103 ) ;
#96 = CARTESIAN_POINT ( 'NONE',  ( 0.0000000000000000000, 0.0000000000000000000, 3.607046999999999670 ) ) ;
#97 =( LENGTH_UNIT ( ) NAMED_UNIT ( * ) SI_UNIT ( $, .METRE. ) );
#98 = ADVANCED_FACE ( 'NONE', ( #249 ), #121, .T. ) ;
#99 = DIMENSIONAL_EXPONENTS ( 1.000000000000000000, 0.0000000000000000000, 0.0000000000000000000, 0.0000000000000000000, 0.0000000000000000000, 0.0000000000000000000, 0.0000000000000000000 ) ;
#100 = CARTESIAN_POINT ( 'NONE',  ( -0.3393305000000003124, 0.0000000000000000000, 3.622047000000000239 ) ) ;
#101 = AXIS2_PLACEMENT_3D ( 'NONE', #189, #77, #277 ) ;
#102 =( LENGTH_UNIT ( ) NAMED_UNIT ( * ) SI_UNIT ( $, .METRE. ) );
#103 = PRODUCT_DEFINITION_CONTEXT ( 'detailed design', #81, 'design' ) ;
#104 = DIRECTION ( 'NONE',  ( 1.000000000000000000, 0.0000000000000000000, -0.0000000000000000000 ) ) ;
#105 = FACE_OUTER_BOUND ( 'NONE', #82, .T. ) ;
#106 = ADVANCED_FACE ( 'NONE', ( #266 ), #242, .T. ) ;
#107 = AXIS2_PLACEMENT_3D ( 'NONE', #293, #169, #18 ) ;
#108 = VERTEX_POINT ( 'NONE', #227 ) ;
#109 = ORIENTED_EDGE ( 'NONE', *, *, #110, .T. ) ;
#110 = EDGE_CURVE ( 'NONE', #141, #180, #61, .T. ) ;
#111 = VERTEX_POINT ( 'NONE', #250 ) ;
#112 = CIRCLE ( 'NONE', #270, 0.3539761694999999930 ) ;
#113 = DIRECTION ( 'NONE',  ( -1.000000000000000000, 0.0000000000000000000, 0.0000000000000000000 ) ) ;
#114 = CYLINDRICAL_SURFACE ( 'NONE', #94, 0.3543304999999999927 ) ;
#115 = EDGE_CURVE ( 'NONE', #21, #108, #225, .T. ) ;
#116 = CARTESIAN_POINT ( 'NONE',  ( -0.3543304999999999927, 0.0000000000000000000, 3.622047000000000239 ) ) ;
#117 = ORIENTED_EDGE ( 'NONE', *, *, #72, .F. ) ;
#118 = CARTESIAN_POINT ( 'NONE',  ( 0.0000000000000000000, 0.0000000000000000000, 3.622047000000000239 ) ) ;
#119 = ADVANCED_FACE ( 'NONE', ( #198 ), #114, .T. ) ;
#120 = CARTESIAN_POINT ( 'NONE',  ( -0.3539761694999999930, 0.0000000000000000000, 4.334957829526159343E-17 ) ) ;
#121 = CONICAL_SURFACE ( 'NONE', #204, 0.3393305000000003124, 0.7853981633974300713 ) ;
#122 = DIRECTION ( 'NONE',  ( -0.7071067811865346942, 0.0000000000000000000, -0.7071067811865603403 ) ) ;
#123 = DIRECTION ( 'NONE',  ( -1.224646799147353207E-16, -0.0000000000000000000, -1.000000000000000000 ) ) ;
#124 = VECTOR ( 'NONE', #254, 39.37007874015748143 ) ;
#125 = ORIENTED_EDGE ( 'NONE', *, *, #280, .F. ) ;
#126 = DIRECTION ( 'NONE',  ( -1.000000000000000000, 0.0000000000000000000, 0.0000000000000000000 ) ) ;
#127 = EDGE_CURVE ( 'NONE', #111, #211, #246, .T. ) ;
#128 = VERTEX_POINT ( 'NONE', #181 ) ;
#129 = AXIS2_PLACEMENT_3D ( 'NONE', #289, #197, #136 ) ;
#130 = DIRECTION ( 'NONE',  ( 1.000000000000000000, 0.0000000000000000000, 0.0000000000000000000 ) ) ;
#131 = FACE_OUTER_BOUND ( 'NONE', #212, .T. ) ;
#132 = EDGE_LOOP ( 'NONE', ( #109, #288, #125, #199 ) ) ;
#133 = UNCERTAINTY_MEASURE_WITH_UNIT (LENGTH_MEASURE( 1.000000000000000082E-05 ), #62, 'distance_accuracy_value', 'NONE');
#134 = CARTESIAN_POINT ( 'NONE',  ( 0.0000000000000000000, 0.0000000000000000000, 3.622047000000000239 ) ) ;
#135 = MECHANICAL_DESIGN_GEOMETRIC_PRESENTATION_REPRESENTATION (  '', ( #140 ), #14 ) ;
#136 = DIRECTION ( 'NONE',  ( 1.000000000000000000, 0.0000000000000000000, 0.0000000000000000000 ) ) ;
#137 = DIRECTION ( 'NONE',  ( -1.000000000000000000, 0.0000000000000000000, 0.0000000000000000000 ) ) ;
#138 =( NAMED_UNIT ( * ) SI_UNIT ( $, .STERADIAN. ) SOLID_ANGLE_UNIT ( ) );
#139 = FILL_AREA_STYLE ('',( #5 ) ) ;
#140 = STYLED_ITEM ( 'NONE', ( #184 ), #154 ) ;
#141 = VERTEX_POINT ( 'NONE', #224 ) ;
#142 = APPLICATION_PROTOCOL_DEFINITION ( 'draft international standard', 'automotive_design', 1998, #31 ) ;
#143 = EDGE_LOOP ( 'NONE', ( #4, #57 ) ) ;
#144 = CARTESIAN_POINT ( 'NONE',  ( -0.3393305000000003124, 0.0000000000000000000, 3.622047000000000239 ) ) ;
#145 = LINE ( 'NONE', #120, #208 ) ;
#146 = LINE ( 'NONE', #205, #124 ) ;
#147 = PRODUCT_CONTEXT ( 'NONE', #31, 'mechanical' ) ;
#148 = ORIENTED_EDGE ( 'NONE', *, *, #239, .T. ) ;
#149 = CIRCLE ( 'NONE', #161, 0.3543304999999999927 ) ;
#150 = EDGE_CURVE ( 'NONE', #180, #21, #32, .T. ) ;
#151 = ORIENTED_EDGE ( 'NONE', *, *, #285, .T. ) ;
#152 = ORIENTED_EDGE ( 'NONE', *, *, #218, .F. ) ;
#153 = PRESENTATION_STYLE_ASSIGNMENT (( #177 ) ) ;
#154 = MANIFOLD_SOLID_BREP ( 'Cut-Revolve1', #70 ) ;
#155 = ORIENTED_EDGE ( 'NONE', *, *, #46, .F. ) ;
#156 = AXIS2_PLACEMENT_3D ( 'NONE', #216, #173, #104 ) ;
#157 = ORIENTED_EDGE ( 'NONE', *, *, #110, .F. ) ;
#158 = EDGE_LOOP ( 'NONE', ( #151, #178, #117, #80 ) ) ;
#159 = DIRECTION ( 'NONE',  ( 0.0000000000000000000, 0.0000000000000000000, -1.000000000000000000 ) ) ;
#160 = CIRCLE ( 'NONE', #186, 0.3539761694999999930 ) ;
#161 = AXIS2_PLACEMENT_3D ( 'NONE', #253, #40, #171 ) ;
#162 = CARTESIAN_POINT ( 'NONE',  ( 0.0000000000000000000, 0.0000000000000000000, 3.622047000000000239 ) ) ;
#163 = DIRECTION ( 'NONE',  ( 0.7071067811865346942, 8.659560562354773853E-17, -0.7071067811865603403 ) ) ;
#164 = EDGE_CURVE ( 'NONE', #111, #292, #183, .T. ) ;
#165 = DIRECTION ( 'NONE',  ( -1.224646799147353207E-16, -0.0000000000000000000, -1.000000000000000000 ) ) ;
#166 = AXIS2_PLACEMENT_3D ( 'NONE', #118, #284, #87 ) ;
#167 = CARTESIAN_POINT ( 'NONE',  ( 0.3543304999999999927, 4.339297126652812347E-17, 3.607046999999999670 ) ) ;
#168 = CARTESIAN_POINT ( 'NONE',  ( 0.0000000000000000000, 0.0000000000000000000, 0.0000000000000000000 ) ) ;
#169 = DIRECTION ( 'NONE',  ( 1.224646799147353207E-16, 0.0000000000000000000, 1.000000000000000000 ) ) ;
#170 = AXIS2_PLACEMENT_3D ( 'NONE', #176, #238, #2 ) ;
#171 = DIRECTION ( 'NONE',  ( 1.000000000000000000, 0.0000000000000000000, 0.0000000000000000000 ) ) ;
#172 = EDGE_CURVE ( 'NONE', #281, #108, #30, .T. ) ;
#173 = DIRECTION ( 'NONE',  ( 0.0000000000000000000, 0.0000000000000000000, 1.000000000000000000 ) ) ;
#174 = CONICAL_SURFACE ( 'NONE', #101, 0.3393305000000003124, 0.7853981633974300713 ) ;
#175 =( GEOMETRIC_REPRESENTATION_CONTEXT ( 3 ) GLOBAL_UNCERTAINTY_ASSIGNED_CONTEXT ( ( #278 ) ) GLOBAL_UNIT_ASSIGNED_CONTEXT ( ( #12, #13, #272 ) ) REPRESENTATION_CONTEXT ( 'NONE', 'WORKASPACE' ) );
#176 = CARTESIAN_POINT ( 'NONE',  ( 0.0000000000000000000, 0.0000000000000000000, 3.622047000000000239 ) ) ;
#177 = SURFACE_STYLE_USAGE ( .BOTH. , #79 ) ;
#178 = ORIENTED_EDGE ( 'NONE', *, *, #218, .T. ) ;
#179 = CARTESIAN_POINT ( 'NONE',  ( 0.3543305000000001592, 4.339297126652814813E-17, 1.025631508122786029 ) ) ;
#180 = VERTEX_POINT ( 'NONE', #203 ) ;
#181 = CARTESIAN_POINT ( 'NONE',  ( 0.3539761694999999930, 4.334957829526159343E-17, 0.0000000000000000000 ) ) ;
#182 = DIRECTION ( 'NONE',  ( 1.000000000000000000, 0.0000000000000000000, 0.0000000000000000000 ) ) ;
#183 = CIRCLE ( 'NONE', #166, 0.3393305000000003124 ) ;
#184 = PRESENTATION_STYLE_ASSIGNMENT (( #6 ) ) ;
#185 = CARTESIAN_POINT ( 'NONE',  ( 0.0000000000000000000, 0.0000000000000000000, 3.622047000000000239 ) ) ;
#186 = AXIS2_PLACEMENT_3D ( 'NONE', #49, #22, #126 ) ;
#187 = ADVANCED_FACE ( 'NONE', ( #69 ), #26, .T. ) ;
#188 = EDGE_LOOP ( 'NONE', ( #276, #195, #217, #228 ) ) ;
#189 = CARTESIAN_POINT ( 'NONE',  ( 0.0000000000000000000, 0.0000000000000000000, 3.622047000000000239 ) ) ;
#190 = VECTOR ( 'NONE', #229, 39.37007874015748143 ) ;
#191 =( GEOMETRIC_REPRESENTATION_CONTEXT ( 3 ) GLOBAL_UNCERTAINTY_ASSIGNED_CONTEXT ( ( #210 ) ) GLOBAL_UNIT_ASSIGNED_CONTEXT ( ( #50, #275, #23 ) ) REPRESENTATION_CONTEXT ( 'NONE', 'WORKASPACE' ) );
#192 = ORIENTED_EDGE ( 'NONE', *, *, #127, .T. ) ;
#193 = EDGE_CURVE ( 'NONE', #128, #244, #89, .T. ) ;
#194 = ORIENTED_EDGE ( 'NONE', *, *, #164, .F. ) ;
#195 = ORIENTED_EDGE ( 'NONE', *, *, #67, .F. ) ;
#196 =( NAMED_UNIT ( * ) PLANE_ANGLE_UNIT ( ) SI_UNIT ( $, .RADIAN. ) );
#197 = DIRECTION ( 'NONE',  ( -1.224646799147353207E-16, -0.0000000000000000000, -1.000000000000000000 ) ) ;
#198 = FACE_OUTER_BOUND ( 'NONE', #158, .T. ) ;
#199 = ORIENTED_EDGE ( 'NONE', *, *, #239, .F. ) ;
#200 = PRODUCT_DEFINITION_SHAPE ( 'NONE', 'NONE',  #95 ) ;
#201 = VECTOR ( 'NONE', #16, 39.37007874015748143 ) ;
#202 = CYLINDRICAL_SURFACE ( 'NONE', #251, 0.3539761694999999930 ) ;
#203 = CARTESIAN_POINT ( 'NONE',  ( 0.3539761695000001041, 0.0000000000000000000, 1.023622000000000032 ) ) ;
#204 = AXIS2_PLACEMENT_3D ( 'NONE', #162, #159, #137 ) ;
#205 = CARTESIAN_POINT ( 'NONE',  ( 0.3539761694999999930, 4.334957829526159343E-17, -4.334957829526159343E-17 ) ) ;
#206 = DIRECTION ( 'NONE',  ( 0.0000000000000000000, 0.0000000000000000000, 1.000000000000000000 ) ) ;
#207 = CARTESIAN_POINT ( 'NONE',  ( 5.308792230367967873E-33, 0.0000000000000000000, 4.334957829526159343E-17 ) ) ;
#208 = VECTOR ( 'NONE', #297, 39.37007874015748143 ) ;
#209 = SURFACE_STYLE_FILL_AREA ( #240 ) ;
#210 = UNCERTAINTY_MEASURE_WITH_UNIT (LENGTH_MEASURE( 1.000000000000000082E-05 ), #50, 'distance_accuracy_value', 'NONE');
#211 = VERTEX_POINT ( 'NONE', #167 ) ;
#212 = EDGE_LOOP ( 'NONE', ( #261, #56 ) ) ;
#213 = CARTESIAN_POINT ( 'NONE',  ( 0.0000000000000000000, 0.0000000000000000000, 0.0000000000000000000 ) ) ;
#214 = PRODUCT_RELATED_PRODUCT_CATEGORY ( 'part', '', ( #39 ) ) ;
#215 = SHAPE_DEFINITION_REPRESENTATION ( #200, #222 ) ;
#216 = CARTESIAN_POINT ( 'NONE',  ( 0.0000000000000000000, 0.0000000000000000000, 0.0000000000000000000 ) ) ;
#217 = ORIENTED_EDGE ( 'NONE', *, *, #269, .T. ) ;
#218 = EDGE_CURVE ( 'NONE', #211, #21, #44, .T. ) ;
#219 = DIRECTION ( 'NONE',  ( -0.0000000000000000000, -0.0000000000000000000, -1.000000000000000000 ) ) ;
#220 = AXIS2_PLACEMENT_3D ( 'NONE', #267, #60, #182 ) ;
#221 = CARTESIAN_POINT ( 'NONE',  ( 1.253575405836812198E-16, 0.0000000000000000000, 1.023622000000000032 ) ) ;
#222 = ADVANCED_BREP_SHAPE_REPRESENTATION ( 'Micro_GEMM-180-3X', ( #154, #226 ), #175 ) ;
#223 = CARTESIAN_POINT ( 'NONE',  ( 0.3539761695000001041, 0.0000000000000000000, 1.023622000000000032 ) ) ;
#224 = CARTESIAN_POINT ( 'NONE',  ( -0.3539761694999998265, 4.337127478089486461E-17, 1.023622000000000032 ) ) ;
#225 = CIRCLE ( 'NONE', #220, 0.3543304999999999927 ) ;
#226 = AXIS2_PLACEMENT_3D ( 'NONE', #73, #25, #130 ) ;
#227 = CARTESIAN_POINT ( 'NONE',  ( -0.3543304999999998817, 0.0000000000000000000, 1.025631508122786029 ) ) ;
#228 = ORIENTED_EDGE ( 'NONE', *, *, #291, .F. ) ;
#229 = DIRECTION ( 'NONE',  ( -0.0000000000000000000, -0.0000000000000000000, -1.000000000000000000 ) ) ;
#230 = ORIENTED_EDGE ( 'NONE', *, *, #115, .T. ) ;
#231 = CARTESIAN_POINT ( 'NONE',  ( 0.0000000000000000000, 0.0000000000000000000, 3.622047000000000239 ) ) ;
#232 = VECTOR ( 'NONE', #163, 39.37007874015748143 ) ;
#233 = LINE ( 'NONE', #100, #235 ) ;
#234 = ADVANCED_FACE ( 'NONE', ( #68 ), #202, .T. ) ;
#235 = VECTOR ( 'NONE', #122, 39.37007874015748143 ) ;
#236 = ORIENTED_EDGE ( 'NONE', *, *, #291, .T. ) ;
#237 = ORIENTED_EDGE ( 'NONE', *, *, #150, .T. ) ;
#238 = DIRECTION ( 'NONE',  ( 0.0000000000000000000, 0.0000000000000000000, 1.000000000000000000 ) ) ;
#239 = EDGE_CURVE ( 'NONE', #141, #244, #145, .T. ) ;
#240 = FILL_AREA_STYLE ('',( #20 ) ) ;
#241 = FACE_OUTER_BOUND ( 'NONE', #132, .T. ) ;
#242 = CONICAL_SURFACE ( 'NONE', #55, 0.3539761694999999930, 0.1745329251994339192 ) ;
#243 = PRESENTATION_LAYER_ASSIGNMENT (  '', '', ( #33 ) ) ;
#244 = VERTEX_POINT ( 'NONE', #295 ) ;
#245 = EDGE_CURVE ( 'NONE', #180, #128, #146, .T. ) ;
#246 = LINE ( 'NONE', #86, #232 ) ;
#247 = DIRECTION ( 'NONE',  ( 1.224646799147353207E-16, 0.0000000000000000000, 1.000000000000000000 ) ) ;
#248 =( LENGTH_UNIT ( ) NAMED_UNIT ( * ) SI_UNIT ( $, .METRE. ) );
#249 = FACE_OUTER_BOUND ( 'NONE', #188, .T. ) ;
#250 = CARTESIAN_POINT ( 'NONE',  ( 0.3393305000000003124, 4.247448616716761677E-17, 3.622047000000000239 ) ) ;
#251 = AXIS2_PLACEMENT_3D ( 'NONE', #168, #123, #273 ) ;
#252 = COLOUR_RGB ( '',0.7921568627450980005, 0.8196078431372548767, 0.9333333333333333481 ) ;
#253 = CARTESIAN_POINT ( 'NONE',  ( 0.0000000000000000000, 0.0000000000000000000, 3.607046999999999670 ) ) ;
#254 = DIRECTION ( 'NONE',  ( -1.224646799147353207E-16, -0.0000000000000000000, -1.000000000000000000 ) ) ;
#255 = DIRECTION ( 'NONE',  ( -1.000000000000000000, 0.0000000000000000000, 1.224646799147353207E-16 ) ) ;
#256 = CARTESIAN_POINT ( 'NONE',  ( 5.308792230367967873E-33, 0.0000000000000000000, 4.334957829526159343E-17 ) ) ;
#257 = DIRECTION ( 'NONE',  ( 0.0000000000000000000, 0.0000000000000000000, -1.000000000000000000 ) ) ;
#258 = DIMENSIONAL_EXPONENTS ( 1.000000000000000000, 0.0000000000000000000, 0.0000000000000000000, 0.0000000000000000000, 0.0000000000000000000, 0.0000000000000000000, 0.0000000000000000000 ) ;
#259 = VECTOR ( 'NONE', #36, 39.37007874015748143 ) ;
#260 = LINE ( 'NONE', #263, #83 ) ;
#261 = ORIENTED_EDGE ( 'NONE', *, *, #280, .T. ) ;
#262 = ORIENTED_EDGE ( 'NONE', *, *, #193, .F. ) ;
#263 = CARTESIAN_POINT ( 'NONE',  ( -0.3539761694999998265, 4.334957829526159343E-17, 1.023622000000000032 ) ) ;
#264 = ADVANCED_FACE ( 'NONE', ( #92 ), #274, .T. ) ;
#265 = DIRECTION ( 'NONE',  ( -1.224646799147353207E-16, -0.0000000000000000000, -1.000000000000000000 ) ) ;
#266 = FACE_OUTER_BOUND ( 'NONE', #29, .T. ) ;
#267 = CARTESIAN_POINT ( 'NONE',  ( 1.256036343527242652E-16, 0.0000000000000000000, 1.025631508122786029 ) ) ;
#268 = LENGTH_MEASURE_WITH_UNIT ( LENGTH_MEASURE( 0.02539999999999999897 ), #248 );
#269 = EDGE_CURVE ( 'NONE', #292, #281, #233, .T. ) ;
#270 = AXIS2_PLACEMENT_3D ( 'NONE', #207, #165, #255 ) ;
#271 = CARTESIAN_POINT ( 'NONE',  ( -0.3543304999999999927, 0.0000000000000000000, 3.607046999999999670 ) ) ;
#272 =( NAMED_UNIT ( * ) SI_UNIT ( $, .STERADIAN. ) SOLID_ANGLE_UNIT ( ) );
#273 = DIRECTION ( 'NONE',  ( -1.000000000000000000, 0.0000000000000000000, 1.224646799147353207E-16 ) ) ;
#274 = PLANE ( 'NONE',  #65 ) ;
#275 =( NAMED_UNIT ( * ) PLANE_ANGLE_UNIT ( ) SI_UNIT ( $, .RADIAN. ) );
#276 = ORIENTED_EDGE ( 'NONE', *, *, #127, .F. ) ;
#277 = DIRECTION ( 'NONE',  ( -1.000000000000000000, 0.0000000000000000000, 0.0000000000000000000 ) ) ;
#278 = UNCERTAINTY_MEASURE_WITH_UNIT (LENGTH_MEASURE( 1.000000000000000082E-05 ), #12, 'distance_accuracy_value', 'NONE');
#279 = EDGE_LOOP ( 'NONE', ( #63, #290, #148, #262 ) ) ;
#280 = EDGE_CURVE ( 'NONE', #244, #128, #112, .T. ) ;
#281 = VERTEX_POINT ( 'NONE', #271 ) ;
#282 = ORIENTED_EDGE ( 'NONE', *, *, #172, .T. ) ;
#283 = DIRECTION ( 'NONE',  ( -0.0000000000000000000, -0.0000000000000000000, -1.000000000000000000 ) ) ;
#284 = DIRECTION ( 'NONE',  ( 0.0000000000000000000, 0.0000000000000000000, 1.000000000000000000 ) ) ;
#285 = EDGE_CURVE ( 'NONE', #281, #211, #149, .T. ) ;
#286 = DIRECTION ( 'NONE',  ( -1.000000000000000000, 0.0000000000000000000, 0.0000000000000000000 ) ) ;
#287 = AXIS2_PLACEMENT_3D ( 'NONE', #256, #66, #42 ) ;
#288 = ORIENTED_EDGE ( 'NONE', *, *, #245, .T. ) ;
#289 = CARTESIAN_POINT ( 'NONE',  ( 1.256036343527242652E-16, 0.0000000000000000000, 1.025631508122786029 ) ) ;
#290 = ORIENTED_EDGE ( 'NONE', *, *, #54, .T. ) ;
#291 = EDGE_CURVE ( 'NONE', #211, #281, #76, .T. ) ;
#292 = VERTEX_POINT ( 'NONE', #144 ) ;
#293 = CARTESIAN_POINT ( 'NONE',  ( 1.253575405836812198E-16, 0.0000000000000000000, 1.023622000000000032 ) ) ;
#294 = DIRECTION ( 'NONE',  ( 1.000000000000000000, 0.0000000000000000000, -0.0000000000000000000 ) ) ;
#295 = CARTESIAN_POINT ( 'NONE',  ( -0.3539761694999999930, 0.0000000000000000000, 8.669915659052318686E-17 ) ) ;
#296 = PRESENTATION_LAYER_ASSIGNMENT (  '', '', ( #140 ) ) ;
#297 = DIRECTION ( 'NONE',  ( -1.224646799147353207E-16, -0.0000000000000000000, -1.000000000000000000 ) ) ;
#298 = ORIENTED_EDGE ( 'NONE', *, *, #46, .T. ) ;
#299 = PLANE ( 'NONE',  #156 ) ;
ENDSEC;
END-ISO-10303-21;
