ISO-10303-21;
HEADER;
FILE_DESCRIPTION (( 'STEP AP214' ),
    '1' );
FILE_NAME ('Micro_AMRM-016-2.STEP',
    '2021-09-01T17:15:07',
    ( '' ),
    ( '' ),
    'SwSTEP 2.0',
    'SolidWorks 2020',
    '' );
FILE_SCHEMA (( 'AUTOMOTIVE_DESIGN' ));
ENDSEC;

DATA;
#1 = CARTESIAN_POINT ( 'NONE',  ( 0.06374000000000018540, 8.724383797125754882E-18, 1.968503999999999809 ) ) ;
#2 = EDGE_CURVE ( 'NONE', #89, #57, #125, .T. ) ;
#3 = CYLINDRICAL_SURFACE ( 'NONE', #188, 0.03146450399999999731 ) ;
#4 = STYLED_ITEM ( 'NONE', ( #11 ), #240 ) ;
#5 = SURFACE_STYLE_FILL_AREA ( #6 ) ;
#6 = FILL_AREA_STYLE ('',( #26 ) ) ;
#7 = DIMENSIONAL_EXPONENTS ( 1.000000000000000000, 0.0000000000000000000, 0.0000000000000000000, 0.0000000000000000000, 0.0000000000000000000, 0.0000000000000000000, 0.0000000000000000000 ) ;
#8 = AXIS2_PLACEMENT_3D ( 'NONE', #25, #102, #120 ) ;
#9 = DIRECTION ( 'NONE',  ( -1.224646799147353207E-16, -0.0000000000000000000, -1.000000000000000000 ) ) ;
#10 =( LENGTH_UNIT ( ) NAMED_UNIT ( * ) SI_UNIT ( $, .METRE. ) );
#11 = PRESENTATION_STYLE_ASSIGNMENT (( #54 ) ) ;
#12 = ORIENTED_EDGE ( 'NONE', *, *, #107, .T. ) ;
#13 = EDGE_LOOP ( 'NONE', ( #217, #223, #28, #127 ) ) ;
#14 = ORIENTED_EDGE ( 'NONE', *, *, #206, .T. ) ;
#15 = CARTESIAN_POINT ( 'NONE',  ( 0.0000000000000000000, 0.0000000000000000000, 1.953504000000000129 ) ) ;
#16 = CARTESIAN_POINT ( 'NONE',  ( -0.07874000000000001831, 0.0000000000000000000, 1.953504000000000129 ) ) ;
#17 = DIRECTION ( 'NONE',  ( -0.7071067811865507924, 0.0000000000000000000, -0.7071067811865443531 ) ) ;
#18 = ADVANCED_FACE ( 'NONE', ( #184 ), #272, .T. ) ;
#19 = COLOUR_RGB ( '',0.7921568627450980005, 0.8196078431372548767, 0.9333333333333333481 ) ;
#20 = CARTESIAN_POINT ( 'NONE',  ( -0.03146450399999997649, 6.748079653761084814E-18, 0.1889760000000000051 ) ) ;
#21 = CARTESIAN_POINT ( 'NONE',  ( 5.597721655935126928E-17, 0.0000000000000000000, 0.4570886609782084387 ) ) ;
#22 = DIRECTION ( 'NONE',  ( 1.000000000000000000, 0.0000000000000000000, 0.0000000000000000000 ) ) ;
#23 = DIRECTION ( 'NONE',  ( -0.0000000000000000000, -0.0000000000000000000, -1.000000000000000000 ) ) ;
#24 = PRODUCT_DEFINITION_FORMATION_WITH_SPECIFIED_SOURCE ( 'ANY', '', #45, .NOT_KNOWN. ) ;
#25 = CARTESIAN_POINT ( 'NONE',  ( 2.314288535156702350E-17, 0.0000000000000000000, 0.1889760000000000051 ) ) ;
#26 = FILL_AREA_STYLE_COLOUR ( '', #19 ) ;
#27 = VECTOR ( 'NONE', #181, 39.37007874015747433 ) ;
#28 = ORIENTED_EDGE ( 'NONE', *, *, #230, .F. ) ;
#29 = DIRECTION ( 'NONE',  ( 1.000000000000000000, 0.0000000000000000000, 0.0000000000000000000 ) ) ;
#30 = ORIENTED_EDGE ( 'NONE', *, *, #136, .F. ) ;
#31 = AXIS2_PLACEMENT_3D ( 'NONE', #229, #155, #65 ) ;
#32 = FILL_AREA_STYLE_COLOUR ( '', #176 ) ;
#33 = EDGE_LOOP ( 'NONE', ( #106, #12 ) ) ;
#34 = VERTEX_POINT ( 'NONE', #255 ) ;
#35 =( CONVERSION_BASED_UNIT ( 'INCH', #246 ) LENGTH_UNIT ( ) NAMED_UNIT ( #7 ) );
#36 = VERTEX_POINT ( 'NONE', #20 ) ;
#37 =( GEOMETRIC_REPRESENTATION_CONTEXT ( 3 ) GLOBAL_UNCERTAINTY_ASSIGNED_CONTEXT ( ( #186 ) ) GLOBAL_UNIT_ASSIGNED_CONTEXT ( ( #165, #72, #278 ) ) REPRESENTATION_CONTEXT ( 'NONE', 'WORKASPACE' ) );
#38 = FACE_OUTER_BOUND ( 'NONE', #270, .T. ) ;
#39 = CARTESIAN_POINT ( 'NONE',  ( -0.07874000000000001831, 0.0000000000000000000, 1.968503999999999809 ) ) ;
#40 = LINE ( 'NONE', #226, #282 ) ;
#41 = VECTOR ( 'NONE', #135, 39.37007874015748143 ) ;
#42 = DIRECTION ( 'NONE',  ( -1.000000000000000000, 0.0000000000000000000, 0.0000000000000000000 ) ) ;
#43 = CARTESIAN_POINT ( 'NONE',  ( 0.06374000000000018540, 7.805898697765251255E-18, 1.968503999999999809 ) ) ;
#44 = DIRECTION ( 'NONE',  ( -1.224646799147353207E-16, -0.0000000000000000000, -1.000000000000000000 ) ) ;
#45 = PRODUCT ( 'Micro_AMRM-016-2', 'Micro_AMRM-016-2', '', ( #148 ) ) ;
#46 = CARTESIAN_POINT ( 'NONE',  ( -0.07873999999999996280, 0.0000000000000000000, 0.4570886609782084387 ) ) ;
#47 = CONICAL_SURFACE ( 'NONE', #289, 0.06374000000000018540, 0.7853981633974528309 ) ;
#48 = EDGE_CURVE ( 'NONE', #58, #89, #117, .T. ) ;
#49 = LINE ( 'NONE', #78, #267 ) ;
#50 = DIMENSIONAL_EXPONENTS ( 1.000000000000000000, 0.0000000000000000000, 0.0000000000000000000, 0.0000000000000000000, 0.0000000000000000000, 0.0000000000000000000, 0.0000000000000000000 ) ;
#51 = DIRECTION ( 'NONE',  ( 0.0000000000000000000, 0.0000000000000000000, -1.000000000000000000 ) ) ;
#52 = AXIS2_PLACEMENT_3D ( 'NONE', #15, #109, #22 ) ;
#53 = AXIS2_PLACEMENT_3D ( 'NONE', #147, #23, #119 ) ;
#54 = SURFACE_STYLE_USAGE ( .BOTH. , #108 ) ;
#55 = ORIENTED_EDGE ( 'NONE', *, *, #178, .T. ) ;
#56 = DIRECTION ( 'NONE',  ( 0.0000000000000000000, 0.0000000000000000000, 1.000000000000000000 ) ) ;
#57 = VERTEX_POINT ( 'NONE', #16 ) ;
#58 = VERTEX_POINT ( 'NONE', #1 ) ;
#59 = AXIS2_PLACEMENT_3D ( 'NONE', #251, #94, #115 ) ;
#60 =( NAMED_UNIT ( * ) PLANE_ANGLE_UNIT ( ) SI_UNIT ( $, .RADIAN. ) );
#61 = EDGE_CURVE ( 'NONE', #104, #34, #260, .T. ) ;
#62 = ORIENTED_EDGE ( 'NONE', *, *, #118, .T. ) ;
#63 = FACE_OUTER_BOUND ( 'NONE', #292, .T. ) ;
#64 = PRESENTATION_LAYER_ASSIGNMENT (  '', '', ( #244 ) ) ;
#65 = DIRECTION ( 'NONE',  ( -1.000000000000000000, 0.0000000000000000000, 0.0000000000000000000 ) ) ;
#66 = UNCERTAINTY_MEASURE_WITH_UNIT (LENGTH_MEASURE( 1.000000000000000082E-05 ), #35, 'distance_accuracy_value', 'NONE');
#67 = DIRECTION ( 'NONE',  ( -1.224646799147353207E-16, -0.0000000000000000000, -1.000000000000000000 ) ) ;
#68 = CARTESIAN_POINT ( 'NONE',  ( 2.314288535156702350E-17, 0.0000000000000000000, 0.1889760000000000051 ) ) ;
#69 = FACE_OUTER_BOUND ( 'NONE', #13, .T. ) ;
#70 = PRODUCT_DEFINITION ( 'UNKNOWN', '', #24, #163 ) ;
#71 = DIMENSIONAL_EXPONENTS ( 1.000000000000000000, 0.0000000000000000000, 0.0000000000000000000, 0.0000000000000000000, 0.0000000000000000000, 0.0000000000000000000, 0.0000000000000000000 ) ;
#72 =( NAMED_UNIT ( * ) PLANE_ANGLE_UNIT ( ) SI_UNIT ( $, .RADIAN. ) );
#73 = LENGTH_MEASURE_WITH_UNIT ( LENGTH_MEASURE( 0.02539999999999999897 ), #280 );
#74 = ADVANCED_FACE ( 'NONE', ( #69 ), #47, .T. ) ;
#75 = PRESENTATION_STYLE_ASSIGNMENT (( #190 ) ) ;
#76 = CIRCLE ( 'NONE', #243, 0.07874000000000001831 ) ;
#77 = AXIS2_PLACEMENT_3D ( 'NONE', #98, #234, #141 ) ;
#78 = CARTESIAN_POINT ( 'NONE',  ( 0.07874000000000001831, 9.642868896486260050E-18, 1.968503999999999809 ) ) ;
#79 = LINE ( 'NONE', #122, #114 ) ;
#80 =( NAMED_UNIT ( * ) PLANE_ANGLE_UNIT ( ) SI_UNIT ( $, .RADIAN. ) );
#81 = EDGE_CURVE ( 'NONE', #175, #219, #299, .T. ) ;
#82 = MECHANICAL_DESIGN_GEOMETRIC_PRESENTATION_REPRESENTATION (  '', ( #244 ), #37 ) ;
#83 = ORIENTED_EDGE ( 'NONE', *, *, #197, .T. ) ;
#84 = ORIENTED_EDGE ( 'NONE', *, *, #293, .F. ) ;
#85 = LENGTH_MEASURE_WITH_UNIT ( LENGTH_MEASURE( 0.02539999999999999897 ), #177 );
#86 = VERTEX_POINT ( 'NONE', #134 ) ;
#87 = CIRCLE ( 'NONE', #208, 0.07874000000000001831 ) ;
#88 = CIRCLE ( 'NONE', #222, 0.06374000000000018540 ) ;
#89 = VERTEX_POINT ( 'NONE', #95 ) ;
#90 = DIRECTION ( 'NONE',  ( -1.000000000000000000, 0.0000000000000000000, 0.0000000000000000000 ) ) ;
#91 = DIRECTION ( 'NONE',  ( -1.224646799147353207E-16, -0.0000000000000000000, -1.000000000000000000 ) ) ;
#92 = AXIS2_PLACEMENT_3D ( 'NONE', #116, #160, #297 ) ;
#93 =( GEOMETRIC_REPRESENTATION_CONTEXT ( 3 ) GLOBAL_UNCERTAINTY_ASSIGNED_CONTEXT ( ( #66 ) ) GLOBAL_UNIT_ASSIGNED_CONTEXT ( ( #35, #80, #169 ) ) REPRESENTATION_CONTEXT ( 'NONE', 'WORKASPACE' ) );
#94 = DIRECTION ( 'NONE',  ( -1.224646799147353207E-16, -0.0000000000000000000, -1.000000000000000000 ) ) ;
#95 = CARTESIAN_POINT ( 'NONE',  ( 0.07874000000000001831, 9.642868896486260050E-18, 1.953504000000000129 ) ) ;
#96 = CARTESIAN_POINT ( 'NONE',  ( 5.597721655935126928E-17, 0.0000000000000000000, 0.4570886609782084387 ) ) ;
#97 = FACE_OUTER_BOUND ( 'NONE', #110, .T. ) ;
#98 = CARTESIAN_POINT ( 'NONE',  ( 0.0000000000000000000, 0.0000000000000000000, 0.0000000000000000000 ) ) ;
#99 = CARTESIAN_POINT ( 'NONE',  ( 0.0000000000000000000, 0.0000000000000000000, 1.968503999999999809 ) ) ;
#100 = AXIS2_PLACEMENT_3D ( 'NONE', #68, #253, #42 ) ;
#101 = CIRCLE ( 'NONE', #170, 0.06374000000000018540 ) ;
#102 = DIRECTION ( 'NONE',  ( -1.224646799147353207E-16, -0.0000000000000000000, -1.000000000000000000 ) ) ;
#103 = SHAPE_DEFINITION_REPRESENTATION ( #269, #240 ) ;
#104 = VERTEX_POINT ( 'NONE', #274 ) ;
#105 = CARTESIAN_POINT ( 'NONE',  ( 0.0000000000000000000, 0.0000000000000000000, 0.0000000000000000000 ) ) ;
#106 = ORIENTED_EDGE ( 'NONE', *, *, #61, .T. ) ;
#107 = EDGE_CURVE ( 'NONE', #34, #104, #182, .T. ) ;
#108 = SURFACE_SIDE_STYLE ('',( #241 ) ) ;
#109 = DIRECTION ( 'NONE',  ( 0.0000000000000000000, 0.0000000000000000000, -1.000000000000000000 ) ) ;
#110 = EDGE_LOOP ( 'NONE', ( #221, #266, #149, #124 ) ) ;
#111 = CARTESIAN_POINT ( 'NONE',  ( 0.03146450400000001812, 0.0000000000000000000, 0.1889760000000000051 ) ) ;
#112 = DIRECTION ( 'NONE',  ( -1.224646799147353207E-16, -0.0000000000000000000, -1.000000000000000000 ) ) ;
#113 = AXIS2_PLACEMENT_3D ( 'NONE', #180, #187, #271 ) ;
#114 = VECTOR ( 'NONE', #9, 39.37007874015748143 ) ;
#115 = DIRECTION ( 'NONE',  ( -1.000000000000000000, 0.0000000000000000000, 1.224646799147353207E-16 ) ) ;
#116 = CARTESIAN_POINT ( 'NONE',  ( 2.314288535156702350E-17, 0.0000000000000000000, 0.1889760000000000051 ) ) ;
#117 = LINE ( 'NONE', #43, #142 ) ;
#118 = EDGE_CURVE ( 'NONE', #264, #219, #76, .T. ) ;
#119 = DIRECTION ( 'NONE',  ( -1.000000000000000000, 0.0000000000000000000, 0.0000000000000000000 ) ) ;
#120 = DIRECTION ( 'NONE',  ( -1.000000000000000000, 0.0000000000000000000, 0.0000000000000000000 ) ) ;
#121 = DIRECTION ( 'NONE',  ( 1.000000000000000000, 0.0000000000000000000, 0.0000000000000000000 ) ) ;
#122 = CARTESIAN_POINT ( 'NONE',  ( -0.03146450399999999731, 0.0000000000000000000, 3.853290411035908808E-18 ) ) ;
#123 = AXIS2_PLACEMENT_3D ( 'NONE', #233, #161, #283 ) ;
#124 = ORIENTED_EDGE ( 'NONE', *, *, #107, .F. ) ;
#125 = CIRCLE ( 'NONE', #52, 0.07874000000000001831 ) ;
#126 = ORIENTED_EDGE ( 'NONE', *, *, #238, .T. ) ;
#127 = ORIENTED_EDGE ( 'NONE', *, *, #202, .F. ) ;
#128 =( NAMED_UNIT ( * ) SI_UNIT ( $, .STERADIAN. ) SOLID_ANGLE_UNIT ( ) );
#129 = EDGE_LOOP ( 'NONE', ( #30, #263, #268, #55 ) ) ;
#130 = EDGE_LOOP ( 'NONE', ( #179, #287, #83, #199 ) ) ;
#131 = AXIS2_PLACEMENT_3D ( 'NONE', #281, #51, #121 ) ;
#132 = ADVANCED_FACE ( 'NONE', ( #159 ), #276, .F. ) ;
#133 = DIRECTION ( 'NONE',  ( 1.000000000000000000, 0.0000000000000000000, -0.0000000000000000000 ) ) ;
#134 = CARTESIAN_POINT ( 'NONE',  ( -0.06374000000000018540, 0.0000000000000000000, 1.968503999999999809 ) ) ;
#135 = DIRECTION ( 'NONE',  ( 0.1736481776669313581, 0.0000000000000000000, 0.9848077530122077983 ) ) ;
#136 = EDGE_CURVE ( 'NONE', #36, #264, #252, .T. ) ;
#137 = AXIS2_PLACEMENT_3D ( 'NONE', #237, #218, #195 ) ;
#138 = DIRECTION ( 'NONE',  ( -1.000000000000000000, 0.0000000000000000000, 1.224646799147353207E-16 ) ) ;
#139 = UNCERTAINTY_MEASURE_WITH_UNIT (LENGTH_MEASURE( 1.000000000000000082E-05 ), #174, 'distance_accuracy_value', 'NONE');
#140 = CARTESIAN_POINT ( 'NONE',  ( 0.0000000000000000000, 0.0000000000000000000, 1.968503999999999809 ) ) ;
#141 = DIRECTION ( 'NONE',  ( -1.000000000000000000, 0.0000000000000000000, 1.224646799147353207E-16 ) ) ;
#142 = VECTOR ( 'NONE', #185, 39.37007874015748143 ) ;
#143 = AXIS2_PLACEMENT_3D ( 'NONE', #203, #157, #133 ) ;
#144 = CARTESIAN_POINT ( 'NONE',  ( 0.07874000000000007382, 9.642868896486266213E-18, 0.4570886609782084387 ) ) ;
#145 = DIRECTION ( 'NONE',  ( -0.0000000000000000000, -0.0000000000000000000, -1.000000000000000000 ) ) ;
#146 = EDGE_CURVE ( 'NONE', #175, #34, #40, .T. ) ;
#147 = CARTESIAN_POINT ( 'NONE',  ( 0.0000000000000000000, 0.0000000000000000000, 1.968503999999999809 ) ) ;
#148 = PRODUCT_CONTEXT ( 'NONE', #236, 'mechanical' ) ;
#149 = ORIENTED_EDGE ( 'NONE', *, *, #293, .T. ) ;
#150 = EDGE_LOOP ( 'NONE', ( #171, #288, #173, #84 ) ) ;
#151 = AXIS2_PLACEMENT_3D ( 'NONE', #105, #56, #29 ) ;
#152 = ORIENTED_EDGE ( 'NONE', *, *, #48, .F. ) ;
#153 = ORIENTED_EDGE ( 'NONE', *, *, #202, .T. ) ;
#154 = EDGE_CURVE ( 'NONE', #36, #175, #227, .T. ) ;
#155 = DIRECTION ( 'NONE',  ( 0.0000000000000000000, 0.0000000000000000000, -1.000000000000000000 ) ) ;
#156 = CIRCLE ( 'NONE', #8, 0.03146450399999999731 ) ;
#157 = DIRECTION ( 'NONE',  ( 0.0000000000000000000, 0.0000000000000000000, 1.000000000000000000 ) ) ;
#158 = DIRECTION ( 'NONE',  ( 1.000000000000000000, 0.0000000000000000000, 0.0000000000000000000 ) ) ;
#159 = FACE_OUTER_BOUND ( 'NONE', #33, .T. ) ;
#160 = DIRECTION ( 'NONE',  ( 1.224646799147353207E-16, 0.0000000000000000000, 1.000000000000000000 ) ) ;
#161 = DIRECTION ( 'NONE',  ( -0.0000000000000000000, -0.0000000000000000000, -1.000000000000000000 ) ) ;
#162 = DIRECTION ( 'NONE',  ( 1.000000000000000000, 0.0000000000000000000, 0.0000000000000000000 ) ) ;
#163 = PRODUCT_DEFINITION_CONTEXT ( 'detailed design', #193, 'design' ) ;
#164 = VECTOR ( 'NONE', #17, 39.37007874015748143 ) ;
#165 =( CONVERSION_BASED_UNIT ( 'INCH', #73 ) LENGTH_UNIT ( ) NAMED_UNIT ( #71 ) );
#166 = ADVANCED_FACE ( 'NONE', ( #63 ), #262, .T. ) ;
#167 = DIRECTION ( 'NONE',  ( 1.000000000000000000, 0.0000000000000000000, 0.0000000000000000000 ) ) ;
#168 = FACE_OUTER_BOUND ( 'NONE', #129, .T. ) ;
#169 =( NAMED_UNIT ( * ) SI_UNIT ( $, .STERADIAN. ) SOLID_ANGLE_UNIT ( ) );
#170 = AXIS2_PLACEMENT_3D ( 'NONE', #285, #192, #162 ) ;
#171 = ORIENTED_EDGE ( 'NONE', *, *, #154, .T. ) ;
#172 = ORIENTED_EDGE ( 'NONE', *, *, #230, .T. ) ;
#173 = ORIENTED_EDGE ( 'NONE', *, *, #61, .F. ) ;
#174 =( CONVERSION_BASED_UNIT ( 'INCH', #85 ) LENGTH_UNIT ( ) NAMED_UNIT ( #50 ) );
#175 = VERTEX_POINT ( 'NONE', #111 ) ;
#176 = COLOUR_RGB ( '',0.7921568627450980005, 0.8196078431372548767, 0.9333333333333333481 ) ;
#177 =( LENGTH_UNIT ( ) NAMED_UNIT ( * ) SI_UNIT ( $, .METRE. ) );
#178 = EDGE_CURVE ( 'NONE', #219, #264, #87, .T. ) ;
#179 = ORIENTED_EDGE ( 'NONE', *, *, #284, .F. ) ;
#180 = CARTESIAN_POINT ( 'NONE',  ( 0.0000000000000000000, 0.0000000000000000000, 0.0000000000000000000 ) ) ;
#181 = DIRECTION ( 'NONE',  ( -0.1736481776669311639, 2.126576849575783008E-17, 0.9848077530122080203 ) ) ;
#182 = CIRCLE ( 'NONE', #216, 0.03146450399999999731 ) ;
#183 = ADVANCED_FACE ( 'NONE', ( #38 ), #273, .T. ) ;
#184 = FACE_OUTER_BOUND ( 'NONE', #294, .T. ) ;
#185 = DIRECTION ( 'NONE',  ( 0.7071067811865507924, 8.659560562354973534E-17, -0.7071067811865443531 ) ) ;
#186 = UNCERTAINTY_MEASURE_WITH_UNIT (LENGTH_MEASURE( 1.000000000000000082E-05 ), #165, 'distance_accuracy_value', 'NONE');
#187 = DIRECTION ( 'NONE',  ( 0.0000000000000000000, 0.0000000000000000000, 1.000000000000000000 ) ) ;
#188 = AXIS2_PLACEMENT_3D ( 'NONE', #256, #44, #235 ) ;
#189 = CYLINDRICAL_SURFACE ( 'NONE', #77, 0.03146450399999999731 ) ;
#190 = SURFACE_STYLE_USAGE ( .BOTH. , #212 ) ;
#191 = CYLINDRICAL_SURFACE ( 'NONE', #123, 0.07874000000000001831 ) ;
#192 = DIRECTION ( 'NONE',  ( 0.0000000000000000000, 0.0000000000000000000, 1.000000000000000000 ) ) ;
#193 = APPLICATION_CONTEXT ( 'automotive_design' ) ;
#194 = ORIENTED_EDGE ( 'NONE', *, *, #2, .F. ) ;
#195 = DIRECTION ( 'NONE',  ( 1.000000000000000000, 0.0000000000000000000, 0.0000000000000000000 ) ) ;
#196 = ORIENTED_EDGE ( 'NONE', *, *, #197, .F. ) ;
#197 = EDGE_CURVE ( 'NONE', #57, #264, #277, .T. ) ;
#198 = APPLICATION_PROTOCOL_DEFINITION ( 'draft international standard', 'automotive_design', 1998, #236 ) ;
#199 = ORIENTED_EDGE ( 'NONE', *, *, #178, .F. ) ;
#200 = ORIENTED_EDGE ( 'NONE', *, *, #118, .F. ) ;
#201 = LINE ( 'NONE', #295, #164 ) ;
#202 = EDGE_CURVE ( 'NONE', #86, #57, #201, .T. ) ;
#203 = CARTESIAN_POINT ( 'NONE',  ( 0.0000000000000000000, 0.0000000000000000000, 1.968503999999999809 ) ) ;
#204 = CARTESIAN_POINT ( 'NONE',  ( 4.718919768060314138E-34, 0.0000000000000000000, 3.853290411035908808E-18 ) ) ;
#205 = DIRECTION ( 'NONE',  ( 1.000000000000000000, 0.0000000000000000000, 0.0000000000000000000 ) ) ;
#206 = EDGE_CURVE ( 'NONE', #86, #58, #88, .T. ) ;
#207 = DIRECTION ( 'NONE',  ( 0.0000000000000000000, 0.0000000000000000000, -1.000000000000000000 ) ) ;
#208 = AXIS2_PLACEMENT_3D ( 'NONE', #21, #225, #205 ) ;
#209 = DIRECTION ( 'NONE',  ( 0.0000000000000000000, 0.0000000000000000000, 1.000000000000000000 ) ) ;
#210 = FACE_OUTER_BOUND ( 'NONE', #150, .T. ) ;
#211 = ADVANCED_FACE ( 'NONE', ( #210 ), #3, .T. ) ;
#212 = SURFACE_SIDE_STYLE ('',( #5 ) ) ;
#213 = CYLINDRICAL_SURFACE ( 'NONE', #53, 0.07874000000000001831 ) ;
#214 = APPLICATION_PROTOCOL_DEFINITION ( 'draft international standard', 'automotive_design', 1998, #193 ) ;
#215 = ORIENTED_EDGE ( 'NONE', *, *, #81, .F. ) ;
#216 = AXIS2_PLACEMENT_3D ( 'NONE', #204, #91, #138 ) ;
#217 = ORIENTED_EDGE ( 'NONE', *, *, #238, .F. ) ;
#218 = DIRECTION ( 'NONE',  ( 1.224646799147353207E-16, 0.0000000000000000000, 1.000000000000000000 ) ) ;
#219 = VERTEX_POINT ( 'NONE', #144 ) ;
#220 = ADVANCED_FACE ( 'NONE', ( #97 ), #189, .T. ) ;
#221 = ORIENTED_EDGE ( 'NONE', *, *, #146, .F. ) ;
#222 = AXIS2_PLACEMENT_3D ( 'NONE', #99, #209, #167 ) ;
#223 = ORIENTED_EDGE ( 'NONE', *, *, #48, .T. ) ;
#224 = DIRECTION ( 'NONE',  ( -0.0000000000000000000, -0.0000000000000000000, -1.000000000000000000 ) ) ;
#225 = DIRECTION ( 'NONE',  ( -1.224646799147353207E-16, -0.0000000000000000000, -1.000000000000000000 ) ) ;
#226 = CARTESIAN_POINT ( 'NONE',  ( 0.03146450399999999731, 3.853290411035908808E-18, -3.853290411035908808E-18 ) ) ;
#227 = CIRCLE ( 'NONE', #100, 0.03146450399999999731 ) ;
#228 = CIRCLE ( 'NONE', #131, 0.07874000000000001831 ) ;
#229 = CARTESIAN_POINT ( 'NONE',  ( 0.0000000000000000000, 0.0000000000000000000, 1.968503999999999809 ) ) ;
#230 = EDGE_CURVE ( 'NONE', #57, #89, #228, .T. ) ;
#231 = CARTESIAN_POINT ( 'NONE',  ( 0.03146450400000001812, 0.0000000000000000000, 0.1889760000000000051 ) ) ;
#232 = MANIFOLD_SOLID_BREP ( 'Cut-Revolve1', #257 ) ;
#233 = CARTESIAN_POINT ( 'NONE',  ( 0.0000000000000000000, 0.0000000000000000000, 1.968503999999999809 ) ) ;
#234 = DIRECTION ( 'NONE',  ( -1.224646799147353207E-16, -0.0000000000000000000, -1.000000000000000000 ) ) ;
#235 = DIRECTION ( 'NONE',  ( -1.000000000000000000, 0.0000000000000000000, 1.224646799147353207E-16 ) ) ;
#236 = APPLICATION_CONTEXT ( 'automotive_design' ) ;
#237 = CARTESIAN_POINT ( 'NONE',  ( 2.314288535156702350E-17, 0.0000000000000000000, 0.1889760000000000051 ) ) ;
#238 = EDGE_CURVE ( 'NONE', #58, #86, #101, .T. ) ;
#239 = ORIENTED_EDGE ( 'NONE', *, *, #154, .F. ) ;
#240 = ADVANCED_BREP_SHAPE_REPRESENTATION ( 'Micro_AMRM-016-2', ( #232, #151 ), #93 ) ;
#241 = SURFACE_STYLE_FILL_AREA ( #265 ) ;
#242 = ORIENTED_EDGE ( 'NONE', *, *, #206, .F. ) ;
#243 = AXIS2_PLACEMENT_3D ( 'NONE', #96, #67, #158 ) ;
#244 = STYLED_ITEM ( 'NONE', ( #75 ), #232 ) ;
#245 = ORIENTED_EDGE ( 'NONE', *, *, #284, .T. ) ;
#246 = LENGTH_MEASURE_WITH_UNIT ( LENGTH_MEASURE( 0.02539999999999999897 ), #10 );
#247 = EDGE_LOOP ( 'NONE', ( #172, #245, #200, #196 ) ) ;
#248 = ORIENTED_EDGE ( 'NONE', *, *, #136, .T. ) ;
#249 = MECHANICAL_DESIGN_GEOMETRIC_PRESENTATION_REPRESENTATION (  '', ( #4 ), #286 ) ;
#250 = CARTESIAN_POINT ( 'NONE',  ( -0.03146450399999997649, 3.853290411035908808E-18, 0.1889760000000000051 ) ) ;
#251 = CARTESIAN_POINT ( 'NONE',  ( 4.718919768060314138E-34, 0.0000000000000000000, 3.853290411035908808E-18 ) ) ;
#252 = LINE ( 'NONE', #250, #27 ) ;
#253 = DIRECTION ( 'NONE',  ( -1.224646799147353207E-16, -0.0000000000000000000, -1.000000000000000000 ) ) ;
#254 = ADVANCED_FACE ( 'NONE', ( #259 ), #191, .T. ) ;
#255 = CARTESIAN_POINT ( 'NONE',  ( 0.03146450399999999731, 3.853290411035908808E-18, 0.0000000000000000000 ) ) ;
#256 = CARTESIAN_POINT ( 'NONE',  ( 0.0000000000000000000, 0.0000000000000000000, 0.0000000000000000000 ) ) ;
#257 = CLOSED_SHELL ( 'NONE', ( #211, #18, #74, #258, #254, #183, #166, #298, #220, #132 ) ) ;
#258 = ADVANCED_FACE ( 'NONE', ( #261 ), #213, .T. ) ;
#259 = FACE_OUTER_BOUND ( 'NONE', #130, .T. ) ;
#260 = CIRCLE ( 'NONE', #59, 0.03146450399999999731 ) ;
#261 = FACE_OUTER_BOUND ( 'NONE', #247, .T. ) ;
#262 = CONICAL_SURFACE ( 'NONE', #31, 0.06374000000000018540, 0.7853981633974528309 ) ;
#263 = ORIENTED_EDGE ( 'NONE', *, *, #275, .F. ) ;
#264 = VERTEX_POINT ( 'NONE', #46 ) ;
#265 = FILL_AREA_STYLE ('',( #32 ) ) ;
#266 = ORIENTED_EDGE ( 'NONE', *, *, #275, .T. ) ;
#267 = VECTOR ( 'NONE', #145, 39.37007874015748143 ) ;
#268 = ORIENTED_EDGE ( 'NONE', *, *, #81, .T. ) ;
#269 = PRODUCT_DEFINITION_SHAPE ( 'NONE', 'NONE',  #70 ) ;
#270 = EDGE_LOOP ( 'NONE', ( #14, #126 ) ) ;
#271 = DIRECTION ( 'NONE',  ( 1.000000000000000000, 0.0000000000000000000, -0.0000000000000000000 ) ) ;
#272 = CONICAL_SURFACE ( 'NONE', #92, 0.03146450399999999731, 0.1745329251994338637 ) ;
#273 = PLANE ( 'NONE',  #143 ) ;
#274 = CARTESIAN_POINT ( 'NONE',  ( -0.03146450399999999731, 0.0000000000000000000, 7.706580822071817615E-18 ) ) ;
#275 = EDGE_CURVE ( 'NONE', #175, #36, #156, .T. ) ;
#276 = PLANE ( 'NONE',  #113 ) ;
#277 = LINE ( 'NONE', #39, #296 ) ;
#278 =( NAMED_UNIT ( * ) SI_UNIT ( $, .STERADIAN. ) SOLID_ANGLE_UNIT ( ) );
#279 = PRODUCT_RELATED_PRODUCT_CATEGORY ( 'part', '', ( #45 ) ) ;
#280 =( LENGTH_UNIT ( ) NAMED_UNIT ( * ) SI_UNIT ( $, .METRE. ) );
#281 = CARTESIAN_POINT ( 'NONE',  ( 0.0000000000000000000, 0.0000000000000000000, 1.953504000000000129 ) ) ;
#282 = VECTOR ( 'NONE', #112, 39.37007874015748143 ) ;
#283 = DIRECTION ( 'NONE',  ( -1.000000000000000000, 0.0000000000000000000, 0.0000000000000000000 ) ) ;
#284 = EDGE_CURVE ( 'NONE', #89, #219, #49, .T. ) ;
#285 = CARTESIAN_POINT ( 'NONE',  ( 0.0000000000000000000, 0.0000000000000000000, 1.968503999999999809 ) ) ;
#286 =( GEOMETRIC_REPRESENTATION_CONTEXT ( 3 ) GLOBAL_UNCERTAINTY_ASSIGNED_CONTEXT ( ( #139 ) ) GLOBAL_UNIT_ASSIGNED_CONTEXT ( ( #174, #60, #128 ) ) REPRESENTATION_CONTEXT ( 'NONE', 'WORKASPACE' ) );
#287 = ORIENTED_EDGE ( 'NONE', *, *, #2, .T. ) ;
#288 = ORIENTED_EDGE ( 'NONE', *, *, #146, .T. ) ;
#289 = AXIS2_PLACEMENT_3D ( 'NONE', #140, #207, #90 ) ;
#290 = PRESENTATION_LAYER_ASSIGNMENT (  '', '', ( #4 ) ) ;
#291 = CONICAL_SURFACE ( 'NONE', #137, 0.03146450399999999731, 0.1745329251994338637 ) ;
#292 = EDGE_LOOP ( 'NONE', ( #152, #242, #153, #194 ) ) ;
#293 = EDGE_CURVE ( 'NONE', #36, #104, #79, .T. ) ;
#294 = EDGE_LOOP ( 'NONE', ( #239, #248, #62, #215 ) ) ;
#295 = CARTESIAN_POINT ( 'NONE',  ( -0.06374000000000018540, 0.0000000000000000000, 1.968503999999999809 ) ) ;
#296 = VECTOR ( 'NONE', #224, 39.37007874015748143 ) ;
#297 = DIRECTION ( 'NONE',  ( 1.000000000000000000, 0.0000000000000000000, 0.0000000000000000000 ) ) ;
#298 = ADVANCED_FACE ( 'NONE', ( #168 ), #291, .T. ) ;
#299 = LINE ( 'NONE', #231, #41 ) ;
ENDSEC;
END-ISO-10303-21;
