ISO-10303-21;
HEADER;
FILE_DESCRIPTION (( 'STEP AP214' ),
    '1' );
FILE_NAME ('Micro_SBMM-020-206X.STEP',
    '2021-09-02T17:04:02',
    ( '' ),
    ( '' ),
    'SwSTEP 2.0',
    'SolidWorks 2020',
    '' );
FILE_SCHEMA (( 'AUTOMOTIVE_DESIGN' ));
ENDSEC;

DATA;
#1 = LINE ( 'NONE', #333, #126 ) ;
#2 = EDGE_LOOP ( 'NONE', ( #234, #120, #224, #60 ) ) ;
#3 = CARTESIAN_POINT ( 'NONE',  ( 0.1031099999999991745, 1.262733314600825725E-17, 2.952755999999999936 ) ) ;
#4 = DIRECTION ( 'NONE',  ( 0.0000000000000000000, 0.0000000000000000000, 1.000000000000000000 ) ) ;
#5 = VECTOR ( 'NONE', #268, 39.37007874015748143 ) ;
#6 = ORIENTED_EDGE ( 'NONE', *, *, #221, .T. ) ;
#7 = SPHERICAL_SURFACE ( 'NONE', #80, 0.03936999999999999528 ) ;
#8 = CARTESIAN_POINT ( 'NONE',  ( 0.0000000000000000000, 0.0000000000000000000, 2.952755999999999936 ) ) ;
#9 = FILL_AREA_STYLE_COLOUR ( '', #38 ) ;
#10 = DIRECTION ( 'NONE',  ( 0.0000000000000000000, 1.000000000000000000, 0.0000000000000000000 ) ) ;
#11 = AXIS2_PLACEMENT_3D ( 'NONE', #173, #100, #240 ) ;
#12 = DIRECTION ( 'NONE',  ( -0.09001740739397515179, 1.102395298325749721E-17, 0.9959401921631976240 ) ) ;
#13 = ORIENTED_EDGE ( 'NONE', *, *, #145, .F. ) ;
#14 = PRESENTATION_STYLE_ASSIGNMENT (( #119 ) ) ;
#15 = VERTEX_POINT ( 'NONE', #284 ) ;
#16 = SURFACE_STYLE_FILL_AREA ( #20 ) ;
#17 = ORIENTED_EDGE ( 'NONE', *, *, #99, .T. ) ;
#18 = AXIS2_PLACEMENT_3D ( 'NONE', #277, #158, #56 ) ;
#19 = CONICAL_SURFACE ( 'NONE', #49, 0.1299209999999997311, 0.09013942335351882162 ) ;
#20 = FILL_AREA_STYLE ('',( #9 ) ) ;
#21 = ORIENTED_EDGE ( 'NONE', *, *, #308, .T. ) ;
#22 = CYLINDRICAL_SURFACE ( 'NONE', #48, 0.02559049999999998132 ) ;
#23 = CIRCLE ( 'NONE', #155, 0.02559049999999998132 ) ;
#24 = CARTESIAN_POINT ( 'NONE',  ( 0.0000000000000000000, 0.0000000000000000000, 2.952755999999999936 ) ) ;
#25 = CARTESIAN_POINT ( 'NONE',  ( 0.02559049999999998132, 3.133932391358031704E-18, 0.06928860975630385388 ) ) ;
#26 = FILL_AREA_STYLE_COLOUR ( '', #125 ) ;
#27 = FACE_OUTER_BOUND ( 'NONE', #31, .T. ) ;
#28 = DIRECTION ( 'NONE',  ( 1.000000000000000000, 0.0000000000000000000, 0.0000000000000000000 ) ) ;
#29 = ADVANCED_FACE ( 'NONE', ( #40 ), #130, .T. ) ;
#30 = CARTESIAN_POINT ( 'NONE',  ( 0.1181100000000000344, 1.446430334472939084E-17, 1.259842999999999824 ) ) ;
#31 = EDGE_LOOP ( 'NONE', ( #44, #312, #200, #261 ) ) ;
#32 = LINE ( 'NONE', #3, #231 ) ;
#33 = CARTESIAN_POINT ( 'NONE',  ( 0.0000000000000000000, 0.0000000000000000000, 1.390518276595741343 ) ) ;
#34 = ORIENTED_EDGE ( 'NONE', *, *, #320, .F. ) ;
#35 = FACE_OUTER_BOUND ( 'NONE', #167, .T. ) ;
#36 = EDGE_CURVE ( 'NONE', #15, #306, #23, .T. ) ;
#37 = ORIENTED_EDGE ( 'NONE', *, *, #291, .T. ) ;
#38 = COLOUR_RGB ( '',0.7921568627450980005, 0.8196078431372548767, 0.9333333333333333481 ) ;
#39 = LENGTH_MEASURE_WITH_UNIT ( LENGTH_MEASURE( 0.02539999999999999897 ), #194 );
#40 = FACE_OUTER_BOUND ( 'NONE', #66, .T. ) ;
#41 = PRODUCT_CONTEXT ( 'NONE', #253, 'mechanical' ) ;
#42 = ADVANCED_FACE ( 'NONE', ( #334 ), #94, .T. ) ;
#43 = ORIENTED_EDGE ( 'NONE', *, *, #324, .F. ) ;
#44 = ORIENTED_EDGE ( 'NONE', *, *, #36, .F. ) ;
#45 = CIRCLE ( 'NONE', #239, 0.02559049999999998132 ) ;
#46 = CARTESIAN_POINT ( 'NONE',  ( 0.0000000000000000000, 0.0000000000000000000, 0.0000000000000000000 ) ) ;
#47 = LINE ( 'NONE', #152, #215 ) ;
#48 = AXIS2_PLACEMENT_3D ( 'NONE', #46, #316, #150 ) ;
#49 = AXIS2_PLACEMENT_3D ( 'NONE', #33, #4, #28 ) ;
#50 = CARTESIAN_POINT ( 'NONE',  ( 0.0000000000000000000, 0.02559049999999999173, 0.06928860975630385388 ) ) ;
#51 = ADVANCED_FACE ( 'NONE', ( #35 ), #139, .T. ) ;
#52 = EDGE_CURVE ( 'NONE', #212, #286, #146, .T. ) ;
#53 = FACE_OUTER_BOUND ( 'NONE', #166, .T. ) ;
#54 = MANIFOLD_SOLID_BREP ( 'Cut-Revolve3', #278 ) ;
#55 = CARTESIAN_POINT ( 'NONE',  ( 0.0000000000000000000, 0.0000000000000000000, 2.952755999999999936 ) ) ;
#56 = DIRECTION ( 'NONE',  ( -1.000000000000000000, 0.0000000000000000000, 0.0000000000000000000 ) ) ;
#57 = MECHANICAL_DESIGN_GEOMETRIC_PRESENTATION_REPRESENTATION (  '', ( #108 ), #182 ) ;
#58 = EDGE_CURVE ( 'NONE', #143, #212, #47, .T. ) ;
#59 = CIRCLE ( 'NONE', #293, 0.1031099999999991745 ) ;
#60 = ORIENTED_EDGE ( 'NONE', *, *, #183, .T. ) ;
#61 = DIRECTION ( 'NONE',  ( 1.000000000000000000, 1.224646799147353207E-16, -0.0000000000000000000 ) ) ;
#62 = ORIENTED_EDGE ( 'NONE', *, *, #241, .F. ) ;
#63 = DIRECTION ( 'NONE',  ( -1.000000000000000000, 0.0000000000000000000, 0.0000000000000000000 ) ) ;
#64 = FACE_OUTER_BOUND ( 'NONE', #330, .T. ) ;
#65 = PRESENTATION_LAYER_ASSIGNMENT (  '', '', ( #108 ) ) ;
#66 = EDGE_LOOP ( 'NONE', ( #257, #84, #70, #281 ) ) ;
#67 = SHAPE_DEFINITION_REPRESENTATION ( #342, #90 ) ;
#68 = ORIENTED_EDGE ( 'NONE', *, *, #235, .T. ) ;
#69 =( NAMED_UNIT ( * ) SI_UNIT ( $, .STERADIAN. ) SOLID_ANGLE_UNIT ( ) );
#70 = ORIENTED_EDGE ( 'NONE', *, *, #52, .F. ) ;
#71 = ORIENTED_EDGE ( 'NONE', *, *, #106, .F. ) ;
#72 = LENGTH_MEASURE_WITH_UNIT ( LENGTH_MEASURE( 0.02539999999999999897 ), #262 );
#73 =( NAMED_UNIT ( * ) SI_UNIT ( $, .STERADIAN. ) SOLID_ANGLE_UNIT ( ) );
#74 = CARTESIAN_POINT ( 'NONE',  ( 0.0000000000000000000, 0.0000000000000000000, 2.952755999999999936 ) ) ;
#75 = CARTESIAN_POINT ( 'NONE',  ( 0.0000000000000000000, 0.0000000000000000000, 2.952755999999999936 ) ) ;
#76 = PRESENTATION_STYLE_ASSIGNMENT (( #129 ) ) ;
#77 = CYLINDRICAL_SURFACE ( 'NONE', #204, 0.1181100000000000344 ) ;
#78 = DIRECTION ( 'NONE',  ( -0.7071067811865486830, 0.0000000000000000000, -0.7071067811865462405 ) ) ;
#79 = CARTESIAN_POINT ( 'NONE',  ( 0.0000000000000000000, 0.0000000000000000000, 0.2362200000000000688 ) ) ;
#80 = AXIS2_PLACEMENT_3D ( 'NONE', #217, #304, #180 ) ;
#81 = CARTESIAN_POINT ( 'NONE',  ( 3.133932391358032860E-18, -0.02559049999999999173, 0.06928860975630385388 ) ) ;
#82 = CONICAL_SURFACE ( 'NONE', #216, 0.1031099999999991745, 0.7853981633974500554 ) ;
#83 = CIRCLE ( 'NONE', #96, 0.02559049999999998132 ) ;
#84 = ORIENTED_EDGE ( 'NONE', *, *, #258, .T. ) ;
#85 = CARTESIAN_POINT ( 'NONE',  ( 0.0000000000000000000, 0.0000000000000000000, 1.390518276595741343 ) ) ;
#86 = CARTESIAN_POINT ( 'NONE',  ( 0.0000000000000000000, 0.0000000000000000000, 0.03937000000000000915 ) ) ;
#87 = ORIENTED_EDGE ( 'NONE', *, *, #154, .T. ) ;
#88 = ORIENTED_EDGE ( 'NONE', *, *, #145, .T. ) ;
#89 = PRESENTATION_LAYER_ASSIGNMENT (  '', '', ( #339 ) ) ;
#90 = ADVANCED_BREP_SHAPE_REPRESENTATION ( 'Micro_SBMM-020-206X', ( #54, #275 ), #141 ) ;
#91 = ORIENTED_EDGE ( 'NONE', *, *, #195, .T. ) ;
#92 = ORIENTED_EDGE ( 'NONE', *, *, #229, .T. ) ;
#93 = ADVANCED_FACE ( 'NONE', ( #290 ), #22, .T. ) ;
#94 = PLANE ( 'NONE',  #238 ) ;
#95 = AXIS2_PLACEMENT_3D ( 'NONE', #128, #242, #295 ) ;
#96 = AXIS2_PLACEMENT_3D ( 'NONE', #274, #296, #131 ) ;
#97 = CARTESIAN_POINT ( 'NONE',  ( 0.0000000000000000000, 0.0000000000000000000, 0.03937000000000000915 ) ) ;
#98 = EDGE_LOOP ( 'NONE', ( #196, #88, #299, #62, #71 ) ) ;
#99 = EDGE_CURVE ( 'NONE', #143, #122, #335, .T. ) ;
#100 = DIRECTION ( 'NONE',  ( 0.0000000000000000000, 0.0000000000000000000, 1.000000000000000000 ) ) ;
#101 = VECTOR ( 'NONE', #164, 39.37007874015748143 ) ;
#102 = CARTESIAN_POINT ( 'NONE',  ( 0.1181100000000000344, 1.446430334472939084E-17, 2.952755999999999936 ) ) ;
#103 = PRODUCT_DEFINITION_CONTEXT ( 'detailed design', #178, 'design' ) ;
#104 = CARTESIAN_POINT ( 'NONE',  ( -0.1181100000000000344, 0.0000000000000000000, 1.259842999999999824 ) ) ;
#105 = EDGE_CURVE ( 'NONE', #286, #212, #254, .T. ) ;
#106 = EDGE_CURVE ( 'NONE', #15, #140, #203, .T. ) ;
#107 = CARTESIAN_POINT ( 'NONE',  ( 0.0000000000000000000, 0.0000000000000000000, 2.937755999999999368 ) ) ;
#108 = STYLED_ITEM ( 'NONE', ( #76 ), #54 ) ;
#109 = CARTESIAN_POINT ( 'NONE',  ( 0.0000000000000000000, 0.0000000000000000000, 0.06928860975630385388 ) ) ;
#110 = VERTEX_POINT ( 'NONE', #104 ) ;
#111 = DIRECTION ( 'NONE',  ( -1.224646799147352961E-16, 1.000000000000000000, 0.0000000000000000000 ) ) ;
#112 = CIRCLE ( 'NONE', #95, 0.1181100000000000344 ) ;
#113 = FACE_OUTER_BOUND ( 'NONE', #197, .T. ) ;
#114 = DIRECTION ( 'NONE',  ( 0.7071067811865486830, 8.659560562354947649E-17, -0.7071067811865462405 ) ) ;
#115 = DIRECTION ( 'NONE',  ( 1.000000000000000000, 0.0000000000000000000, 0.0000000000000000000 ) ) ;
#116 = AXIS2_PLACEMENT_3D ( 'NONE', #97, #252, #10 ) ;
#117 = CARTESIAN_POINT ( 'NONE',  ( 0.0000000000000000000, 0.0000000000000000000, 2.937755999999999368 ) ) ;
#118 = ORIENTED_EDGE ( 'NONE', *, *, #168, .T. ) ;
#119 = SURFACE_STYLE_USAGE ( .BOTH. , #260 ) ;
#120 = ORIENTED_EDGE ( 'NONE', *, *, #105, .T. ) ;
#121 = ORIENTED_EDGE ( 'NONE', *, *, #241, .T. ) ;
#122 = VERTEX_POINT ( 'NONE', #267 ) ;
#123 = DIMENSIONAL_EXPONENTS ( 1.000000000000000000, 0.0000000000000000000, 0.0000000000000000000, 0.0000000000000000000, 0.0000000000000000000, 0.0000000000000000000, 0.0000000000000000000 ) ;
#124 = CARTESIAN_POINT ( 'NONE',  ( -0.02559049999999998132, 0.0000000000000000000, 0.06928860975630385388 ) ) ;
#125 = COLOUR_RGB ( '',0.7921568627450980005, 0.8196078431372548767, 0.9333333333333333481 ) ;
#126 = VECTOR ( 'NONE', #12, 39.37007874015748854 ) ;
#127 = SURFACE_STYLE_FILL_AREA ( #273 ) ;
#128 = CARTESIAN_POINT ( 'NONE',  ( 0.0000000000000000000, 0.0000000000000000000, 1.259842999999999824 ) ) ;
#129 = SURFACE_STYLE_USAGE ( .BOTH. , #269 ) ;
#130 = CONICAL_SURFACE ( 'NONE', #165, 0.1031099999999991745, 0.7853981633974500554 ) ;
#131 = DIRECTION ( 'NONE',  ( -1.000000000000000000, 0.0000000000000000000, 0.0000000000000000000 ) ) ;
#132 = DIRECTION ( 'NONE',  ( -1.000000000000000000, 0.0000000000000000000, 0.0000000000000000000 ) ) ;
#133 = DIRECTION ( 'NONE',  ( -1.000000000000000000, 0.0000000000000000000, 0.0000000000000000000 ) ) ;
#134 = ORIENTED_EDGE ( 'NONE', *, *, #258, .F. ) ;
#135 = DIRECTION ( 'NONE',  ( -1.000000000000000000, 0.0000000000000000000, 0.0000000000000000000 ) ) ;
#136 = CIRCLE ( 'NONE', #192, 0.03936999999999999528 ) ;
#137 = DIRECTION ( 'NONE',  ( 0.0000000000000000000, 0.0000000000000000000, 1.000000000000000000 ) ) ;
#138 = ORIENTED_EDGE ( 'NONE', *, *, #271, .T. ) ;
#139 = SPHERICAL_SURFACE ( 'NONE', #116, 0.03936999999999999528 ) ;
#140 = VERTEX_POINT ( 'NONE', #124 ) ;
#141 =( GEOMETRIC_REPRESENTATION_CONTEXT ( 3 ) GLOBAL_UNCERTAINTY_ASSIGNED_CONTEXT ( ( #294 ) ) GLOBAL_UNIT_ASSIGNED_CONTEXT ( ( #255, #311, #73 ) ) REPRESENTATION_CONTEXT ( 'NONE', 'WORKASPACE' ) );
#142 = CARTESIAN_POINT ( 'NONE',  ( 0.0000000000000000000, 0.0000000000000000000, 0.2362200000000000688 ) ) ;
#143 = VERTEX_POINT ( 'NONE', #236 ) ;
#144 = ORIENTED_EDGE ( 'NONE', *, *, #298, .T. ) ;
#145 = EDGE_CURVE ( 'NONE', #306, #181, #318, .T. ) ;
#146 = CIRCLE ( 'NONE', #230, 0.1181100000000000344 ) ;
#147 = CIRCLE ( 'NONE', #205, 0.02559049999999998132 ) ;
#148 =( NAMED_UNIT ( * ) PLANE_ANGLE_UNIT ( ) SI_UNIT ( $, .RADIAN. ) );
#149 = DIRECTION ( 'NONE',  ( 1.000000000000000000, 0.0000000000000000000, 0.0000000000000000000 ) ) ;
#150 = DIRECTION ( 'NONE',  ( -1.000000000000000000, 0.0000000000000000000, 0.0000000000000000000 ) ) ;
#151 = AXIS2_PLACEMENT_3D ( 'NONE', #214, #61, #111 ) ;
#152 = CARTESIAN_POINT ( 'NONE',  ( -0.1031099999999991745, 0.0000000000000000000, 2.952755999999999936 ) ) ;
#153 = FACE_OUTER_BOUND ( 'NONE', #186, .T. ) ;
#154 = EDGE_CURVE ( 'NONE', #286, #248, #272, .T. ) ;
#155 = AXIS2_PLACEMENT_3D ( 'NONE', #142, #313, #228 ) ;
#156 = AXIS2_PLACEMENT_3D ( 'NONE', #244, #321, #190 ) ;
#157 = DIRECTION ( 'NONE',  ( -0.0000000000000000000, -0.0000000000000000000, -1.000000000000000000 ) ) ;
#158 = DIRECTION ( 'NONE',  ( -0.0000000000000000000, -0.0000000000000000000, -1.000000000000000000 ) ) ;
#159 = CARTESIAN_POINT ( 'NONE',  ( 0.02559049999999998132, 0.0000000000000000000, 0.2362200000000000688 ) ) ;
#160 = CYLINDRICAL_SURFACE ( 'NONE', #18, 0.02559049999999998132 ) ;
#161 = ORIENTED_EDGE ( 'NONE', *, *, #58, .T. ) ;
#162 = ADVANCED_FACE ( 'NONE', ( #289 ), #77, .T. ) ;
#163 = ORIENTED_EDGE ( 'NONE', *, *, #99, .F. ) ;
#164 = DIRECTION ( 'NONE',  ( -0.0000000000000000000, -0.0000000000000000000, -1.000000000000000000 ) ) ;
#165 = AXIS2_PLACEMENT_3D ( 'NONE', #74, #201, #169 ) ;
#166 = EDGE_LOOP ( 'NONE', ( #34, #287, #118, #226 ) ) ;
#167 = EDGE_LOOP ( 'NONE', ( #91, #92, #6, #332 ) ) ;
#168 = EDGE_CURVE ( 'NONE', #306, #248, #177, .T. ) ;
#169 = DIRECTION ( 'NONE',  ( -1.000000000000000000, 0.0000000000000000000, 0.0000000000000000000 ) ) ;
#170 = VERTEX_POINT ( 'NONE', #50 ) ;
#171 = DIMENSIONAL_EXPONENTS ( 1.000000000000000000, 0.0000000000000000000, 0.0000000000000000000, 0.0000000000000000000, 0.0000000000000000000, 0.0000000000000000000, 0.0000000000000000000 ) ;
#172 = LENGTH_MEASURE_WITH_UNIT ( LENGTH_MEASURE( 0.02539999999999999897 ), #315 );
#173 = CARTESIAN_POINT ( 'NONE',  ( 0.0000000000000000000, 0.0000000000000000000, 2.952755999999999936 ) ) ;
#174 = DIMENSIONAL_EXPONENTS ( 1.000000000000000000, 0.0000000000000000000, 0.0000000000000000000, 0.0000000000000000000, 0.0000000000000000000, 0.0000000000000000000, 0.0000000000000000000 ) ;
#175 = CARTESIAN_POINT ( 'NONE',  ( 0.1299209999999997311, 0.0000000000000000000, 1.390518276595741343 ) ) ;
#176 = AXIS2_PLACEMENT_3D ( 'NONE', #109, #185, #251 ) ;
#177 = LINE ( 'NONE', #175, #345 ) ;
#178 = APPLICATION_CONTEXT ( 'automotive_design' ) ;
#179 = CARTESIAN_POINT ( 'NONE',  ( 0.0000000000000000000, 2.410717224121564242E-18, 1.707404996040164512E-17 ) ) ;
#180 = DIRECTION ( 'NONE',  ( 0.0000000000000000000, 1.000000000000000000, 0.0000000000000000000 ) ) ;
#181 = VERTEX_POINT ( 'NONE', #25 ) ;
#182 =( GEOMETRIC_REPRESENTATION_CONTEXT ( 3 ) GLOBAL_UNCERTAINTY_ASSIGNED_CONTEXT ( ( #208 ) ) GLOBAL_UNIT_ASSIGNED_CONTEXT ( ( #343, #148, #344 ) ) REPRESENTATION_CONTEXT ( 'NONE', 'WORKASPACE' ) );
#183 = EDGE_CURVE ( 'NONE', #110, #248, #112, .T. ) ;
#184 =( GEOMETRIC_REPRESENTATION_CONTEXT ( 3 ) GLOBAL_UNCERTAINTY_ASSIGNED_CONTEXT ( ( #243 ) ) GLOBAL_UNIT_ASSIGNED_CONTEXT ( ( #285, #331, #69 ) ) REPRESENTATION_CONTEXT ( 'NONE', 'WORKASPACE' ) );
#185 = DIRECTION ( 'NONE',  ( -0.0000000000000000000, -0.0000000000000000000, -1.000000000000000000 ) ) ;
#186 = EDGE_LOOP ( 'NONE', ( #282, #87, #68, #43 ) ) ;
#187 = ADVANCED_FACE ( 'NONE', ( #53 ), #319, .T. ) ;
#188 = DIRECTION ( 'NONE',  ( -0.0000000000000000000, -0.0000000000000000000, -1.000000000000000000 ) ) ;
#189 = PRODUCT ( 'Micro_SBMM-020-206X', 'Micro_SBMM-020-206X', '', ( #41 ) ) ;
#190 = DIRECTION ( 'NONE',  ( 1.000000000000000000, 0.0000000000000000000, 0.0000000000000000000 ) ) ;
#191 = DIRECTION ( 'NONE',  ( 1.000000000000000000, 0.0000000000000000000, 0.0000000000000000000 ) ) ;
#192 = AXIS2_PLACEMENT_3D ( 'NONE', #86, #132, #219 ) ;
#193 = ORIENTED_EDGE ( 'NONE', *, *, #308, .F. ) ;
#194 =( LENGTH_UNIT ( ) NAMED_UNIT ( * ) SI_UNIT ( $, .METRE. ) );
#195 = EDGE_CURVE ( 'NONE', #170, #181, #300, .T. ) ;
#196 = ORIENTED_EDGE ( 'NONE', *, *, #36, .T. ) ;
#197 = EDGE_LOOP ( 'NONE', ( #134, #163, #161, #232 ) ) ;
#198 = CARTESIAN_POINT ( 'NONE',  ( 0.0000000000000000000, 0.0000000000000000000, 0.0000000000000000000 ) ) ;
#199 = DIRECTION ( 'NONE',  ( 0.0000000000000000000, 0.0000000000000000000, 1.000000000000000000 ) ) ;
#200 = ORIENTED_EDGE ( 'NONE', *, *, #235, .F. ) ;
#201 = DIRECTION ( 'NONE',  ( 0.0000000000000000000, 0.0000000000000000000, -1.000000000000000000 ) ) ;
#202 = ADVANCED_FACE ( 'NONE', ( #64 ), #7, .T. ) ;
#203 = LINE ( 'NONE', #288, #270 ) ;
#204 = AXIS2_PLACEMENT_3D ( 'NONE', #24, #317, #237 ) ;
#205 = AXIS2_PLACEMENT_3D ( 'NONE', #302, #279, #133 ) ;
#206 = DIRECTION ( 'NONE',  ( 0.09001740739397515179, 0.0000000000000000000, 0.9959401921631976240 ) ) ;
#207 = DIRECTION ( 'NONE',  ( -0.0000000000000000000, -0.0000000000000000000, -1.000000000000000000 ) ) ;
#208 = UNCERTAINTY_MEASURE_WITH_UNIT (LENGTH_MEASURE( 1.000000000000000082E-05 ), #343, 'distance_accuracy_value', 'NONE');
#209 = DIRECTION ( 'NONE',  ( -0.0000000000000000000, -0.0000000000000000000, -1.000000000000000000 ) ) ;
#210 = CIRCLE ( 'NONE', #223, 0.02559049999999998132 ) ;
#211 = CARTESIAN_POINT ( 'NONE',  ( 0.0000000000000000000, 0.0000000000000000000, 0.06928860975630385388 ) ) ;
#212 = VERTEX_POINT ( 'NONE', #276 ) ;
#213 = ADVANCED_FACE ( 'NONE', ( #297 ), #160, .T. ) ;
#214 = CARTESIAN_POINT ( 'NONE',  ( 0.0000000000000000000, 0.0000000000000000000, 0.03937000000000000915 ) ) ;
#215 = VECTOR ( 'NONE', #78, 39.37007874015748854 ) ;
#216 = AXIS2_PLACEMENT_3D ( 'NONE', #55, #250, #247 ) ;
#217 = CARTESIAN_POINT ( 'NONE',  ( 0.0000000000000000000, 0.0000000000000000000, 0.03937000000000000915 ) ) ;
#218 = CARTESIAN_POINT ( 'NONE',  ( 0.1181100000000000344, 1.446430334472939084E-17, 2.937755999999999368 ) ) ;
#219 = DIRECTION ( 'NONE',  ( 0.0000000000000000000, 0.0000000000000000000, 1.000000000000000000 ) ) ;
#220 = EDGE_LOOP ( 'NONE', ( #13, #37, #322, #193, #263 ) ) ;
#221 = EDGE_CURVE ( 'NONE', #266, #307, #309, .T. ) ;
#222 = CARTESIAN_POINT ( 'NONE',  ( -0.1181100000000000344, 0.0000000000000000000, 2.952755999999999936 ) ) ;
#223 = AXIS2_PLACEMENT_3D ( 'NONE', #211, #157, #135 ) ;
#224 = ORIENTED_EDGE ( 'NONE', *, *, #324, .T. ) ;
#225 = LINE ( 'NONE', #222, #101 ) ;
#226 = ORIENTED_EDGE ( 'NONE', *, *, #183, .F. ) ;
#227 = ADVANCED_FACE ( 'NONE', ( #113 ), #82, .T. ) ;
#228 = DIRECTION ( 'NONE',  ( -1.000000000000000000, 0.0000000000000000000, 0.0000000000000000000 ) ) ;
#229 = EDGE_CURVE ( 'NONE', #181, #266, #210, .T. ) ;
#230 = AXIS2_PLACEMENT_3D ( 'NONE', #117, #337, #149 ) ;
#231 = VECTOR ( 'NONE', #114, 39.37007874015748854 ) ;
#232 = ORIENTED_EDGE ( 'NONE', *, *, #105, .F. ) ;
#233 = APPLICATION_PROTOCOL_DEFINITION ( 'draft international standard', 'automotive_design', 1998, #253 ) ;
#234 = ORIENTED_EDGE ( 'NONE', *, *, #154, .F. ) ;
#235 = EDGE_CURVE ( 'NONE', #248, #110, #256, .T. ) ;
#236 = CARTESIAN_POINT ( 'NONE',  ( -0.1031099999999991745, 0.0000000000000000000, 2.952755999999999936 ) ) ;
#237 = DIRECTION ( 'NONE',  ( -1.000000000000000000, 0.0000000000000000000, 0.0000000000000000000 ) ) ;
#238 = AXIS2_PLACEMENT_3D ( 'NONE', #75, #199, #310 ) ;
#239 = AXIS2_PLACEMENT_3D ( 'NONE', #79, #188, #326 ) ;
#240 = DIRECTION ( 'NONE',  ( 1.000000000000000000, 0.0000000000000000000, 0.0000000000000000000 ) ) ;
#241 = EDGE_CURVE ( 'NONE', #140, #170, #147, .T. ) ;
#242 = DIRECTION ( 'NONE',  ( 0.0000000000000000000, 0.0000000000000000000, 1.000000000000000000 ) ) ;
#243 = UNCERTAINTY_MEASURE_WITH_UNIT (LENGTH_MEASURE( 1.000000000000000082E-05 ), #285, 'distance_accuracy_value', 'NONE');
#244 = CARTESIAN_POINT ( 'NONE',  ( 0.0000000000000000000, 0.0000000000000000000, 1.259842999999999824 ) ) ;
#245 = DIRECTION ( 'NONE',  ( 0.0000000000000000000, 0.0000000000000000000, 1.000000000000000000 ) ) ;
#246 = PRODUCT_RELATED_PRODUCT_CATEGORY ( 'part', '', ( #189 ) ) ;
#247 = DIRECTION ( 'NONE',  ( -1.000000000000000000, 0.0000000000000000000, 0.0000000000000000000 ) ) ;
#248 = VERTEX_POINT ( 'NONE', #30 ) ;
#249 = AXIS2_PLACEMENT_3D ( 'NONE', #85, #137, #115 ) ;
#250 = DIRECTION ( 'NONE',  ( 0.0000000000000000000, 0.0000000000000000000, -1.000000000000000000 ) ) ;
#251 = DIRECTION ( 'NONE',  ( -1.000000000000000000, 0.0000000000000000000, 0.0000000000000000000 ) ) ;
#252 = DIRECTION ( 'NONE',  ( 1.000000000000000000, 0.0000000000000000000, 0.0000000000000000000 ) ) ;
#253 = APPLICATION_CONTEXT ( 'automotive_design' ) ;
#254 = CIRCLE ( 'NONE', #329, 0.1181100000000000344 ) ;
#255 =( CONVERSION_BASED_UNIT ( 'INCH', #72 ) LENGTH_UNIT ( ) NAMED_UNIT ( #171 ) );
#256 = CIRCLE ( 'NONE', #156, 0.1181100000000000344 ) ;
#257 = ORIENTED_EDGE ( 'NONE', *, *, #298, .F. ) ;
#258 = EDGE_CURVE ( 'NONE', #122, #286, #32, .T. ) ;
#259 = ADVANCED_FACE ( 'NONE', ( #27 ), #19, .T. ) ;
#260 = SURFACE_SIDE_STYLE ('',( #16 ) ) ;
#261 = ORIENTED_EDGE ( 'NONE', *, *, #168, .F. ) ;
#262 =( LENGTH_UNIT ( ) NAMED_UNIT ( * ) SI_UNIT ( $, .METRE. ) );
#263 = ORIENTED_EDGE ( 'NONE', *, *, #229, .F. ) ;
#264 = DIRECTION ( 'NONE',  ( 0.0000000000000000000, 0.0000000000000000000, 1.000000000000000000 ) ) ;
#265 = MECHANICAL_DESIGN_GEOMETRIC_PRESENTATION_REPRESENTATION (  '', ( #339 ), #184 ) ;
#266 = VERTEX_POINT ( 'NONE', #81 ) ;
#267 = CARTESIAN_POINT ( 'NONE',  ( 0.1031099999999991745, 1.354581824536882559E-17, 2.952755999999999936 ) ) ;
#268 = DIRECTION ( 'NONE',  ( -0.0000000000000000000, -0.0000000000000000000, -1.000000000000000000 ) ) ;
#269 = SURFACE_SIDE_STYLE ('',( #127 ) ) ;
#270 = VECTOR ( 'NONE', #209, 39.37007874015748143 ) ;
#271 = EDGE_CURVE ( 'NONE', #170, #307, #136, .T. ) ;
#272 = LINE ( 'NONE', #102, #314 ) ;
#273 = FILL_AREA_STYLE ('',( #26 ) ) ;
#274 = CARTESIAN_POINT ( 'NONE',  ( 0.0000000000000000000, 0.0000000000000000000, 0.06928860975630385388 ) ) ;
#275 = AXIS2_PLACEMENT_3D ( 'NONE', #198, #264, #191 ) ;
#276 = CARTESIAN_POINT ( 'NONE',  ( -0.1181100000000000344, 0.0000000000000000000, 2.937755999999999368 ) ) ;
#277 = CARTESIAN_POINT ( 'NONE',  ( 0.0000000000000000000, 0.0000000000000000000, 0.0000000000000000000 ) ) ;
#278 = CLOSED_SHELL ( 'NONE', ( #93, #51, #259, #29, #303, #162, #42, #227, #187, #202, #213 ) ) ;
#279 = DIRECTION ( 'NONE',  ( -0.0000000000000000000, -0.0000000000000000000, -1.000000000000000000 ) ) ;
#280 = PRODUCT_DEFINITION ( 'UNKNOWN', '', #336, #103 ) ;
#281 = ORIENTED_EDGE ( 'NONE', *, *, #58, .F. ) ;
#282 = ORIENTED_EDGE ( 'NONE', *, *, #52, .T. ) ;
#283 = AXIS2_PLACEMENT_3D ( 'NONE', #8, #325, #63 ) ;
#284 = CARTESIAN_POINT ( 'NONE',  ( -0.02559049999999998132, 8.799117868043711275E-18, 0.2362200000000000688 ) ) ;
#285 =( CONVERSION_BASED_UNIT ( 'INCH', #39 ) LENGTH_UNIT ( ) NAMED_UNIT ( #123 ) );
#286 = VERTEX_POINT ( 'NONE', #218 ) ;
#287 = ORIENTED_EDGE ( 'NONE', *, *, #291, .F. ) ;
#288 = CARTESIAN_POINT ( 'NONE',  ( -0.02559049999999998132, 0.0000000000000000000, 0.0000000000000000000 ) ) ;
#289 = FACE_OUTER_BOUND ( 'NONE', #2, .T. ) ;
#290 = FACE_OUTER_BOUND ( 'NONE', #98, .T. ) ;
#291 = EDGE_CURVE ( 'NONE', #306, #15, #45, .T. ) ;
#292 = DIRECTION ( 'NONE',  ( 0.0000000000000000000, 0.0000000000000000000, -1.000000000000000000 ) ) ;
#293 = AXIS2_PLACEMENT_3D ( 'NONE', #301, #245, #328 ) ;
#294 = UNCERTAINTY_MEASURE_WITH_UNIT (LENGTH_MEASURE( 1.000000000000000082E-05 ), #255, 'distance_accuracy_value', 'NONE');
#295 = DIRECTION ( 'NONE',  ( 1.000000000000000000, 0.0000000000000000000, 0.0000000000000000000 ) ) ;
#296 = DIRECTION ( 'NONE',  ( -0.0000000000000000000, -0.0000000000000000000, -1.000000000000000000 ) ) ;
#297 = FACE_OUTER_BOUND ( 'NONE', #220, .T. ) ;
#298 = EDGE_CURVE ( 'NONE', #122, #143, #59, .T. ) ;
#299 = ORIENTED_EDGE ( 'NONE', *, *, #195, .F. ) ;
#300 = CIRCLE ( 'NONE', #176, 0.02559049999999998132 ) ;
#301 = CARTESIAN_POINT ( 'NONE',  ( 0.0000000000000000000, 0.0000000000000000000, 2.952755999999999936 ) ) ;
#302 = CARTESIAN_POINT ( 'NONE',  ( 0.0000000000000000000, 0.0000000000000000000, 0.06928860975630385388 ) ) ;
#303 = ADVANCED_FACE ( 'NONE', ( #153 ), #323, .T. ) ;
#304 = DIRECTION ( 'NONE',  ( 1.000000000000000000, 0.0000000000000000000, 0.0000000000000000000 ) ) ;
#305 = APPLICATION_PROTOCOL_DEFINITION ( 'draft international standard', 'automotive_design', 1998, #178 ) ;
#306 = VERTEX_POINT ( 'NONE', #159 ) ;
#307 = VERTEX_POINT ( 'NONE', #179 ) ;
#308 = EDGE_CURVE ( 'NONE', #266, #140, #83, .T. ) ;
#309 = CIRCLE ( 'NONE', #151, 0.03936999999999999528 ) ;
#310 = DIRECTION ( 'NONE',  ( 1.000000000000000000, 0.0000000000000000000, -0.0000000000000000000 ) ) ;
#311 =( NAMED_UNIT ( * ) PLANE_ANGLE_UNIT ( ) SI_UNIT ( $, .RADIAN. ) );
#312 = ORIENTED_EDGE ( 'NONE', *, *, #320, .T. ) ;
#313 = DIRECTION ( 'NONE',  ( -0.0000000000000000000, -0.0000000000000000000, -1.000000000000000000 ) ) ;
#314 = VECTOR ( 'NONE', #207, 39.37007874015748143 ) ;
#315 =( LENGTH_UNIT ( ) NAMED_UNIT ( * ) SI_UNIT ( $, .METRE. ) );
#316 = DIRECTION ( 'NONE',  ( -0.0000000000000000000, -0.0000000000000000000, -1.000000000000000000 ) ) ;
#317 = DIRECTION ( 'NONE',  ( -0.0000000000000000000, -0.0000000000000000000, -1.000000000000000000 ) ) ;
#318 = LINE ( 'NONE', #341, #5 ) ;
#319 = CONICAL_SURFACE ( 'NONE', #249, 0.1299209999999997311, 0.09013942335351882162 ) ;
#320 = EDGE_CURVE ( 'NONE', #15, #110, #1, .T. ) ;
#321 = DIRECTION ( 'NONE',  ( 0.0000000000000000000, 0.0000000000000000000, 1.000000000000000000 ) ) ;
#322 = ORIENTED_EDGE ( 'NONE', *, *, #106, .T. ) ;
#323 = CYLINDRICAL_SURFACE ( 'NONE', #283, 0.1181100000000000344 ) ;
#324 = EDGE_CURVE ( 'NONE', #212, #110, #225, .T. ) ;
#325 = DIRECTION ( 'NONE',  ( -0.0000000000000000000, -0.0000000000000000000, -1.000000000000000000 ) ) ;
#326 = DIRECTION ( 'NONE',  ( -1.000000000000000000, 0.0000000000000000000, 0.0000000000000000000 ) ) ;
#327 = ORIENTED_EDGE ( 'NONE', *, *, #221, .F. ) ;
#328 = DIRECTION ( 'NONE',  ( 1.000000000000000000, 0.0000000000000000000, 0.0000000000000000000 ) ) ;
#329 = AXIS2_PLACEMENT_3D ( 'NONE', #107, #292, #340 ) ;
#330 = EDGE_LOOP ( 'NONE', ( #327, #21, #121, #138 ) ) ;
#331 =( NAMED_UNIT ( * ) PLANE_ANGLE_UNIT ( ) SI_UNIT ( $, .RADIAN. ) );
#332 = ORIENTED_EDGE ( 'NONE', *, *, #271, .F. ) ;
#333 = CARTESIAN_POINT ( 'NONE',  ( -0.1299209999999997311, 1.591073367920229727E-17, 1.390518276595741343 ) ) ;
#334 = FACE_OUTER_BOUND ( 'NONE', #338, .T. ) ;
#335 = CIRCLE ( 'NONE', #11, 0.1031099999999991745 ) ;
#336 = PRODUCT_DEFINITION_FORMATION_WITH_SPECIFIED_SOURCE ( 'ANY', '', #189, .NOT_KNOWN. ) ;
#337 = DIRECTION ( 'NONE',  ( 0.0000000000000000000, 0.0000000000000000000, -1.000000000000000000 ) ) ;
#338 = EDGE_LOOP ( 'NONE', ( #17, #144 ) ) ;
#339 = STYLED_ITEM ( 'NONE', ( #14 ), #90 ) ;
#340 = DIRECTION ( 'NONE',  ( 1.000000000000000000, 0.0000000000000000000, 0.0000000000000000000 ) ) ;
#341 = CARTESIAN_POINT ( 'NONE',  ( 0.02559049999999998132, 3.133932391358031704E-18, 0.0000000000000000000 ) ) ;
#342 = PRODUCT_DEFINITION_SHAPE ( 'NONE', 'NONE',  #280 ) ;
#343 =( CONVERSION_BASED_UNIT ( 'INCH', #172 ) LENGTH_UNIT ( ) NAMED_UNIT ( #174 ) );
#344 =( NAMED_UNIT ( * ) SI_UNIT ( $, .STERADIAN. ) SOLID_ANGLE_UNIT ( ) );
#345 = VECTOR ( 'NONE', #206, 39.37007874015748854 ) ;
ENDSEC;
END-ISO-10303-21;
