ISO-10303-21;
HEADER;
FILE_DESCRIPTION (( 'STEP AP214' ),
    '1' );
FILE_NAME ('82263.STEP',
    '2023-06-23T04:36:42',
    ( '' ),
    ( '' ),
    'SwSTEP 2.0',
    'SolidWorks 2023',
    '' );
FILE_SCHEMA (( 'AUTOMOTIVE_DESIGN' ));
ENDSEC;

DATA;
#1 = CARTESIAN_POINT ( 'NONE',  ( 0.000000000000000000, 0.000000000000000000, -0.1250000000000000000 ) ) ;
#2 = UNCERTAINTY_MEASURE_WITH_UNIT (LENGTH_MEASURE( 1.000000000000000082E-05 ), #276, 'distance_accuracy_value', 'NONE');
#3 = CIRCLE ( 'NONE', #150, 0.1250000000000000000 ) ;
#4 =( LENGTH_UNIT ( ) NAMED_UNIT ( * ) SI_UNIT ( $, .METRE. ) );
#5 = PLANE ( 'NONE',  #297 ) ;
#6 =( LENGTH_UNIT ( ) NAMED_UNIT ( * ) SI_UNIT ( $, .METRE. ) );
#7 = AXIS2_PLACEMENT_3D ( 'NONE', #162, #253, #179 ) ;
#8 = EDGE_CURVE ( 'NONE', #153, #50, #120, .T. ) ;
#9 = MECHANICAL_DESIGN_GEOMETRIC_PRESENTATION_REPRESENTATION (  '', ( #16 ), #38 ) ;
#10 = SURFACE_SIDE_STYLE ('',( #302 ) ) ;
#11 = CARTESIAN_POINT ( 'NONE',  ( 0.000000000000000000, 0.000000000000000000, 0.000000000000000000 ) ) ;
#12 =( CONVERSION_BASED_UNIT ( 'INCH', #256 ) LENGTH_UNIT ( ) NAMED_UNIT ( #181 ) );
#13 = CYLINDRICAL_SURFACE ( 'NONE', #190, 0.1250000000000000000 ) ;
#14 = FACE_OUTER_BOUND ( 'NONE', #60, .T. ) ;
#15 = CARTESIAN_POINT ( 'NONE',  ( -6.123233995736772199E-17, 2.500000000000000000, 0.000000000000000000 ) ) ;
#16 = STYLED_ITEM ( 'NONE', ( #267 ), #202 ) ;
#17 = SURFACE_SIDE_STYLE ('',( #261 ) ) ;
#18 =( NAMED_UNIT ( * ) PLANE_ANGLE_UNIT ( ) SI_UNIT ( $, .RADIAN. ) );
#19 = STYLED_ITEM ( 'NONE', ( #183 ), #231 ) ;
#20 =( CONVERSION_BASED_UNIT ( 'INCH', #122 ) LENGTH_UNIT ( ) NAMED_UNIT ( #273 ) );
#21 = AXIS2_PLACEMENT_3D ( 'NONE', #113, #44, #206 ) ;
#22 = COLOUR_RGB ( '',1.000000000000000000, 0.000000000000000000, 0.000000000000000000 ) ;
#23 = ORIENTED_EDGE ( 'NONE', *, *, #287, .F. ) ;
#24 = FACE_OUTER_BOUND ( 'NONE', #156, .T. ) ;
#25 = PRODUCT_DEFINITION ( 'UNKNOWN', '', #115, #145 ) ;
#26 = FILL_AREA_STYLE_COLOUR ( '', #22 ) ;
#27 = ORIENTED_EDGE ( 'NONE', *, *, #132, .F. ) ;
#28 = AXIS2_PLACEMENT_3D ( 'NONE', #15, #242, #74 ) ;
#29 = DIRECTION ( 'NONE',  ( -1.000000000000000000, -3.061616997868386099E-17, 0.000000000000000000 ) ) ;
#30 =( NAMED_UNIT ( * ) SI_UNIT ( $, .STERADIAN. ) SOLID_ANGLE_UNIT ( ) );
#31 = DIRECTION ( 'NONE',  ( -0.000000000000000000, -1.000000000000000000, -0.000000000000000000 ) ) ;
#32 = EDGE_CURVE ( 'NONE', #270, #182, #271, .T. ) ;
#33 = EDGE_CURVE ( 'NONE', #269, #148, #36, .T. ) ;
#34 = CARTESIAN_POINT ( 'NONE',  ( -0.1250000000000001110, 2.500000000000000000, 0.000000000000000000 ) ) ;
#35 = CARTESIAN_POINT ( 'NONE',  ( 0.000000000000000000, 0.000000000000000000, 0.000000000000000000 ) ) ;
#36 = LINE ( 'NONE', #295, #243 ) ;
#37 = CARTESIAN_POINT ( 'NONE',  ( -0.1250000000000000000, 0.5000000000000001110, 0.000000000000000000 ) ) ;
#38 =( GEOMETRIC_REPRESENTATION_CONTEXT ( 3 ) GLOBAL_UNCERTAINTY_ASSIGNED_CONTEXT ( ( #152 ) ) GLOBAL_UNIT_ASSIGNED_CONTEXT ( ( #81, #56, #112 ) ) REPRESENTATION_CONTEXT ( 'NONE', 'WORKASPACE' ) );
#39 = FACE_OUTER_BOUND ( 'NONE', #174, .T. ) ;
#40 = ADVANCED_FACE ( 'NONE', ( #274 ), #227, .T. ) ;
#41 = DIMENSIONAL_EXPONENTS ( 1.000000000000000000, 0.000000000000000000, 0.000000000000000000, 0.000000000000000000, 0.000000000000000000, 0.000000000000000000, 0.000000000000000000 ) ;
#42 = DIRECTION ( 'NONE',  ( -3.061616997868386099E-17, 1.000000000000000000, -0.000000000000000000 ) ) ;
#43 = FILL_AREA_STYLE_COLOUR ( '', #239 ) ;
#44 = DIRECTION ( 'NONE',  ( -3.061616997868386099E-17, 1.000000000000000000, -0.000000000000000000 ) ) ;
#45 =( GEOMETRIC_REPRESENTATION_CONTEXT ( 3 ) GLOBAL_UNCERTAINTY_ASSIGNED_CONTEXT ( ( #283 ) ) GLOBAL_UNIT_ASSIGNED_CONTEXT ( ( #12, #133, #139 ) ) REPRESENTATION_CONTEXT ( 'NONE', 'WORKASPACE' ) );
#46 = EDGE_CURVE ( 'NONE', #80, #151, #299, .T. ) ;
#47 = APPLICATION_PROTOCOL_DEFINITION ( 'draft international standard', 'automotive_design', 1998, #118 ) ;
#48 = CIRCLE ( 'NONE', #219, 0.1250000000000000000 ) ;
#49 = STYLED_ITEM ( 'NONE', ( #236 ), #161 ) ;
#50 = VERTEX_POINT ( 'NONE', #131 ) ;
#51 = DIRECTION ( 'NONE',  ( -1.000000000000000000, 0.000000000000000000, 0.000000000000000000 ) ) ;
#52 =( GEOMETRIC_REPRESENTATION_CONTEXT ( 3 ) GLOBAL_UNCERTAINTY_ASSIGNED_CONTEXT ( ( #79 ) ) GLOBAL_UNIT_ASSIGNED_CONTEXT ( ( #189, #245, #30 ) ) REPRESENTATION_CONTEXT ( 'NONE', 'WORKASPACE' ) );
#53 = EDGE_CURVE ( 'NONE', #50, #153, #48, .T. ) ;
#54 = EDGE_LOOP ( 'NONE', ( #172, #194, #286, #27 ) ) ;
#55 = EDGE_LOOP ( 'NONE', ( #130, #89 ) ) ;
#56 =( NAMED_UNIT ( * ) PLANE_ANGLE_UNIT ( ) SI_UNIT ( $, .RADIAN. ) );
#57 = ORIENTED_EDGE ( 'NONE', *, *, #32, .F. ) ;
#58 = ORIENTED_EDGE ( 'NONE', *, *, #121, .T. ) ;
#59 = COLOUR_RGB ( '',1.000000000000000000, 0.000000000000000000, 0.000000000000000000 ) ;
#60 = EDGE_LOOP ( 'NONE', ( #58, #137 ) ) ;
#61 =( CONVERSION_BASED_UNIT ( 'INCH', #279 ) LENGTH_UNIT ( ) NAMED_UNIT ( #247 ) );
#62 =( NAMED_UNIT ( * ) SI_UNIT ( $, .STERADIAN. ) SOLID_ANGLE_UNIT ( ) );
#63 = DIRECTION ( 'NONE',  ( -1.000000000000000000, 0.000000000000000000, 0.000000000000000000 ) ) ;
#64 = ADVANCED_FACE ( 'NONE', ( #39 ), #13, .T. ) ;
#65 = STYLED_ITEM ( 'NONE', ( #201 ), #218 ) ;
#66 = FILL_AREA_STYLE ('',( #43 ) ) ;
#67 = DIRECTION ( 'NONE',  ( -0.000000000000000000, -1.000000000000000000, -0.000000000000000000 ) ) ;
#68 =( NAMED_UNIT ( * ) SI_UNIT ( $, .STERADIAN. ) SOLID_ANGLE_UNIT ( ) );
#69 = PRESENTATION_STYLE_ASSIGNMENT (( #207 ) ) ;
#70 = CARTESIAN_POINT ( 'NONE',  ( 0.000000000000000000, 0.000000000000000000, 0.000000000000000000 ) ) ;
#71 = ADVANCED_FACE ( 'NONE', ( #173 ), #244, .F. ) ;
#72 = SURFACE_STYLE_USAGE ( .BOTH. , #17 ) ;
#73 = PRODUCT_CONTEXT ( 'NONE', #188, 'mechanical' ) ;
#74 = DIRECTION ( 'NONE',  ( -1.000000000000000000, 0.000000000000000000, 0.000000000000000000 ) ) ;
#75 = APPLICATION_PROTOCOL_DEFINITION ( 'draft international standard', 'automotive_design', 1998, #188 ) ;
#76 = FACE_OUTER_BOUND ( 'NONE', #54, .T. ) ;
#78 = CLOSED_SHELL ( 'NONE', ( #161, #40, #64, #202 ) ) ;
#77 = SURFACE_STYLE_USAGE ( .BOTH. , #215 ) ;
#79 = UNCERTAINTY_MEASURE_WITH_UNIT (LENGTH_MEASURE( 1.000000000000000082E-05 ), #189, 'distance_accuracy_value', 'NONE');
#80 = VERTEX_POINT ( 'NONE', #37 ) ;
#81 =( CONVERSION_BASED_UNIT ( 'INCH', #217 ) LENGTH_UNIT ( ) NAMED_UNIT ( #155 ) );
#82 = FILL_AREA_STYLE_COLOUR ( '', #59 ) ;
#83 = AXIS2_PLACEMENT_3D ( 'NONE', #104, #135, #198 ) ;
#84 = MECHANICAL_DESIGN_GEOMETRIC_PRESENTATION_REPRESENTATION (  '', ( #65 ), #289 ) ;
#85 = DIRECTION ( 'NONE',  ( 0.000000000000000000, -1.000000000000000000, -0.000000000000000000 ) ) ;
#86 = PRESENTATION_STYLE_ASSIGNMENT (( #178 ) ) ;
#87 = SURFACE_SIDE_STYLE ('',( #106 ) ) ;
#88 = DIRECTION ( 'NONE',  ( -3.061616997868386099E-17, 1.000000000000000000, -0.000000000000000000 ) ) ;
#89 = ORIENTED_EDGE ( 'NONE', *, *, #235, .F. ) ;
#90 = STYLED_ITEM ( 'NONE', ( #69 ), #64 ) ;
#91 = AXIS2_PLACEMENT_3D ( 'NONE', #170, #171, #97 ) ;
#92 = LINE ( 'NONE', #108, #103 ) ;
#93 =( NAMED_UNIT ( * ) PLANE_ANGLE_UNIT ( ) SI_UNIT ( $, .RADIAN. ) );
#94 = CARTESIAN_POINT ( 'NONE',  ( -0.1250000000000001388, 2.500000000000000000, 0.000000000000000000 ) ) ;
#95 =( LENGTH_UNIT ( ) NAMED_UNIT ( * ) SI_UNIT ( $, .METRE. ) );
#96 =( LENGTH_UNIT ( ) NAMED_UNIT ( * ) SI_UNIT ( $, .METRE. ) );
#97 = DIRECTION ( 'NONE',  ( 1.000000000000000000, 3.061616997868386099E-17, 0.000000000000000000 ) ) ;
#98 = EDGE_CURVE ( 'NONE', #182, #270, #99, .T. ) ;
#99 = CIRCLE ( 'NONE', #144, 0.1250000000000000000 ) ;
#100 = DIRECTION ( 'NONE',  ( -3.061616997868386099E-17, 1.000000000000000000, -0.000000000000000000 ) ) ;
#101 = DIRECTION ( 'NONE',  ( 0.000000000000000000, 0.000000000000000000, -1.000000000000000000 ) ) ;
#102 = ORIENTED_EDGE ( 'NONE', *, *, #98, .T. ) ;
#103 = VECTOR ( 'NONE', #164, 39.37007874015748143 ) ;
#104 = CARTESIAN_POINT ( 'NONE',  ( 0.000000000000000000, 0.000000000000000000, 0.000000000000000000 ) ) ;
#105 = FILL_AREA_STYLE ('',( #26 ) ) ;
#106 = SURFACE_STYLE_FILL_AREA ( #250 ) ;
#107 = AXIS2_PLACEMENT_3D ( 'NONE', #222, #265, #51 ) ;
#108 = CARTESIAN_POINT ( 'NONE',  ( 0.000000000000000000, 0.000000000000000000, -0.1250000000000000000 ) ) ;
#109 = DIRECTION ( 'NONE',  ( 0.000000000000000000, 0.000000000000000000, -1.000000000000000000 ) ) ;
#110 = CARTESIAN_POINT ( 'NONE',  ( 1.530808498934191509E-17, 0.5000000000000000000, 0.1250000000000000000 ) ) ;
#111 = ORIENTED_EDGE ( 'NONE', *, *, #287, .T. ) ;
#112 =( NAMED_UNIT ( * ) SI_UNIT ( $, .STERADIAN. ) SOLID_ANGLE_UNIT ( ) );
#113 = CARTESIAN_POINT ( 'NONE',  ( -6.123233995736772199E-17, 2.500000000000000000, 0.000000000000000000 ) ) ;
#114 =( GEOMETRIC_REPRESENTATION_CONTEXT ( 3 ) GLOBAL_UNCERTAINTY_ASSIGNED_CONTEXT ( ( #210 ) ) GLOBAL_UNIT_ASSIGNED_CONTEXT ( ( #185, #93, #258 ) ) REPRESENTATION_CONTEXT ( 'NONE', 'WORKASPACE' ) );
#115 = PRODUCT_DEFINITION_FORMATION_WITH_SPECIFIED_SOURCE ( 'ANY', '', #138, .NOT_KNOWN. ) ;
#116 = SURFACE_STYLE_USAGE ( .BOTH. , #232 ) ;
#117 = FILL_AREA_STYLE_COLOUR ( '', #296 ) ;
#118 = APPLICATION_CONTEXT ( 'automotive_design' ) ;
#119 = DIRECTION ( 'NONE',  ( 0.000000000000000000, 0.000000000000000000, -1.000000000000000000 ) ) ;
#120 = CIRCLE ( 'NONE', #83, 0.1250000000000000000 ) ;
#121 = EDGE_CURVE ( 'NONE', #151, #148, #169, .T. ) ;
#122 = LENGTH_MEASURE_WITH_UNIT ( LENGTH_MEASURE( 0.02539999999999999897 ), #308 );
#123 = CIRCLE ( 'NONE', #309, 0.1250000000000000000 ) ;
#124 = SURFACE_STYLE_FILL_AREA ( #105 ) ;
#125 = ORIENTED_EDGE ( 'NONE', *, *, #32, .T. ) ;
#126 = ADVANCED_BREP_SHAPE_REPRESENTATION ( '82263', ( #218, #231, #248 ), #205 ) ;
#127 = MECHANICAL_DESIGN_GEOMETRIC_PRESENTATION_REPRESENTATION (  '', ( #90 ), #114 ) ;
#128 = ORIENTED_EDGE ( 'NONE', *, *, #209, .F. ) ;
#129 = CARTESIAN_POINT ( 'NONE',  ( 0.000000000000000000, 0.000000000000000000, 0.000000000000000000 ) ) ;
#130 = ORIENTED_EDGE ( 'NONE', *, *, #154, .F. ) ;
#131 = CARTESIAN_POINT ( 'NONE',  ( 1.530808498934191509E-17, 0.000000000000000000, 0.1250000000000000000 ) ) ;
#132 = EDGE_CURVE ( 'NONE', #148, #151, #213, .T. ) ;
#133 =( NAMED_UNIT ( * ) PLANE_ANGLE_UNIT ( ) SI_UNIT ( $, .RADIAN. ) );
#134 = VECTOR ( 'NONE', #229, 39.37007874015748143 ) ;
#135 = DIRECTION ( 'NONE',  ( -0.000000000000000000, -1.000000000000000000, -0.000000000000000000 ) ) ;
#136 =( NAMED_UNIT ( * ) PLANE_ANGLE_UNIT ( ) SI_UNIT ( $, .RADIAN. ) );
#137 = ORIENTED_EDGE ( 'NONE', *, *, #132, .T. ) ;
#138 = PRODUCT ( '82263', '82263', '', ( #73 ) ) ;
#139 =( NAMED_UNIT ( * ) SI_UNIT ( $, .STERADIAN. ) SOLID_ANGLE_UNIT ( ) );
#140 = SURFACE_STYLE_FILL_AREA ( #234 ) ;
#141 = CYLINDRICAL_SURFACE ( 'NONE', #200, 0.1250000000000000000 ) ;
#142 = SURFACE_STYLE_FILL_AREA ( #66 ) ;
#143 = FILL_AREA_STYLE_COLOUR ( '', #272 ) ;
#144 = AXIS2_PLACEMENT_3D ( 'NONE', #255, #165, #119 ) ;
#145 = PRODUCT_DEFINITION_CONTEXT ( 'detailed design', #118, 'design' ) ;
#146 = ADVANCED_FACE ( 'NONE', ( #168 ), #307, .T. ) ;
#147 = CARTESIAN_POINT ( 'NONE',  ( 0.000000000000000000, 0.000000000000000000, 0.000000000000000000 ) ) ;
#148 = VERTEX_POINT ( 'NONE', #306 ) ;
#149 = STYLED_ITEM ( 'NONE', ( #86 ), #40 ) ;
#150 = AXIS2_PLACEMENT_3D ( 'NONE', #298, #88, #63 ) ;
#151 = VERTEX_POINT ( 'NONE', #94 ) ;
#152 = UNCERTAINTY_MEASURE_WITH_UNIT (LENGTH_MEASURE( 1.000000000000000082E-05 ), #81, 'distance_accuracy_value', 'NONE');
#153 = VERTEX_POINT ( 'NONE', #1 ) ;
#154 = EDGE_CURVE ( 'NONE', #80, #269, #123, .T. ) ;
#155 = DIMENSIONAL_EXPONENTS ( 1.000000000000000000, 0.000000000000000000, 0.000000000000000000, 0.000000000000000000, 0.000000000000000000, 0.000000000000000000, 0.000000000000000000 ) ;
#156 = EDGE_LOOP ( 'NONE', ( #203, #196 ) ) ;
#157 = ORIENTED_EDGE ( 'NONE', *, *, #33, .T. ) ;
#158 = EDGE_LOOP ( 'NONE', ( #246, #157, #177, #294 ) ) ;
#159 = DIRECTION ( 'NONE',  ( -3.061616997868386099E-17, 1.000000000000000000, 0.000000000000000000 ) ) ;
#160 = CARTESIAN_POINT ( 'NONE',  ( 0.1250000000000000278, 0.5000000000000001110, 1.530808498934192125E-17 ) ) ;
#161 = ADVANCED_FACE ( 'NONE', ( #280 ), #141, .T. ) ;
#162 = CARTESIAN_POINT ( 'NONE',  ( 0.000000000000000000, 0.5000000000000000000, 0.000000000000000000 ) ) ;
#163 = EDGE_LOOP ( 'NONE', ( #221, #57 ) ) ;
#164 = DIRECTION ( 'NONE',  ( -0.000000000000000000, -1.000000000000000000, -0.000000000000000000 ) ) ;
#165 = DIRECTION ( 'NONE',  ( -0.000000000000000000, -1.000000000000000000, -0.000000000000000000 ) ) ;
#166 = DIRECTION ( 'NONE',  ( -0.000000000000000000, -1.000000000000000000, -0.000000000000000000 ) ) ;
#167 = CLOSED_SHELL ( 'NONE', ( #146, #71, #192, #293 ) ) ;
#168 = FACE_OUTER_BOUND ( 'NONE', #158, .T. ) ;
#169 = CIRCLE ( 'NONE', #28, 0.1250000000000000555 ) ;
#170 = CARTESIAN_POINT ( 'NONE',  ( 0.1250000000000000000, 2.500000000000000000, 0.000000000000000000 ) ) ;
#171 = DIRECTION ( 'NONE',  ( 3.061616997868386099E-17, -1.000000000000000000, 0.000000000000000000 ) ) ;
#172 = ORIENTED_EDGE ( 'NONE', *, *, #33, .F. ) ;
#173 = FACE_OUTER_BOUND ( 'NONE', #55, .T. ) ;
#174 = EDGE_LOOP ( 'NONE', ( #23, #125, #176, #291 ) ) ;
#175 = PRESENTATION_LAYER_ASSIGNMENT (  '', '', ( #49 ) ) ;
#176 = ORIENTED_EDGE ( 'NONE', *, *, #209, .T. ) ;
#177 = ORIENTED_EDGE ( 'NONE', *, *, #121, .F. ) ;
#178 = SURFACE_STYLE_USAGE ( .BOTH. , #87 ) ;
#179 = DIRECTION ( 'NONE',  ( 0.000000000000000000, -0.000000000000000000, 1.000000000000000000 ) ) ;
#180 = FILL_AREA_STYLE_COLOUR ( '', #264 ) ;
#181 = DIMENSIONAL_EXPONENTS ( 1.000000000000000000, 0.000000000000000000, 0.000000000000000000, 0.000000000000000000, 0.000000000000000000, 0.000000000000000000, 0.000000000000000000 ) ;
#182 = VERTEX_POINT ( 'NONE', #292 ) ;
#183 = PRESENTATION_STYLE_ASSIGNMENT (( #116 ) ) ;
#184 = VECTOR ( 'NONE', #230, 39.37007874015748143 ) ;
#185 =( CONVERSION_BASED_UNIT ( 'INCH', #303 ) LENGTH_UNIT ( ) NAMED_UNIT ( #254 ) );
#186 = CARTESIAN_POINT ( 'NONE',  ( 0.000000000000000000, 0.5000000000000001110, 0.000000000000000000 ) ) ;
#187 = PRESENTATION_LAYER_ASSIGNMENT (  '', '', ( #16 ) ) ;
#188 = APPLICATION_CONTEXT ( 'automotive_design' ) ;
#189 =( CONVERSION_BASED_UNIT ( 'INCH', #211 ) LENGTH_UNIT ( ) NAMED_UNIT ( #216 ) );
#190 = AXIS2_PLACEMENT_3D ( 'NONE', #70, #166, #101 ) ;
#191 = DIRECTION ( 'NONE',  ( -1.000000000000000000, 0.000000000000000000, 0.000000000000000000 ) ) ;
#192 = ADVANCED_FACE ( 'NONE', ( #76 ), #197, .T. ) ;
#193 = UNCERTAINTY_MEASURE_WITH_UNIT (LENGTH_MEASURE( 1.000000000000000082E-05 ), #61, 'distance_accuracy_value', 'NONE');
#194 = ORIENTED_EDGE ( 'NONE', *, *, #235, .T. ) ;
#195 = PRESENTATION_LAYER_ASSIGNMENT (  '', '', ( #19 ) ) ;
#196 = ORIENTED_EDGE ( 'NONE', *, *, #53, .T. ) ;
#197 = CYLINDRICAL_SURFACE ( 'NONE', #107, 0.1250000000000000278 ) ;
#198 = DIRECTION ( 'NONE',  ( 0.000000000000000000, 0.000000000000000000, -1.000000000000000000 ) ) ;
#199 = DIRECTION ( 'NONE',  ( -0.000000000000000000, -1.000000000000000000, -0.000000000000000000 ) ) ;
#200 = AXIS2_PLACEMENT_3D ( 'NONE', #129, #199, #288 ) ;
#201 = PRESENTATION_STYLE_ASSIGNMENT (( #252 ) ) ;
#202 = ADVANCED_FACE ( 'NONE', ( #24 ), #5, .T. ) ;
#203 = ORIENTED_EDGE ( 'NONE', *, *, #8, .T. ) ;
#204 = DIRECTION ( 'NONE',  ( 0.000000000000000000, 0.000000000000000000, -1.000000000000000000 ) ) ;
#205 =( GEOMETRIC_REPRESENTATION_CONTEXT ( 3 ) GLOBAL_UNCERTAINTY_ASSIGNED_CONTEXT ( ( #268 ) ) GLOBAL_UNIT_ASSIGNED_CONTEXT ( ( #20, #18, #262 ) ) REPRESENTATION_CONTEXT ( 'NONE', 'WORKASPACE' ) );
#206 = DIRECTION ( 'NONE',  ( -1.000000000000000000, 0.000000000000000000, 0.000000000000000000 ) ) ;
#207 = SURFACE_STYLE_USAGE ( .BOTH. , #257 ) ;
#208 = CARTESIAN_POINT ( 'NONE',  ( -6.123233995736772199E-17, 2.500000000000000000, 0.000000000000000000 ) ) ;
#209 = EDGE_CURVE ( 'NONE', #182, #153, #92, .T. ) ;
#210 = UNCERTAINTY_MEASURE_WITH_UNIT (LENGTH_MEASURE( 1.000000000000000082E-05 ), #185, 'distance_accuracy_value', 'NONE');
#211 = LENGTH_MEASURE_WITH_UNIT ( LENGTH_MEASURE( 0.02539999999999999897 ), #96 );
#212 = PLANE ( 'NONE',  #91 ) ;
#213 = CIRCLE ( 'NONE', #266, 0.1250000000000000555 ) ;
#214 = DIRECTION ( 'NONE',  ( -1.000000000000000000, 0.000000000000000000, 0.000000000000000000 ) ) ;
#215 = SURFACE_SIDE_STYLE ('',( #124 ) ) ;
#216 = DIMENSIONAL_EXPONENTS ( 1.000000000000000000, 0.000000000000000000, 0.000000000000000000, 0.000000000000000000, 0.000000000000000000, 0.000000000000000000, 0.000000000000000000 ) ;
#217 = LENGTH_MEASURE_WITH_UNIT ( LENGTH_MEASURE( 0.02539999999999999897 ), #4 );
#218 = MANIFOLD_SOLID_BREP ( 'Revolve - Cutting Edge', #78 ) ;
#219 = AXIS2_PLACEMENT_3D ( 'NONE', #11, #67, #109 ) ;
#220 = MECHANICAL_DESIGN_GEOMETRIC_PRESENTATION_REPRESENTATION (  '', ( #49 ), #52 ) ;
#221 = ORIENTED_EDGE ( 'NONE', *, *, #98, .F. ) ;
#222 = CARTESIAN_POINT ( 'NONE',  ( -6.123233995736772199E-17, 2.500000000000000000, 0.000000000000000000 ) ) ;
#223 = DIRECTION ( 'NONE',  ( -3.061616997868386099E-17, 1.000000000000000000, -0.000000000000000000 ) ) ;
#224 = PRODUCT_RELATED_PRODUCT_CATEGORY ( 'part', '', ( #138 ) ) ;
#225 = LENGTH_MEASURE_WITH_UNIT ( LENGTH_MEASURE( 0.02539999999999999897 ), #6 );
#226 = FILL_AREA_STYLE ('',( #180 ) ) ;
#227 = PLANE ( 'NONE',  #7 ) ;
#228 = ORIENTED_EDGE ( 'NONE', *, *, #8, .F. ) ;
#229 = DIRECTION ( 'NONE',  ( -3.061616997868386099E-17, 1.000000000000000000, -0.000000000000000000 ) ) ;
#230 = DIRECTION ( 'NONE',  ( -0.000000000000000000, -1.000000000000000000, -0.000000000000000000 ) ) ;
#231 = MANIFOLD_SOLID_BREP ( 'Revolve - Tool Body (Straight Shanked)', #167 ) ;
#232 = SURFACE_SIDE_STYLE ('',( #142 ) ) ;
#233 = AXIS2_PLACEMENT_3D ( 'NONE', #290, #159, #29 ) ;
#234 = FILL_AREA_STYLE ('',( #117 ) ) ;
#235 = EDGE_CURVE ( 'NONE', #269, #80, #3, .T. ) ;
#236 = PRESENTATION_STYLE_ASSIGNMENT (( #72 ) ) ;
#237 = DIRECTION ( 'NONE',  ( 0.000000000000000000, 0.000000000000000000, 1.000000000000000000 ) ) ;
#238 = PRESENTATION_LAYER_ASSIGNMENT (  '', '', ( #149 ) ) ;
#239 = COLOUR_RGB ( '',0.7921568627450980005, 0.8196078431372548767, 0.9333333333333333481 ) ;
#240 = SHAPE_DEFINITION_REPRESENTATION ( #251, #126 ) ;
#241 = EDGE_LOOP ( 'NONE', ( #102, #111, #228, #128 ) ) ;
#242 = DIRECTION ( 'NONE',  ( -3.061616997868386099E-17, 1.000000000000000000, -0.000000000000000000 ) ) ;
#243 = VECTOR ( 'NONE', #223, 39.37007874015748143 ) ;
#244 = PLANE ( 'NONE',  #233 ) ;
#245 =( NAMED_UNIT ( * ) PLANE_ANGLE_UNIT ( ) SI_UNIT ( $, .RADIAN. ) );
#246 = ORIENTED_EDGE ( 'NONE', *, *, #154, .T. ) ;
#247 = DIMENSIONAL_EXPONENTS ( 1.000000000000000000, 0.000000000000000000, 0.000000000000000000, 0.000000000000000000, 0.000000000000000000, 0.000000000000000000, 0.000000000000000000 ) ;
#248 = AXIS2_PLACEMENT_3D ( 'NONE', #147, #237, #284 ) ;
#249 = CARTESIAN_POINT ( 'NONE',  ( 0.000000000000000000, 0.5000000000000000000, 0.000000000000000000 ) ) ;
#250 = FILL_AREA_STYLE ('',( #82 ) ) ;
#251 = PRODUCT_DEFINITION_SHAPE ( 'NONE', 'NONE',  #25 ) ;
#252 = SURFACE_STYLE_USAGE ( .BOTH. , #10 ) ;
#253 = DIRECTION ( 'NONE',  ( 0.000000000000000000, 1.000000000000000000, 0.000000000000000000 ) ) ;
#254 = DIMENSIONAL_EXPONENTS ( 1.000000000000000000, 0.000000000000000000, 0.000000000000000000, 0.000000000000000000, 0.000000000000000000, 0.000000000000000000, 0.000000000000000000 ) ;
#255 = CARTESIAN_POINT ( 'NONE',  ( 0.000000000000000000, 0.5000000000000000000, 0.000000000000000000 ) ) ;
#256 = LENGTH_MEASURE_WITH_UNIT ( LENGTH_MEASURE( 0.02539999999999999897 ), #95 );
#257 = SURFACE_SIDE_STYLE ('',( #140 ) ) ;
#258 =( NAMED_UNIT ( * ) SI_UNIT ( $, .STERADIAN. ) SOLID_ANGLE_UNIT ( ) );
#259 =( GEOMETRIC_REPRESENTATION_CONTEXT ( 3 ) GLOBAL_UNCERTAINTY_ASSIGNED_CONTEXT ( ( #2 ) ) GLOBAL_UNIT_ASSIGNED_CONTEXT ( ( #276, #275, #62 ) ) REPRESENTATION_CONTEXT ( 'NONE', 'WORKASPACE' ) );
#260 = FILL_AREA_STYLE ('',( #143 ) ) ;
#261 = SURFACE_STYLE_FILL_AREA ( #260 ) ;
#262 =( NAMED_UNIT ( * ) SI_UNIT ( $, .STERADIAN. ) SOLID_ANGLE_UNIT ( ) );
#263 = PRESENTATION_LAYER_ASSIGNMENT (  '', '', ( #90 ) ) ;
#264 = COLOUR_RGB ( '',0.7921568627450980005, 0.8196078431372548767, 0.9333333333333333481 ) ;
#265 = DIRECTION ( 'NONE',  ( -3.061616997868386099E-17, 1.000000000000000000, -0.000000000000000000 ) ) ;
#266 = AXIS2_PLACEMENT_3D ( 'NONE', #208, #42, #214 ) ;
#267 = PRESENTATION_STYLE_ASSIGNMENT (( #77 ) ) ;
#268 = UNCERTAINTY_MEASURE_WITH_UNIT (LENGTH_MEASURE( 1.000000000000000082E-05 ), #20, 'distance_accuracy_value', 'NONE');
#269 = VERTEX_POINT ( 'NONE', #160 ) ;
#270 = VERTEX_POINT ( 'NONE', #110 ) ;
#271 = CIRCLE ( 'NONE', #281, 0.1250000000000000000 ) ;
#272 = COLOUR_RGB ( '',1.000000000000000000, 0.000000000000000000, 0.000000000000000000 ) ;
#273 = DIMENSIONAL_EXPONENTS ( 1.000000000000000000, 0.000000000000000000, 0.000000000000000000, 0.000000000000000000, 0.000000000000000000, 0.000000000000000000, 0.000000000000000000 ) ;
#274 = FACE_OUTER_BOUND ( 'NONE', #163, .T. ) ;
#275 =( NAMED_UNIT ( * ) PLANE_ANGLE_UNIT ( ) SI_UNIT ( $, .RADIAN. ) );
#276 =( CONVERSION_BASED_UNIT ( 'INCH', #225 ) LENGTH_UNIT ( ) NAMED_UNIT ( #41 ) );
#278 = MECHANICAL_DESIGN_GEOMETRIC_PRESENTATION_REPRESENTATION (  '', ( #19 ), #45 ) ;
#277 = CARTESIAN_POINT ( 'NONE',  ( 1.530808498934191509E-17, 0.000000000000000000, 0.1250000000000000000 ) ) ;
#279 = LENGTH_MEASURE_WITH_UNIT ( LENGTH_MEASURE( 0.02539999999999999897 ), #304 );
#280 = FACE_OUTER_BOUND ( 'NONE', #241, .T. ) ;
#281 = AXIS2_PLACEMENT_3D ( 'NONE', #249, #31, #301 ) ;
#282 = PRESENTATION_LAYER_ASSIGNMENT (  '', '', ( #65 ) ) ;
#283 = UNCERTAINTY_MEASURE_WITH_UNIT (LENGTH_MEASURE( 1.000000000000000082E-05 ), #12, 'distance_accuracy_value', 'NONE');
#284 = DIRECTION ( 'NONE',  ( 1.000000000000000000, 0.000000000000000000, 0.000000000000000000 ) ) ;
#285 = MECHANICAL_DESIGN_GEOMETRIC_PRESENTATION_REPRESENTATION (  '', ( #149 ), #259 ) ;
#286 = ORIENTED_EDGE ( 'NONE', *, *, #46, .T. ) ;
#287 = EDGE_CURVE ( 'NONE', #270, #50, #300, .T. ) ;
#288 = DIRECTION ( 'NONE',  ( 0.000000000000000000, 0.000000000000000000, -1.000000000000000000 ) ) ;
#289 =( GEOMETRIC_REPRESENTATION_CONTEXT ( 3 ) GLOBAL_UNCERTAINTY_ASSIGNED_CONTEXT ( ( #193 ) ) GLOBAL_UNIT_ASSIGNED_CONTEXT ( ( #61, #136, #68 ) ) REPRESENTATION_CONTEXT ( 'NONE', 'WORKASPACE' ) );
#290 = CARTESIAN_POINT ( 'NONE',  ( 5.858436651022893041E-35, 0.5000000000000000000, 0.000000000000000000 ) ) ;
#291 = ORIENTED_EDGE ( 'NONE', *, *, #53, .F. ) ;
#292 = CARTESIAN_POINT ( 'NONE',  ( 0.000000000000000000, 0.5000000000000000000, -0.1250000000000000000 ) ) ;
#293 = ADVANCED_FACE ( 'NONE', ( #14 ), #212, .F. ) ;
#294 = ORIENTED_EDGE ( 'NONE', *, *, #46, .F. ) ;
#295 = CARTESIAN_POINT ( 'NONE',  ( 0.1249999999999999584, 2.500000000000000000, 1.530808498934191817E-17 ) ) ;
#296 = COLOUR_RGB ( '',1.000000000000000000, 0.000000000000000000, 0.000000000000000000 ) ;
#297 = AXIS2_PLACEMENT_3D ( 'NONE', #35, #85, #204 ) ;
#298 = CARTESIAN_POINT ( 'NONE',  ( 0.000000000000000000, 0.5000000000000001110, 0.000000000000000000 ) ) ;
#299 = LINE ( 'NONE', #34, #134 ) ;
#300 = LINE ( 'NONE', #277, #184 ) ;
#301 = DIRECTION ( 'NONE',  ( 0.000000000000000000, 0.000000000000000000, -1.000000000000000000 ) ) ;
#302 = SURFACE_STYLE_FILL_AREA ( #226 ) ;
#303 = LENGTH_MEASURE_WITH_UNIT ( LENGTH_MEASURE( 0.02539999999999999897 ), #305 );
#304 =( LENGTH_UNIT ( ) NAMED_UNIT ( * ) SI_UNIT ( $, .METRE. ) );
#305 =( LENGTH_UNIT ( ) NAMED_UNIT ( * ) SI_UNIT ( $, .METRE. ) );
#306 = CARTESIAN_POINT ( 'NONE',  ( 0.1250000000000000278, 2.500000000000000000, 1.530808498934192125E-17 ) ) ;
#307 = CYLINDRICAL_SURFACE ( 'NONE', #21, 0.1250000000000000278 ) ;
#308 =( LENGTH_UNIT ( ) NAMED_UNIT ( * ) SI_UNIT ( $, .METRE. ) );
#309 = AXIS2_PLACEMENT_3D ( 'NONE', #186, #100, #191 ) ;
ENDSEC;
END-ISO-10303-21;
