ISO-10303-21;
HEADER;
FILE_DESCRIPTION (( 'STEP AP214' ),
    '1' );
FILE_NAME ('Micro_EMSM-040-2X.STEP',
    '2022-03-15T14:38:17',
    ( '' ),
    ( '' ),
    'SwSTEP 2.0',
    'SolidWorks 2022',
    '' );
FILE_SCHEMA (( 'AUTOMOTIVE_DESIGN' ));
ENDSEC;

DATA;
#1 = CARTESIAN_POINT ( 'NONE',  ( -0.07873999999999992117, 0.000000000000000000, 0.7091075567304765404 ) ) ;
#2 = DIRECTION ( 'NONE',  ( 0.1736481776669314137, 0.000000000000000000, 0.9848077530122077983 ) ) ;
#3 = ORIENTED_EDGE ( 'NONE', *, *, #24, .T. ) ;
#4 = SHAPE_DEFINITION_REPRESENTATION ( #155, #216 ) ;
#5 = CONICAL_SURFACE ( 'NONE', #131, 0.06374000000000018540, 0.7853981633974522758 ) ;
#6 = CARTESIAN_POINT ( 'NONE',  ( 0.000000000000000000, 0.000000000000000000, 0.000000000000000000 ) ) ;
#7 = DIRECTION ( 'NONE',  ( -1.224646799147353207E-16, -0.000000000000000000, -1.000000000000000000 ) ) ;
#8 = ADVANCED_FACE ( 'NONE', ( #29 ), #294, .T. ) ;
#9 = AXIS2_PLACEMENT_3D ( 'NONE', #104, #167, #30 ) ;
#10 = VECTOR ( 'NONE', #34, 39.37007874015748143 ) ;
#11 = VERTEX_POINT ( 'NONE', #16 ) ;
#12 = ORIENTED_EDGE ( 'NONE', *, *, #190, .F. ) ;
#13 = MECHANICAL_DESIGN_GEOMETRIC_PRESENTATION_REPRESENTATION (  '', ( #287 ), #33 ) ;
#14 = DIRECTION ( 'NONE',  ( -1.000000000000000000, 0.000000000000000000, 0.000000000000000000 ) ) ;
#15 = EDGE_CURVE ( 'NONE', #46, #146, #81, .T. ) ;
#16 = CARTESIAN_POINT ( 'NONE',  ( -0.06374000000000018540, 0.000000000000000000, 1.968503999999999809 ) ) ;
#17 = ORIENTED_EDGE ( 'NONE', *, *, #264, .T. ) ;
#18 = ORIENTED_EDGE ( 'NONE', *, *, #218, .T. ) ;
#19 = DIRECTION ( 'NONE',  ( -1.000000000000000000, 0.000000000000000000, 0.000000000000000000 ) ) ;
#20 = AXIS2_PLACEMENT_3D ( 'NONE', #39, #159, #25 ) ;
#21 = SURFACE_STYLE_FILL_AREA ( #252 ) ;
#22 = CARTESIAN_POINT ( 'NONE',  ( 0.000000000000000000, 0.000000000000000000, 0.000000000000000000 ) ) ;
#23 = EDGE_LOOP ( 'NONE', ( #202, #99, #86, #145 ) ) ;
#24 = EDGE_CURVE ( 'NONE', #120, #259, #244, .T. ) ;
#25 = DIRECTION ( 'NONE',  ( -1.000000000000000000, 0.000000000000000000, 1.224646799147353207E-16 ) ) ;
#26 = CARTESIAN_POINT ( 'NONE',  ( 0.07874000000000000443, 9.642868896486258509E-18, 1.968503999999999809 ) ) ;
#27 =( GEOMETRIC_REPRESENTATION_CONTEXT ( 3 ) GLOBAL_UNCERTAINTY_ASSIGNED_CONTEXT ( ( #126 ) ) GLOBAL_UNIT_ASSIGNED_CONTEXT ( ( #297, #276, #270 ) ) REPRESENTATION_CONTEXT ( 'NONE', 'WORKASPACE' ) );
#28 = ORIENTED_EDGE ( 'NONE', *, *, #238, .F. ) ;
#29 = FACE_OUTER_BOUND ( 'NONE', #123, .T. ) ;
#30 = DIRECTION ( 'NONE',  ( 1.000000000000000000, 0.000000000000000000, 0.000000000000000000 ) ) ;
#31 = CIRCLE ( 'NONE', #198, 0.07866125999999999674 ) ;
#32 = FILL_AREA_STYLE_COLOUR ( '', #245 ) ;
#33 =( GEOMETRIC_REPRESENTATION_CONTEXT ( 3 ) GLOBAL_UNCERTAINTY_ASSIGNED_CONTEXT ( ( #83 ) ) GLOBAL_UNIT_ASSIGNED_CONTEXT ( ( #292, #84, #181 ) ) REPRESENTATION_CONTEXT ( 'NONE', 'WORKASPACE' ) );
#34 = DIRECTION ( 'NONE',  ( -1.224646799147353207E-16, -0.000000000000000000, -1.000000000000000000 ) ) ;
#35 = LENGTH_MEASURE_WITH_UNIT ( LENGTH_MEASURE( 0.02539999999999999897 ), #89 );
#36 = CYLINDRICAL_SURFACE ( 'NONE', #44, 0.07874000000000000443 ) ;
#37 = CARTESIAN_POINT ( 'NONE',  ( -0.07874000000000000443, 0.000000000000000000, 1.968503999999999809 ) ) ;
#38 = CONICAL_SURFACE ( 'NONE', #119, 0.06374000000000018540, 0.7853981633974522758 ) ;
#39 = CARTESIAN_POINT ( 'NONE',  ( 0.000000000000000000, 0.000000000000000000, 0.000000000000000000 ) ) ;
#40 = DIRECTION ( 'NONE',  ( 0.000000000000000000, 0.000000000000000000, 1.000000000000000000 ) ) ;
#41 = EDGE_CURVE ( 'NONE', #209, #298, #171, .T. ) ;
#42 = DIRECTION ( 'NONE',  ( -1.224646799147353207E-16, -0.000000000000000000, -1.000000000000000000 ) ) ;
#43 = ORIENTED_EDGE ( 'NONE', *, *, #24, .F. ) ;
#44 = AXIS2_PLACEMENT_3D ( 'NONE', #219, #108, #19 ) ;
#45 = CARTESIAN_POINT ( 'NONE',  ( 0.06374000000000018540, 8.724383797125754882E-18, 1.968503999999999809 ) ) ;
#46 = VERTEX_POINT ( 'NONE', #265 ) ;
#47 = ORIENTED_EDGE ( 'NONE', *, *, #176, .F. ) ;
#48 = VERTEX_POINT ( 'NONE', #191 ) ;
#49 = VECTOR ( 'NONE', #2, 39.37007874015748143 ) ;
#50 = CARTESIAN_POINT ( 'NONE',  ( 0.000000000000000000, 0.000000000000000000, 1.968503999999999809 ) ) ;
#51 = ORIENTED_EDGE ( 'NONE', *, *, #212, .F. ) ;
#52 = FACE_OUTER_BOUND ( 'NONE', #23, .T. ) ;
#53 = EDGE_CURVE ( 'NONE', #146, #46, #281, .T. ) ;
#54 = CIRCLE ( 'NONE', #291, 0.07874000000000000443 ) ;
#55 = DIRECTION ( 'NONE',  ( 1.224646799147353207E-16, 0.000000000000000000, 1.000000000000000000 ) ) ;
#56 = LINE ( 'NONE', #246, #10 ) ;
#57 = SURFACE_SIDE_STYLE ('',( #21 ) ) ;
#58 = DIRECTION ( 'NONE',  ( 0.000000000000000000, 0.000000000000000000, -1.000000000000000000 ) ) ;
#59 = EDGE_LOOP ( 'NONE', ( #256, #69, #95, #3 ) ) ;
#60 = PRESENTATION_STYLE_ASSIGNMENT (( #175 ) ) ;
#61 = DIRECTION ( 'NONE',  ( 1.000000000000000000, 0.000000000000000000, 0.000000000000000000 ) ) ;
#62 = COLOUR_RGB ( '',0.7921568627450980005, 0.8196078431372548767, 0.9333333333333333481 ) ;
#63 = LENGTH_MEASURE_WITH_UNIT ( LENGTH_MEASURE( 0.02539999999999999897 ), #184 );
#64 = EDGE_CURVE ( 'NONE', #259, #120, #163, .T. ) ;
#65 = FILL_AREA_STYLE_COLOUR ( '', #62 ) ;
#66 = CARTESIAN_POINT ( 'NONE',  ( 0.07866125999999999674, 9.633226027589770864E-18, -1.895600338963814870E-33 ) ) ;
#67 = ORIENTED_EDGE ( 'NONE', *, *, #15, .T. ) ;
#68 = DIRECTION ( 'NONE',  ( 0.000000000000000000, 0.000000000000000000, -1.000000000000000000 ) ) ;
#69 = ORIENTED_EDGE ( 'NONE', *, *, #53, .F. ) ;
#70 = VECTOR ( 'NONE', #91, 39.37007874015748854 ) ;
#71 = DIRECTION ( 'NONE',  ( -1.000000000000000000, 0.000000000000000000, 0.000000000000000000 ) ) ;
#72 = MANIFOLD_SOLID_BREP ( 'Cut-Revolve1', #197 ) ;
#73 = DIMENSIONAL_EXPONENTS ( 1.000000000000000000, 0.000000000000000000, 0.000000000000000000, 0.000000000000000000, 0.000000000000000000, 0.000000000000000000, 0.000000000000000000 ) ;
#74 = ORIENTED_EDGE ( 'NONE', *, *, #64, .F. ) ;
#75 = AXIS2_PLACEMENT_3D ( 'NONE', #50, #217, #266 ) ;
#76 = ADVANCED_FACE ( 'NONE', ( #283 ), #5, .T. ) ;
#77 = PRESENTATION_STYLE_ASSIGNMENT (( #152 ) ) ;
#78 = FACE_OUTER_BOUND ( 'NONE', #59, .T. ) ;
#79 = CARTESIAN_POINT ( 'NONE',  ( 8.684062996011783728E-17, 0.000000000000000000, 0.7091075567304765404 ) ) ;
#80 = CARTESIAN_POINT ( 'NONE',  ( 8.678594253305624695E-17, 0.000000000000000000, 0.7086609999999999854 ) ) ;
#81 = CIRCLE ( 'NONE', #241, 0.07866126000000002449 ) ;
#82 = AXIS2_PLACEMENT_3D ( 'NONE', #199, #253, #93 ) ;
#83 = UNCERTAINTY_MEASURE_WITH_UNIT (LENGTH_MEASURE( 1.000000000000000082E-05 ), #292, 'distance_accuracy_value', 'NONE');
#84 =( NAMED_UNIT ( * ) PLANE_ANGLE_UNIT ( ) SI_UNIT ( $, .RADIAN. ) );
#85 = ORIENTED_EDGE ( 'NONE', *, *, #151, .T. ) ;
#86 = ORIENTED_EDGE ( 'NONE', *, *, #64, .T. ) ;
#87 = VECTOR ( 'NONE', #118, 39.37007874015748143 ) ;
#88 = ADVANCED_FACE ( 'NONE', ( #206 ), #164, .F. ) ;
#89 =( LENGTH_UNIT ( ) NAMED_UNIT ( * ) SI_UNIT ( $, .METRE. ) );
#90 = DIRECTION ( 'NONE',  ( -1.000000000000000000, 0.000000000000000000, 1.224646799147352961E-16 ) ) ;
#91 = DIRECTION ( 'NONE',  ( -0.7071067811865502373, 0.000000000000000000, -0.7071067811865446862 ) ) ;
#92 = ADVANCED_FACE ( 'NONE', ( #52 ), #282, .T. ) ;
#93 = DIRECTION ( 'NONE',  ( -1.000000000000000000, 0.000000000000000000, 1.224646799147352961E-16 ) ) ;
#94 = CARTESIAN_POINT ( 'NONE',  ( 0.000000000000000000, 0.000000000000000000, 1.968503999999999809 ) ) ;
#95 = ORIENTED_EDGE ( 'NONE', *, *, #285, .T. ) ;
#96 = ORIENTED_EDGE ( 'NONE', *, *, #176, .T. ) ;
#97 = ADVANCED_FACE ( 'NONE', ( #129 ), #36, .T. ) ;
#98 = ORIENTED_EDGE ( 'NONE', *, *, #53, .T. ) ;
#99 = ORIENTED_EDGE ( 'NONE', *, *, #132, .T. ) ;
#100 = ADVANCED_FACE ( 'NONE', ( #174 ), #38, .T. ) ;
#101 = DIRECTION ( 'NONE',  ( 1.000000000000000000, 0.000000000000000000, -0.000000000000000000 ) ) ;
#102 =( GEOMETRIC_REPRESENTATION_CONTEXT ( 3 ) GLOBAL_UNCERTAINTY_ASSIGNED_CONTEXT ( ( #260 ) ) GLOBAL_UNIT_ASSIGNED_CONTEXT ( ( #136, #142, #154 ) ) REPRESENTATION_CONTEXT ( 'NONE', 'WORKASPACE' ) );
#103 = CYLINDRICAL_SURFACE ( 'NONE', #75, 0.07874000000000000443 ) ;
#104 = CARTESIAN_POINT ( 'NONE',  ( 8.684062996011783728E-17, 0.000000000000000000, 0.7091075567304765404 ) ) ;
#105 = ADVANCED_FACE ( 'NONE', ( #221 ), #103, .T. ) ;
#106 = AXIS2_PLACEMENT_3D ( 'NONE', #194, #58, #156 ) ;
#107 =( LENGTH_UNIT ( ) NAMED_UNIT ( * ) SI_UNIT ( $, .METRE. ) );
#108 = DIRECTION ( 'NONE',  ( -0.000000000000000000, -0.000000000000000000, -1.000000000000000000 ) ) ;
#109 = EDGE_LOOP ( 'NONE', ( #233, #85, #178, #43 ) ) ;
#110 = CARTESIAN_POINT ( 'NONE',  ( -0.07866125999999994123, 9.633226027589775486E-18, 0.7086609999999999854 ) ) ;
#111 = ADVANCED_FACE ( 'NONE', ( #78 ), #179, .T. ) ;
#112 = VECTOR ( 'NONE', #268, 39.37007874015748854 ) ;
#113 = EDGE_LOOP ( 'NONE', ( #211, #96 ) ) ;
#114 = CIRCLE ( 'NONE', #157, 0.06374000000000018540 ) ;
#115 = DIRECTION ( 'NONE',  ( 1.000000000000000000, 0.000000000000000000, 0.000000000000000000 ) ) ;
#116 = LINE ( 'NONE', #201, #49 ) ;
#117 = VERTEX_POINT ( 'NONE', #193 ) ;
#118 = DIRECTION ( 'NONE',  ( -0.000000000000000000, -0.000000000000000000, -1.000000000000000000 ) ) ;
#119 = AXIS2_PLACEMENT_3D ( 'NONE', #172, #289, #14 ) ;
#120 = VERTEX_POINT ( 'NONE', #295 ) ;
#121 = CARTESIAN_POINT ( 'NONE',  ( 0.07874000000000000443, 9.642868896486258509E-18, 1.953504000000000129 ) ) ;
#122 = EDGE_CURVE ( 'NONE', #46, #48, #56, .T. ) ;
#123 = EDGE_LOOP ( 'NONE', ( #18, #17 ) ) ;
#124 = PRESENTATION_LAYER_ASSIGNMENT (  '', '', ( #287 ) ) ;
#125 = DIRECTION ( 'NONE',  ( 0.000000000000000000, 0.000000000000000000, 1.000000000000000000 ) ) ;
#126 = UNCERTAINTY_MEASURE_WITH_UNIT (LENGTH_MEASURE( 1.000000000000000082E-05 ), #297, 'distance_accuracy_value', 'NONE');
#127 = DIRECTION ( 'NONE',  ( 1.000000000000000000, 0.000000000000000000, 0.000000000000000000 ) ) ;
#128 = DIRECTION ( 'NONE',  ( -1.224646799147353207E-16, -0.000000000000000000, -1.000000000000000000 ) ) ;
#129 = FACE_OUTER_BOUND ( 'NONE', #109, .T. ) ;
#130 = CARTESIAN_POINT ( 'NONE',  ( 0.000000000000000000, 0.000000000000000000, 1.968503999999999809 ) ) ;
#131 = AXIS2_PLACEMENT_3D ( 'NONE', #133, #257, #71 ) ;
#132 = EDGE_CURVE ( 'NONE', #46, #259, #222, .T. ) ;
#133 = CARTESIAN_POINT ( 'NONE',  ( 0.000000000000000000, 0.000000000000000000, 1.968503999999999809 ) ) ;
#134 = APPLICATION_CONTEXT ( 'automotive_design' ) ;
#135 = SURFACE_SIDE_STYLE ('',( #263 ) ) ;
#136 =( CONVERSION_BASED_UNIT ( 'INCH', #35 ) LENGTH_UNIT ( ) NAMED_UNIT ( #73 ) );
#137 = DIRECTION ( 'NONE',  ( -0.1736481776669312194, 2.126576849575783625E-17, 0.9848077530122080203 ) ) ;
#138 = ORIENTED_EDGE ( 'NONE', *, *, #218, .F. ) ;
#139 = ORIENTED_EDGE ( 'NONE', *, *, #153, .T. ) ;
#140 = CIRCLE ( 'NONE', #150, 0.06374000000000018540 ) ;
#141 = CARTESIAN_POINT ( 'NONE',  ( 0.000000000000000000, 0.000000000000000000, 1.968503999999999809 ) ) ;
#142 =( NAMED_UNIT ( * ) PLANE_ANGLE_UNIT ( ) SI_UNIT ( $, .RADIAN. ) );
#143 = ORIENTED_EDGE ( 'NONE', *, *, #162, .F. ) ;
#144 = DIRECTION ( 'NONE',  ( -1.224646799147353207E-16, -0.000000000000000000, -1.000000000000000000 ) ) ;
#145 = ORIENTED_EDGE ( 'NONE', *, *, #285, .F. ) ;
#146 = VERTEX_POINT ( 'NONE', #223 ) ;
#147 = STYLED_ITEM ( 'NONE', ( #60 ), #216 ) ;
#148 = PRODUCT_DEFINITION_CONTEXT ( 'detailed design', #134, 'design' ) ;
#149 = CARTESIAN_POINT ( 'NONE',  ( 8.678594253305624695E-17, 0.000000000000000000, 0.7086609999999999854 ) ) ;
#150 = AXIS2_PLACEMENT_3D ( 'NONE', #94, #272, #115 ) ;
#151 = EDGE_CURVE ( 'NONE', #298, #117, #262, .T. ) ;
#152 = SURFACE_STYLE_USAGE ( .BOTH. , #135 ) ;
#153 = EDGE_CURVE ( 'NONE', #298, #120, #230, .T. ) ;
#154 =( NAMED_UNIT ( * ) SI_UNIT ( $, .STERADIAN. ) SOLID_ANGLE_UNIT ( ) );
#155 = PRODUCT_DEFINITION_SHAPE ( 'NONE', 'NONE',  #158 ) ;
#156 = DIRECTION ( 'NONE',  ( 1.000000000000000000, 0.000000000000000000, 0.000000000000000000 ) ) ;
#157 = AXIS2_PLACEMENT_3D ( 'NONE', #141, #177, #228 ) ;
#158 = PRODUCT_DEFINITION ( 'UNKNOWN', '', #180, #148 ) ;
#159 = DIRECTION ( 'NONE',  ( -1.224646799147353207E-16, -0.000000000000000000, -1.000000000000000000 ) ) ;
#160 = APPLICATION_PROTOCOL_DEFINITION ( 'draft international standard', 'automotive_design', 1998, #134 ) ;
#161 = FACE_OUTER_BOUND ( 'NONE', #182, .T. ) ;
#162 = EDGE_CURVE ( 'NONE', #117, #298, #54, .T. ) ;
#163 = CIRCLE ( 'NONE', #169, 0.07874000000000000443 ) ;
#164 = PLANE ( 'NONE',  #225 ) ;
#165 = DIMENSIONAL_EXPONENTS ( 1.000000000000000000, 0.000000000000000000, 0.000000000000000000, 0.000000000000000000, 0.000000000000000000, 0.000000000000000000, 0.000000000000000000 ) ;
#166 = VECTOR ( 'NONE', #137, 39.37007874015747433 ) ;
#167 = DIRECTION ( 'NONE',  ( -1.224646799147353207E-16, -0.000000000000000000, -1.000000000000000000 ) ) ;
#168 = FILL_AREA_STYLE ('',( #32 ) ) ;
#169 = AXIS2_PLACEMENT_3D ( 'NONE', #79, #242, #192 ) ;
#170 = EDGE_CURVE ( 'NONE', #117, #259, #204, .T. ) ;
#171 = LINE ( 'NONE', #237, #112 ) ;
#172 = CARTESIAN_POINT ( 'NONE',  ( 0.000000000000000000, 0.000000000000000000, 1.968503999999999809 ) ) ;
#173 = AXIS2_PLACEMENT_3D ( 'NONE', #286, #55, #236 ) ;
#174 = FACE_OUTER_BOUND ( 'NONE', #214, .T. ) ;
#175 = SURFACE_STYLE_USAGE ( .BOTH. , #57 ) ;
#176 = EDGE_CURVE ( 'NONE', #195, #48, #189, .T. ) ;
#177 = DIRECTION ( 'NONE',  ( 0.000000000000000000, 0.000000000000000000, 1.000000000000000000 ) ) ;
#178 = ORIENTED_EDGE ( 'NONE', *, *, #170, .T. ) ;
#179 = CONICAL_SURFACE ( 'NONE', #173, 0.07866126000000002449, 0.1745329251994339192 ) ;
#180 = PRODUCT_DEFINITION_FORMATION_WITH_SPECIFIED_SOURCE ( 'ANY', '', #293, .NOT_KNOWN. ) ;
#181 =( NAMED_UNIT ( * ) SI_UNIT ( $, .STERADIAN. ) SOLID_ANGLE_UNIT ( ) );
#182 = EDGE_LOOP ( 'NONE', ( #12, #98, #210, #47 ) ) ;
#183 = CARTESIAN_POINT ( 'NONE',  ( -0.06374000000000018540, 0.000000000000000000, 1.968503999999999809 ) ) ;
#184 =( LENGTH_UNIT ( ) NAMED_UNIT ( * ) SI_UNIT ( $, .METRE. ) );
#185 = AXIS2_PLACEMENT_3D ( 'NONE', #149, #239, #127 ) ;
#186 = APPLICATION_CONTEXT ( 'automotive_design' ) ;
#187 = ORIENTED_EDGE ( 'NONE', *, *, #162, .T. ) ;
#188 = DIRECTION ( 'NONE',  ( -1.224646799147353207E-16, -0.000000000000000000, -1.000000000000000000 ) ) ;
#189 = CIRCLE ( 'NONE', #82, 0.07866125999999999674 ) ;
#190 = EDGE_CURVE ( 'NONE', #146, #195, #275, .T. ) ;
#191 = CARTESIAN_POINT ( 'NONE',  ( -0.07866125999999999674, 0.000000000000000000, 1.926645205517954173E-17 ) ) ;
#192 = DIRECTION ( 'NONE',  ( 1.000000000000000000, 0.000000000000000000, 0.000000000000000000 ) ) ;
#193 = CARTESIAN_POINT ( 'NONE',  ( -0.07874000000000000443, 0.000000000000000000, 1.953504000000000129 ) ) ;
#194 = CARTESIAN_POINT ( 'NONE',  ( 0.000000000000000000, 0.000000000000000000, 1.953504000000000129 ) ) ;
#195 = VERTEX_POINT ( 'NONE', #66 ) ;
#196 = APPLICATION_PROTOCOL_DEFINITION ( 'draft international standard', 'automotive_design', 1998, #186 ) ;
#197 = CLOSED_SHELL ( 'NONE', ( #269, #92, #100, #105, #97, #8, #76, #111, #205, #88 ) ) ;
#198 = AXIS2_PLACEMENT_3D ( 'NONE', #208, #7, #90 ) ;
#199 = CARTESIAN_POINT ( 'NONE',  ( 1.179729942015078748E-33, 0.000000000000000000, 9.633226027589770864E-18 ) ) ;
#200 = LINE ( 'NONE', #183, #70 ) ;
#201 = CARTESIAN_POINT ( 'NONE',  ( 0.07866126000000010776, 0.000000000000000000, 0.7086609999999999854 ) ) ;
#202 = ORIENTED_EDGE ( 'NONE', *, *, #15, .F. ) ;
#203 = PRODUCT_CONTEXT ( 'NONE', #186, 'mechanical' ) ;
#204 = LINE ( 'NONE', #37, #255 ) ;
#205 = ADVANCED_FACE ( 'NONE', ( #161 ), #226, .T. ) ;
#206 = FACE_OUTER_BOUND ( 'NONE', #113, .T. ) ;
#207 = ORIENTED_EDGE ( 'NONE', *, *, #122, .F. ) ;
#208 = CARTESIAN_POINT ( 'NONE',  ( 1.179729942015078748E-33, 0.000000000000000000, 9.633226027589770864E-18 ) ) ;
#209 = VERTEX_POINT ( 'NONE', #45 ) ;
#210 = ORIENTED_EDGE ( 'NONE', *, *, #122, .T. ) ;
#211 = ORIENTED_EDGE ( 'NONE', *, *, #212, .T. ) ;
#212 = EDGE_CURVE ( 'NONE', #48, #195, #31, .T. ) ;
#213 = DIRECTION ( 'NONE',  ( 1.000000000000000000, 0.000000000000000000, -0.000000000000000000 ) ) ;
#214 = EDGE_LOOP ( 'NONE', ( #296, #249, #143, #28 ) ) ;
#215 = DIMENSIONAL_EXPONENTS ( 1.000000000000000000, 0.000000000000000000, 0.000000000000000000, 0.000000000000000000, 0.000000000000000000, 0.000000000000000000, 0.000000000000000000 ) ;
#216 = ADVANCED_BREP_SHAPE_REPRESENTATION ( 'Micro_EMSM-040-2X', ( #72, #271 ), #27 ) ;
#217 = DIRECTION ( 'NONE',  ( -0.000000000000000000, -0.000000000000000000, -1.000000000000000000 ) ) ;
#218 = EDGE_CURVE ( 'NONE', #11, #209, #140, .T. ) ;
#219 = CARTESIAN_POINT ( 'NONE',  ( 0.000000000000000000, 0.000000000000000000, 1.968503999999999809 ) ) ;
#220 = DIRECTION ( 'NONE',  ( -1.000000000000000000, 0.000000000000000000, 0.000000000000000000 ) ) ;
#221 = FACE_OUTER_BOUND ( 'NONE', #280, .T. ) ;
#222 = LINE ( 'NONE', #110, #166 ) ;
#223 = CARTESIAN_POINT ( 'NONE',  ( 0.07866126000000010776, 0.000000000000000000, 0.7086609999999999854 ) ) ;
#224 = AXIS2_PLACEMENT_3D ( 'NONE', #130, #288, #101 ) ;
#225 = AXIS2_PLACEMENT_3D ( 'NONE', #6, #125, #213 ) ;
#226 = CYLINDRICAL_SURFACE ( 'NONE', #250, 0.07866126000000001062 ) ;
#227 = EDGE_LOOP ( 'NONE', ( #267, #138, #284, #258 ) ) ;
#228 = DIRECTION ( 'NONE',  ( 1.000000000000000000, 0.000000000000000000, 0.000000000000000000 ) ) ;
#229 = CARTESIAN_POINT ( 'NONE',  ( 0.000000000000000000, 0.000000000000000000, 0.000000000000000000 ) ) ;
#230 = LINE ( 'NONE', #26, #87 ) ;
#231 = DIRECTION ( 'NONE',  ( 1.000000000000000000, 0.000000000000000000, 0.000000000000000000 ) ) ;
#232 = DIRECTION ( 'NONE',  ( -1.000000000000000000, 0.000000000000000000, 1.224646799147353207E-16 ) ) ;
#233 = ORIENTED_EDGE ( 'NONE', *, *, #153, .F. ) ;
#234 = EDGE_LOOP ( 'NONE', ( #67, #273, #51, #207 ) ) ;
#235 = PRESENTATION_LAYER_ASSIGNMENT (  '', '', ( #147 ) ) ;
#236 = DIRECTION ( 'NONE',  ( 1.000000000000000000, 0.000000000000000000, 0.000000000000000000 ) ) ;
#237 = CARTESIAN_POINT ( 'NONE',  ( 0.06374000000000018540, 7.805898697765251255E-18, 1.968503999999999809 ) ) ;
#238 = EDGE_CURVE ( 'NONE', #11, #117, #200, .T. ) ;
#239 = DIRECTION ( 'NONE',  ( 1.224646799147353207E-16, 0.000000000000000000, 1.000000000000000000 ) ) ;
#240 = DIRECTION ( 'NONE',  ( -1.000000000000000000, 0.000000000000000000, 0.000000000000000000 ) ) ;
#241 = AXIS2_PLACEMENT_3D ( 'NONE', #80, #188, #220 ) ;
#242 = DIRECTION ( 'NONE',  ( -1.224646799147353207E-16, -0.000000000000000000, -1.000000000000000000 ) ) ;
#243 = LENGTH_MEASURE_WITH_UNIT ( LENGTH_MEASURE( 0.02539999999999999897 ), #107 );
#244 = CIRCLE ( 'NONE', #9, 0.07874000000000000443 ) ;
#245 = COLOUR_RGB ( '',0.7921568627450980005, 0.8196078431372548767, 0.9333333333333333481 ) ;
#246 = CARTESIAN_POINT ( 'NONE',  ( -0.07866126000000001062, 0.000000000000000000, 9.633226027589773945E-18 ) ) ;
#247 = PRODUCT_RELATED_PRODUCT_CATEGORY ( 'part', '', ( #293 ) ) ;
#248 = CARTESIAN_POINT ( 'NONE',  ( 0.000000000000000000, 0.000000000000000000, 1.953504000000000129 ) ) ;
#249 = ORIENTED_EDGE ( 'NONE', *, *, #41, .T. ) ;
#250 = AXIS2_PLACEMENT_3D ( 'NONE', #22, #42, #232 ) ;
#251 = CYLINDRICAL_SURFACE ( 'NONE', #20, 0.07866126000000001062 ) ;
#252 = FILL_AREA_STYLE ('',( #65 ) ) ;
#253 = DIRECTION ( 'NONE',  ( -1.224646799147353207E-16, -0.000000000000000000, -1.000000000000000000 ) ) ;
#254 = DIRECTION ( 'NONE',  ( -0.000000000000000000, -0.000000000000000000, -1.000000000000000000 ) ) ;
#255 = VECTOR ( 'NONE', #254, 39.37007874015748143 ) ;
#256 = ORIENTED_EDGE ( 'NONE', *, *, #132, .F. ) ;
#257 = DIRECTION ( 'NONE',  ( 0.000000000000000000, 0.000000000000000000, -1.000000000000000000 ) ) ;
#258 = ORIENTED_EDGE ( 'NONE', *, *, #151, .F. ) ;
#259 = VERTEX_POINT ( 'NONE', #1 ) ;
#260 = UNCERTAINTY_MEASURE_WITH_UNIT (LENGTH_MEASURE( 1.000000000000000082E-05 ), #136, 'distance_accuracy_value', 'NONE');
#261 = AXIS2_PLACEMENT_3D ( 'NONE', #290, #128, #240 ) ;
#262 = CIRCLE ( 'NONE', #106, 0.07874000000000000443 ) ;
#263 = SURFACE_STYLE_FILL_AREA ( #168 ) ;
#264 = EDGE_CURVE ( 'NONE', #209, #11, #114, .T. ) ;
#265 = CARTESIAN_POINT ( 'NONE',  ( -0.07866125999999994123, 9.638047462038017768E-18, 0.7086609999999999854 ) ) ;
#266 = DIRECTION ( 'NONE',  ( -1.000000000000000000, 0.000000000000000000, 0.000000000000000000 ) ) ;
#267 = ORIENTED_EDGE ( 'NONE', *, *, #41, .F. ) ;
#268 = DIRECTION ( 'NONE',  ( 0.7071067811865502373, 8.659560562354966138E-17, -0.7071067811865446862 ) ) ;
#269 = ADVANCED_FACE ( 'NONE', ( #279 ), #251, .T. ) ;
#270 =( NAMED_UNIT ( * ) SI_UNIT ( $, .STERADIAN. ) SOLID_ANGLE_UNIT ( ) );
#271 = AXIS2_PLACEMENT_3D ( 'NONE', #229, #40, #231 ) ;
#272 = DIRECTION ( 'NONE',  ( 0.000000000000000000, 0.000000000000000000, 1.000000000000000000 ) ) ;
#273 = ORIENTED_EDGE ( 'NONE', *, *, #190, .T. ) ;
#274 = MECHANICAL_DESIGN_GEOMETRIC_PRESENTATION_REPRESENTATION (  '', ( #147 ), #102 ) ;
#275 = LINE ( 'NONE', #277, #299 ) ;
#276 =( NAMED_UNIT ( * ) PLANE_ANGLE_UNIT ( ) SI_UNIT ( $, .RADIAN. ) );
#277 = CARTESIAN_POINT ( 'NONE',  ( 0.07866126000000001062, 9.633226027589773945E-18, -9.633226027589773945E-18 ) ) ;
#278 = ORIENTED_EDGE ( 'NONE', *, *, #170, .F. ) ;
#279 = FACE_OUTER_BOUND ( 'NONE', #234, .T. ) ;
#280 = EDGE_LOOP ( 'NONE', ( #187, #139, #74, #278 ) ) ;
#281 = CIRCLE ( 'NONE', #261, 0.07866126000000002449 ) ;
#282 = CONICAL_SURFACE ( 'NONE', #185, 0.07866126000000002449, 0.1745329251994339192 ) ;
#283 = FACE_OUTER_BOUND ( 'NONE', #227, .T. ) ;
#284 = ORIENTED_EDGE ( 'NONE', *, *, #238, .T. ) ;
#285 = EDGE_CURVE ( 'NONE', #146, #120, #116, .T. ) ;
#286 = CARTESIAN_POINT ( 'NONE',  ( 8.678594253305624695E-17, 0.000000000000000000, 0.7086609999999999854 ) ) ;
#287 = STYLED_ITEM ( 'NONE', ( #77 ), #72 ) ;
#288 = DIRECTION ( 'NONE',  ( 0.000000000000000000, 0.000000000000000000, 1.000000000000000000 ) ) ;
#289 = DIRECTION ( 'NONE',  ( 0.000000000000000000, 0.000000000000000000, -1.000000000000000000 ) ) ;
#290 = CARTESIAN_POINT ( 'NONE',  ( 8.678594253305624695E-17, 0.000000000000000000, 0.7086609999999999854 ) ) ;
#291 = AXIS2_PLACEMENT_3D ( 'NONE', #248, #68, #61 ) ;
#292 =( CONVERSION_BASED_UNIT ( 'INCH', #243 ) LENGTH_UNIT ( ) NAMED_UNIT ( #215 ) );
#293 = PRODUCT ( 'Micro_EMSM-040-2X', 'Micro_EMSM-040-2X', '', ( #203 ) ) ;
#294 = PLANE ( 'NONE',  #224 ) ;
#295 = CARTESIAN_POINT ( 'NONE',  ( 0.07874000000000008770, 9.642868896486269294E-18, 0.7091075567304765404 ) ) ;
#296 = ORIENTED_EDGE ( 'NONE', *, *, #264, .F. ) ;
#297 =( CONVERSION_BASED_UNIT ( 'INCH', #63 ) LENGTH_UNIT ( ) NAMED_UNIT ( #165 ) );
#298 = VERTEX_POINT ( 'NONE', #121 ) ;
#299 = VECTOR ( 'NONE', #144, 39.37007874015748143 ) ;
ENDSEC;
END-ISO-10303-21;
