ISO-10303-21;
HEADER;
FILE_DESCRIPTION (( 'STEP AP214' ),
    '1' );
FILE_NAME ('Micro_SPD-375-100.STEP',
    '2021-09-03T21:21:04',
    ( '' ),
    ( '' ),
    'SwSTEP 2.0',
    'SolidWorks 2020',
    '' );
FILE_SCHEMA (( 'AUTOMOTIVE_DESIGN' ));
ENDSEC;

DATA;
#1 = CARTESIAN_POINT ( 'NONE',  ( 0.0000000000000000000, 0.0000000000000000000, 0.0000000000000000000 ) ) ;
#2 = LINE ( 'NONE', #270, #61 ) ;
#3 = AXIS2_PLACEMENT_3D ( 'NONE', #242, #133, #56 ) ;
#4 =( LENGTH_UNIT ( ) NAMED_UNIT ( * ) SI_UNIT ( $, .METRE. ) );
#5 = AXIS2_PLACEMENT_3D ( 'NONE', #338, #212, #257 ) ;
#6 = CARTESIAN_POINT ( 'NONE',  ( 0.0000000000000000000, 0.0000000000000000000, 2.500000000000000000 ) ) ;
#7 = DIRECTION ( 'NONE',  ( -1.000000000000000000, 0.0000000000000000000, 0.0000000000000000000 ) ) ;
#8 = VERTEX_POINT ( 'NONE', #102 ) ;
#9 = DIRECTION ( 'NONE',  ( -0.0000000000000000000, -0.0000000000000000000, -1.000000000000000000 ) ) ;
#10 = CIRCLE ( 'NONE', #131, 0.1874500000000001165 ) ;
#11 = CARTESIAN_POINT ( 'NONE',  ( 0.0000000000000000000, 0.0000000000000000000, 0.1337944361912167535 ) ) ;
#12 = VECTOR ( 'NONE', #254, 39.37007874015748143 ) ;
#13 = CARTESIAN_POINT ( 'NONE',  ( 0.0000000000000000000, 0.0000000000000000000, 1.000000000000000000 ) ) ;
#14 = ORIENTED_EDGE ( 'NONE', *, *, #142, .F. ) ;
#15 = DIRECTION ( 'NONE',  ( 0.7071067811865481278, 0.0000000000000000000, 0.7071067811865469066 ) ) ;
#16 = VERTEX_POINT ( 'NONE', #30 ) ;
#17 = AXIS2_PLACEMENT_3D ( 'NONE', #11, #335, #272 ) ;
#18 = ORIENTED_EDGE ( 'NONE', *, *, #32, .T. ) ;
#19 = PRODUCT_DEFINITION_CONTEXT ( 'detailed design', #146, 'design' ) ;
#20 = EDGE_CURVE ( 'NONE', #50, #200, #2, .T. ) ;
#21 = ORIENTED_EDGE ( 'NONE', *, *, #92, .T. ) ;
#22 = LENGTH_MEASURE_WITH_UNIT ( LENGTH_MEASURE( 0.02539999999999999897 ), #130 );
#23 = EDGE_LOOP ( 'NONE', ( #38, #99, #206, #312 ) ) ;
#24 = DIRECTION ( 'NONE',  ( -1.000000000000000000, 0.0000000000000000000, 0.0000000000000000000 ) ) ;
#25 = DIRECTION ( 'NONE',  ( 0.0000000000000000000, 0.0000000000000000000, 1.000000000000000000 ) ) ;
#26 = VECTOR ( 'NONE', #122, 39.37007874015748143 ) ;
#27 = PRODUCT_DEFINITION ( 'UNKNOWN', '', #293, #19 ) ;
#28 = AXIS2_PLACEMENT_3D ( 'NONE', #149, #301, #63 ) ;
#29 = MANIFOLD_SOLID_BREP ( 'Cut-Revolve2', #327 ) ;
#30 = CARTESIAN_POINT ( 'NONE',  ( 0.1874500000000000333, 2.295600425001713927E-17, 0.1337944361912167535 ) ) ;
#31 = EDGE_CURVE ( 'NONE', #276, #182, #343, .T. ) ;
#32 = EDGE_CURVE ( 'NONE', #123, #70, #163, .T. ) ;
#33 = DIRECTION ( 'NONE',  ( 1.000000000000000000, 0.0000000000000000000, 0.0000000000000000000 ) ) ;
#34 =( LENGTH_UNIT ( ) NAMED_UNIT ( * ) SI_UNIT ( $, .METRE. ) );
#35 = AXIS2_PLACEMENT_3D ( 'NONE', #289, #156, #109 ) ;
#36 = DIRECTION ( 'NONE',  ( -0.0000000000000000000, -0.0000000000000000000, -1.000000000000000000 ) ) ;
#37 = CARTESIAN_POINT ( 'NONE',  ( 0.0000000000000000000, 0.0000000000000000000, 0.0000000000000000000 ) ) ;
#38 = ORIENTED_EDGE ( 'NONE', *, *, #148, .F. ) ;
#39 = CARTESIAN_POINT ( 'NONE',  ( -0.1875000000000000278, 0.0000000000000000000, 2.484999999999999432 ) ) ;
#40 = EDGE_LOOP ( 'NONE', ( #210, #75 ) ) ;
#41 = CARTESIAN_POINT ( 'NONE',  ( 0.1874500000000000610, 2.295600425001714235E-17, 0.0000000000000000000 ) ) ;
#42 = ORIENTED_EDGE ( 'NONE', *, *, #316, .F. ) ;
#43 = CARTESIAN_POINT ( 'NONE',  ( 0.1874500000000001165, 0.0000000000000000000, 1.000000000000000000 ) ) ;
#44 = VERTEX_POINT ( 'NONE', #107 ) ;
#45 = DIRECTION ( 'NONE',  ( 1.000000000000000000, 0.0000000000000000000, 0.0000000000000000000 ) ) ;
#46 = AXIS2_PLACEMENT_3D ( 'NONE', #6, #260, #297 ) ;
#47 = VECTOR ( 'NONE', #125, 39.37007874015748854 ) ;
#48 = EDGE_LOOP ( 'NONE', ( #245, #205, #126, #42 ) ) ;
#49 = SURFACE_SIDE_STYLE ('',( #284 ) ) ;
#50 = VERTEX_POINT ( 'NONE', #88 ) ;
#51 = SURFACE_STYLE_USAGE ( .BOTH. , #49 ) ;
#52 = FACE_OUTER_BOUND ( 'NONE', #66, .T. ) ;
#53 =( NAMED_UNIT ( * ) PLANE_ANGLE_UNIT ( ) SI_UNIT ( $, .RADIAN. ) );
#54 = PRESENTATION_LAYER_ASSIGNMENT (  '', '', ( #67 ) ) ;
#55 = EDGE_CURVE ( 'NONE', #123, #44, #287, .T. ) ;
#56 = DIRECTION ( 'NONE',  ( 1.000000000000000000, 0.0000000000000000000, 0.0000000000000000000 ) ) ;
#57 = CONICAL_SURFACE ( 'NONE', #292, 0.02800000000000000405, 0.8726646259971668762 ) ;
#58 =( NAMED_UNIT ( * ) SI_UNIT ( $, .STERADIAN. ) SOLID_ANGLE_UNIT ( ) );
#59 = EDGE_CURVE ( 'NONE', #50, #276, #229, .T. ) ;
#60 = DIRECTION ( 'NONE',  ( 1.000000000000000000, 0.0000000000000000000, 0.0000000000000000000 ) ) ;
#61 = VECTOR ( 'NONE', #114, 39.37007874015748854 ) ;
#62 = CIRCLE ( 'NONE', #238, 0.1875000000000000278 ) ;
#63 = DIRECTION ( 'NONE',  ( -1.000000000000000000, 0.0000000000000000000, 0.0000000000000000000 ) ) ;
#64 = FACE_OUTER_BOUND ( 'NONE', #40, .T. ) ;
#65 = CARTESIAN_POINT ( 'NONE',  ( 0.0000000000000000000, 0.0000000000000000000, 0.0000000000000000000 ) ) ;
#66 = EDGE_LOOP ( 'NONE', ( #21, #115 ) ) ;
#67 = STYLED_ITEM ( 'NONE', ( #349 ), #29 ) ;
#68 = CARTESIAN_POINT ( 'NONE',  ( -0.1874500000000001165, 2.295600425001714852E-17, 1.000000000000000000 ) ) ;
#69 = AXIS2_PLACEMENT_3D ( 'NONE', #179, #101, #243 ) ;
#70 = VERTEX_POINT ( 'NONE', #192 ) ;
#71 = DIRECTION ( 'NONE',  ( -0.0000000000000000000, -0.0000000000000000000, -1.000000000000000000 ) ) ;
#72 = ORIENTED_EDGE ( 'NONE', *, *, #73, .F. ) ;
#73 = EDGE_CURVE ( 'NONE', #16, #44, #336, .T. ) ;
#74 = CARTESIAN_POINT ( 'NONE',  ( 0.0000000000000000000, 0.0000000000000000000, 2.484999999999999432 ) ) ;
#75 = ORIENTED_EDGE ( 'NONE', *, *, #302, .T. ) ;
#76 = DIMENSIONAL_EXPONENTS ( 1.000000000000000000, 0.0000000000000000000, 0.0000000000000000000, 0.0000000000000000000, 0.0000000000000000000, 0.0000000000000000000, 0.0000000000000000000 ) ;
#77 = VECTOR ( 'NONE', #266, 39.37007874015748143 ) ;
#78 = MECHANICAL_DESIGN_GEOMETRIC_PRESENTATION_REPRESENTATION (  '', ( #100 ), #106 ) ;
#79 = EDGE_LOOP ( 'NONE', ( #227, #278, #180, #232 ) ) ;
#80 = DIMENSIONAL_EXPONENTS ( 1.000000000000000000, 0.0000000000000000000, 0.0000000000000000000, 0.0000000000000000000, 0.0000000000000000000, 0.0000000000000000000, 0.0000000000000000000 ) ;
#81 = CARTESIAN_POINT ( 'NONE',  ( 0.02800000000000000405, 0.0000000000000000000, 0.0000000000000000000 ) ) ;
#82 = DIRECTION ( 'NONE',  ( -1.000000000000000000, 0.0000000000000000000, 0.0000000000000000000 ) ) ;
#83 = AXIS2_PLACEMENT_3D ( 'NONE', #168, #322, #294 ) ;
#84 =( CONVERSION_BASED_UNIT ( 'INCH', #189 ) LENGTH_UNIT ( ) NAMED_UNIT ( #76 ) );
#85 = ADVANCED_FACE ( 'NONE', ( #52 ), #193, .T. ) ;
#86 = UNCERTAINTY_MEASURE_WITH_UNIT (LENGTH_MEASURE( 1.000000000000000082E-05 ), #187, 'distance_accuracy_value', 'NONE');
#87 =( NAMED_UNIT ( * ) PLANE_ANGLE_UNIT ( ) SI_UNIT ( $, .RADIAN. ) );
#88 = CARTESIAN_POINT ( 'NONE',  ( 0.1724999999999995981, 2.204364238465233357E-17, 2.500000000000000000 ) ) ;
#89 = COLOUR_RGB ( '',0.7921568627450980005, 0.8196078431372548767, 0.9333333333333333481 ) ;
#90 = VECTOR ( 'NONE', #36, 39.37007874015748143 ) ;
#91 = DIRECTION ( 'NONE',  ( -0.7071067811865385799, 0.0000000000000000000, -0.7071067811865563435 ) ) ;
#92 = EDGE_CURVE ( 'NONE', #276, #50, #275, .T. ) ;
#93 =( CONVERSION_BASED_UNIT ( 'INCH', #217 ) LENGTH_UNIT ( ) NAMED_UNIT ( #318 ) );
#94 = FACE_OUTER_BOUND ( 'NONE', #79, .T. ) ;
#95 = EDGE_CURVE ( 'NONE', #182, #200, #124, .T. ) ;
#96 = FACE_OUTER_BOUND ( 'NONE', #202, .T. ) ;
#97 = ORIENTED_EDGE ( 'NONE', *, *, #55, .F. ) ;
#98 = DIRECTION ( 'NONE',  ( -0.0000000000000000000, -0.0000000000000000000, -1.000000000000000000 ) ) ;
#99 = ORIENTED_EDGE ( 'NONE', *, *, #239, .F. ) ;
#100 = STYLED_ITEM ( 'NONE', ( #262 ), #207 ) ;
#101 = DIRECTION ( 'NONE',  ( -0.0000000000000000000, -0.0000000000000000000, -1.000000000000000000 ) ) ;
#102 = CARTESIAN_POINT ( 'NONE',  ( -0.02800000000000000405, 1.319250764381486649E-17, 0.0000000000000000000 ) ) ;
#103 = CARTESIAN_POINT ( 'NONE',  ( 0.0000000000000000000, 0.0000000000000000000, 0.0000000000000000000 ) ) ;
#104 = PRODUCT_DEFINITION_SHAPE ( 'NONE', 'NONE',  #27 ) ;
#105 = EDGE_LOOP ( 'NONE', ( #228, #177, #285, #72 ) ) ;
#106 =( GEOMETRIC_REPRESENTATION_CONTEXT ( 3 ) GLOBAL_UNCERTAINTY_ASSIGNED_CONTEXT ( ( #150 ) ) GLOBAL_UNIT_ASSIGNED_CONTEXT ( ( #84, #290, #264 ) ) REPRESENTATION_CONTEXT ( 'NONE', 'WORKASPACE' ) );
#107 = CARTESIAN_POINT ( 'NONE',  ( -0.1874500000000000333, 0.0000000000000000000, 0.1337944361912167535 ) ) ;
#108 = CARTESIAN_POINT ( 'NONE',  ( 0.0000000000000000000, 0.0000000000000000000, 1.000000000000000000 ) ) ;
#109 = DIRECTION ( 'NONE',  ( -1.000000000000000000, 0.0000000000000000000, 0.0000000000000000000 ) ) ;
#110 = CONICAL_SURFACE ( 'NONE', #28, 0.1724999999999995981, 0.7853981633974357335 ) ;
#111 = FILL_AREA_STYLE ('',( #346 ) ) ;
#112 =( GEOMETRIC_REPRESENTATION_CONTEXT ( 3 ) GLOBAL_UNCERTAINTY_ASSIGNED_CONTEXT ( ( #333 ) ) GLOBAL_UNIT_ASSIGNED_CONTEXT ( ( #93, #87, #58 ) ) REPRESENTATION_CONTEXT ( 'NONE', 'WORKASPACE' ) );
#113 = AXIS2_PLACEMENT_3D ( 'NONE', #65, #173, #175 ) ;
#114 = DIRECTION ( 'NONE',  ( 0.7071067811865385799, 8.659560562354823157E-17, -0.7071067811865563435 ) ) ;
#115 = ORIENTED_EDGE ( 'NONE', *, *, #59, .T. ) ;
#116 = DIRECTION ( 'NONE',  ( 1.000000000000000000, 0.0000000000000000000, 0.0000000000000000000 ) ) ;
#117 = AXIS2_PLACEMENT_3D ( 'NONE', #186, #170, #236 ) ;
#118 = AXIS2_PLACEMENT_3D ( 'NONE', #108, #188, #231 ) ;
#119 = CYLINDRICAL_SURFACE ( 'NONE', #69, 0.1875000000000000278 ) ;
#120 = CARTESIAN_POINT ( 'NONE',  ( -0.1875000000000000278, 0.0000000000000000000, 1.000049999999999883 ) ) ;
#121 = ORIENTED_EDGE ( 'NONE', *, *, #161, .F. ) ;
#122 = DIRECTION ( 'NONE',  ( -0.7071067811865481278, 8.659560562354940254E-17, 0.7071067811865469066 ) ) ;
#123 = VERTEX_POINT ( 'NONE', #324 ) ;
#124 = CIRCLE ( 'NONE', #313, 0.1875000000000000278 ) ;
#125 = DIRECTION ( 'NONE',  ( 0.7660444431189794567, 0.0000000000000000000, 0.6427876096865376976 ) ) ;
#126 = ORIENTED_EDGE ( 'NONE', *, *, #176, .T. ) ;
#127 = ORIENTED_EDGE ( 'NONE', *, *, #347, .F. ) ;
#128 = FILL_AREA_STYLE_COLOUR ( '', #155 ) ;
#129 = ORIENTED_EDGE ( 'NONE', *, *, #31, .T. ) ;
#130 =( LENGTH_UNIT ( ) NAMED_UNIT ( * ) SI_UNIT ( $, .METRE. ) );
#131 = AXIS2_PLACEMENT_3D ( 'NONE', #171, #136, #7 ) ;
#132 = AXIS2_PLACEMENT_3D ( 'NONE', #225, #145, #82 ) ;
#133 = DIRECTION ( 'NONE',  ( 0.0000000000000000000, 0.0000000000000000000, 1.000000000000000000 ) ) ;
#134 = ADVANCED_FACE ( 'NONE', ( #219 ), #57, .T. ) ;
#135 = DIRECTION ( 'NONE',  ( 0.0000000000000000000, 0.0000000000000000000, -1.000000000000000000 ) ) ;
#136 = DIRECTION ( 'NONE',  ( -0.0000000000000000000, -0.0000000000000000000, -1.000000000000000000 ) ) ;
#137 = CARTESIAN_POINT ( 'NONE',  ( -0.1724999999999995981, 0.0000000000000000000, 2.500000000000000000 ) ) ;
#138 = VECTOR ( 'NONE', #91, 39.37007874015748854 ) ;
#139 = CONICAL_SURFACE ( 'NONE', #132, 0.1724999999999995981, 0.7853981633974357335 ) ;
#140 = SURFACE_STYLE_USAGE ( .BOTH. , #296 ) ;
#141 = DIRECTION ( 'NONE',  ( 1.000000000000000000, 0.0000000000000000000, 0.0000000000000000000 ) ) ;
#142 = EDGE_CURVE ( 'NONE', #70, #123, #10, .T. ) ;
#143 = DIRECTION ( 'NONE',  ( 0.0000000000000000000, 0.0000000000000000000, 1.000000000000000000 ) ) ;
#144 = CIRCLE ( 'NONE', #178, 0.02800000000000000405 ) ;
#145 = DIRECTION ( 'NONE',  ( 0.0000000000000000000, 0.0000000000000000000, -1.000000000000000000 ) ) ;
#146 = APPLICATION_CONTEXT ( 'automotive_design' ) ;
#147 = ORIENTED_EDGE ( 'NONE', *, *, #153, .T. ) ;
#148 = EDGE_CURVE ( 'NONE', #8, #44, #280, .T. ) ;
#149 = CARTESIAN_POINT ( 'NONE',  ( 0.0000000000000000000, 0.0000000000000000000, 2.500000000000000000 ) ) ;
#150 = UNCERTAINTY_MEASURE_WITH_UNIT (LENGTH_MEASURE( 1.000000000000000082E-05 ), #84, 'distance_accuracy_value', 'NONE');
#151 = ORIENTED_EDGE ( 'NONE', *, *, #161, .T. ) ;
#152 = LINE ( 'NONE', #340, #12 ) ;
#153 = EDGE_CURVE ( 'NONE', #123, #230, #174, .T. ) ;
#154 = ORIENTED_EDGE ( 'NONE', *, *, #295, .T. ) ;
#155 = COLOUR_RGB ( '',0.7921568627450980005, 0.8196078431372548767, 0.9333333333333333481 ) ;
#156 = DIRECTION ( 'NONE',  ( -0.0000000000000000000, -0.0000000000000000000, -1.000000000000000000 ) ) ;
#157 = EDGE_LOOP ( 'NONE', ( #281, #234, #309, #304 ) ) ;
#158 = CARTESIAN_POINT ( 'NONE',  ( -0.1724999999999995981, 0.0000000000000000000, 2.500000000000000000 ) ) ;
#159 = EDGE_CURVE ( 'NONE', #70, #259, #250, .T. ) ;
#160 = ORIENTED_EDGE ( 'NONE', *, *, #20, .F. ) ;
#161 = EDGE_CURVE ( 'NONE', #230, #259, #62, .T. ) ;
#162 =( NAMED_UNIT ( * ) SI_UNIT ( $, .STERADIAN. ) SOLID_ANGLE_UNIT ( ) );
#163 = CIRCLE ( 'NONE', #197, 0.1874500000000001165 ) ;
#164 = AXIS2_PLACEMENT_3D ( 'NONE', #74, #315, #45 ) ;
#165 = PRODUCT_CONTEXT ( 'NONE', #331, 'mechanical' ) ;
#166 = ADVANCED_FACE ( 'NONE', ( #96 ), #252, .T. ) ;
#167 = PRODUCT ( 'Micro_SPD-375-100', 'Micro_SPD-375-100', '', ( #165 ) ) ;
#168 = CARTESIAN_POINT ( 'NONE',  ( 0.0000000000000000000, 0.0000000000000000000, 2.500000000000000000 ) ) ;
#169 = AXIS2_PLACEMENT_3D ( 'NONE', #13, #277, #328 ) ;
#170 = DIRECTION ( 'NONE',  ( -0.0000000000000000000, -0.0000000000000000000, -1.000000000000000000 ) ) ;
#171 = CARTESIAN_POINT ( 'NONE',  ( 0.0000000000000000000, 0.0000000000000000000, 1.000000000000000000 ) ) ;
#172 = CONICAL_SURFACE ( 'NONE', #169, 0.1874500000000001165, 0.7853981633974491672 ) ;
#173 = DIRECTION ( 'NONE',  ( -0.0000000000000000000, -0.0000000000000000000, -1.000000000000000000 ) ) ;
#174 = LINE ( 'NONE', #68, #26 ) ;
#175 = DIRECTION ( 'NONE',  ( -1.000000000000000000, 0.0000000000000000000, 0.0000000000000000000 ) ) ;
#176 = EDGE_CURVE ( 'NONE', #44, #16, #218, .T. ) ;
#177 = ORIENTED_EDGE ( 'NONE', *, *, #142, .T. ) ;
#178 = AXIS2_PLACEMENT_3D ( 'NONE', #103, #310, #24 ) ;
#179 = CARTESIAN_POINT ( 'NONE',  ( 0.0000000000000000000, 0.0000000000000000000, 2.500000000000000000 ) ) ;
#180 = ORIENTED_EDGE ( 'NONE', *, *, #95, .F. ) ;
#181 = DIRECTION ( 'NONE',  ( -0.7660444431189794567, 9.381338752702748037E-17, 0.6427876096865376976 ) ) ;
#182 = VERTEX_POINT ( 'NONE', #39 ) ;
#183 = CYLINDRICAL_SURFACE ( 'NONE', #35, 0.1875000000000000278 ) ;
#184 = ORIENTED_EDGE ( 'NONE', *, *, #92, .F. ) ;
#185 = ORIENTED_EDGE ( 'NONE', *, *, #176, .F. ) ;
#186 = CARTESIAN_POINT ( 'NONE',  ( 0.0000000000000000000, 0.0000000000000000000, 0.1337944361912167535 ) ) ;
#187 =( CONVERSION_BASED_UNIT ( 'INCH', #22 ) LENGTH_UNIT ( ) NAMED_UNIT ( #80 ) );
#188 = DIRECTION ( 'NONE',  ( 0.0000000000000000000, 0.0000000000000000000, 1.000000000000000000 ) ) ;
#189 = LENGTH_MEASURE_WITH_UNIT ( LENGTH_MEASURE( 0.02539999999999999897 ), #4 );
#190 = PRODUCT_RELATED_PRODUCT_CATEGORY ( 'part', '', ( #167 ) ) ;
#191 = CARTESIAN_POINT ( 'NONE',  ( 0.0000000000000000000, 0.0000000000000000000, 1.000000000000000000 ) ) ;
#192 = CARTESIAN_POINT ( 'NONE',  ( 0.1874500000000001165, 0.0000000000000000000, 1.000000000000000000 ) ) ;
#193 = PLANE ( 'NONE',  #46 ) ;
#194 = ADVANCED_FACE ( 'NONE', ( #199 ), #221, .T. ) ;
#195 = ADVANCED_FACE ( 'NONE', ( #332 ), #119, .T. ) ;
#196 = DIRECTION ( 'NONE',  ( 0.0000000000000000000, 0.0000000000000000000, 1.000000000000000000 ) ) ;
#197 = AXIS2_PLACEMENT_3D ( 'NONE', #191, #291, #269 ) ;
#198 = LINE ( 'NONE', #41, #90 ) ;
#199 = FACE_OUTER_BOUND ( 'NONE', #105, .T. ) ;
#200 = VERTEX_POINT ( 'NONE', #204 ) ;
#201 = CARTESIAN_POINT ( 'NONE',  ( 0.0000000000000000000, 0.0000000000000000000, 0.0000000000000000000 ) ) ;
#202 = EDGE_LOOP ( 'NONE', ( #18, #339, #185, #97 ) ) ;
#203 = VECTOR ( 'NONE', #181, 39.37007874015748854 ) ;
#204 = CARTESIAN_POINT ( 'NONE',  ( 0.1875000000000000278, 2.296212748401287726E-17, 2.484999999999999432 ) ) ;
#205 = ORIENTED_EDGE ( 'NONE', *, *, #148, .T. ) ;
#206 = ORIENTED_EDGE ( 'NONE', *, *, #316, .T. ) ;
#207 = ADVANCED_BREP_SHAPE_REPRESENTATION ( 'Micro_SPD-375-100', ( #29, #348 ), #224 ) ;
#208 = ADVANCED_FACE ( 'NONE', ( #246 ), #235, .T. ) ;
#209 = LINE ( 'NONE', #317, #47 ) ;
#210 = ORIENTED_EDGE ( 'NONE', *, *, #239, .T. ) ;
#211 = CIRCLE ( 'NONE', #5, 0.1875000000000000278 ) ;
#212 = DIRECTION ( 'NONE',  ( -0.0000000000000000000, -0.0000000000000000000, -1.000000000000000000 ) ) ;
#213 = FACE_OUTER_BOUND ( 'NONE', #157, .T. ) ;
#214 = ADVANCED_FACE ( 'NONE', ( #308 ), #172, .T. ) ;
#215 = DIRECTION ( 'NONE',  ( -0.0000000000000000000, -0.0000000000000000000, -1.000000000000000000 ) ) ;
#216 = VECTOR ( 'NONE', #15, 39.37007874015748143 ) ;
#217 = LENGTH_MEASURE_WITH_UNIT ( LENGTH_MEASURE( 0.02539999999999999897 ), #34 );
#218 = CIRCLE ( 'NONE', #17, 0.1874500000000000333 ) ;
#219 = FACE_OUTER_BOUND ( 'NONE', #23, .T. ) ;
#220 = ADVANCED_FACE ( 'NONE', ( #94 ), #110, .T. ) ;
#221 = CYLINDRICAL_SURFACE ( 'NONE', #256, 0.1874500000000000610 ) ;
#222 = EDGE_LOOP ( 'NONE', ( #251, #14, #253, #283 ) ) ;
#223 = DIRECTION ( 'NONE',  ( -1.000000000000000000, 0.0000000000000000000, 0.0000000000000000000 ) ) ;
#224 =( GEOMETRIC_REPRESENTATION_CONTEXT ( 3 ) GLOBAL_UNCERTAINTY_ASSIGNED_CONTEXT ( ( #86 ) ) GLOBAL_UNIT_ASSIGNED_CONTEXT ( ( #187, #53, #162 ) ) REPRESENTATION_CONTEXT ( 'NONE', 'WORKASPACE' ) );
#225 = CARTESIAN_POINT ( 'NONE',  ( 0.0000000000000000000, 0.0000000000000000000, 2.500000000000000000 ) ) ;
#226 = DIRECTION ( 'NONE',  ( 1.000000000000000000, 0.0000000000000000000, -0.0000000000000000000 ) ) ;
#227 = ORIENTED_EDGE ( 'NONE', *, *, #59, .F. ) ;
#228 = ORIENTED_EDGE ( 'NONE', *, *, #244, .F. ) ;
#229 = CIRCLE ( 'NONE', #3, 0.1724999999999995981 ) ;
#230 = VERTEX_POINT ( 'NONE', #120 ) ;
#231 = DIRECTION ( 'NONE',  ( 1.000000000000000000, 0.0000000000000000000, 0.0000000000000000000 ) ) ;
#232 = ORIENTED_EDGE ( 'NONE', *, *, #31, .F. ) ;
#233 = FACE_OUTER_BOUND ( 'NONE', #222, .T. ) ;
#234 = ORIENTED_EDGE ( 'NONE', *, *, #347, .T. ) ;
#235 = CONICAL_SURFACE ( 'NONE', #329, 0.02800000000000000405, 0.8726646259971668762 ) ;
#236 = DIRECTION ( 'NONE',  ( -1.000000000000000000, 0.0000000000000000000, 0.0000000000000000000 ) ) ;
#237 = DIRECTION ( 'NONE',  ( 1.000000000000000000, 0.0000000000000000000, 0.0000000000000000000 ) ) ;
#238 = AXIS2_PLACEMENT_3D ( 'NONE', #330, #98, #141 ) ;
#239 = EDGE_CURVE ( 'NONE', #326, #8, #249, .T. ) ;
#240 = CARTESIAN_POINT ( 'NONE',  ( 0.0000000000000000000, 0.0000000000000000000, 0.0000000000000000000 ) ) ;
#241 = CARTESIAN_POINT ( 'NONE',  ( -0.1874500000000000610, 0.0000000000000000000, 0.0000000000000000000 ) ) ;
#242 = CARTESIAN_POINT ( 'NONE',  ( 0.0000000000000000000, 0.0000000000000000000, 2.500000000000000000 ) ) ;
#243 = DIRECTION ( 'NONE',  ( -1.000000000000000000, 0.0000000000000000000, 0.0000000000000000000 ) ) ;
#244 = EDGE_CURVE ( 'NONE', #70, #16, #198, .T. ) ;
#245 = ORIENTED_EDGE ( 'NONE', *, *, #302, .F. ) ;
#246 = FACE_OUTER_BOUND ( 'NONE', #48, .T. ) ;
#247 = CARTESIAN_POINT ( 'NONE',  ( 0.1875000000000000278, 2.296212748401287726E-17, 1.000049999999999883 ) ) ;
#248 = ADVANCED_FACE ( 'NONE', ( #64 ), #273, .F. ) ;
#249 = CIRCLE ( 'NONE', #113, 0.02800000000000000405 ) ;
#250 = LINE ( 'NONE', #43, #216 ) ;
#251 = ORIENTED_EDGE ( 'NONE', *, *, #153, .F. ) ;
#252 = CYLINDRICAL_SURFACE ( 'NONE', #265, 0.1874500000000000610 ) ;
#253 = ORIENTED_EDGE ( 'NONE', *, *, #159, .T. ) ;
#254 = DIRECTION ( 'NONE',  ( -0.0000000000000000000, -0.0000000000000000000, -1.000000000000000000 ) ) ;
#255 = ORIENTED_EDGE ( 'NONE', *, *, #32, .F. ) ;
#256 = AXIS2_PLACEMENT_3D ( 'NONE', #303, #9, #325 ) ;
#257 = DIRECTION ( 'NONE',  ( 1.000000000000000000, 0.0000000000000000000, 0.0000000000000000000 ) ) ;
#258 = EDGE_LOOP ( 'NONE', ( #255, #147, #151, #307 ) ) ;
#259 = VERTEX_POINT ( 'NONE', #247 ) ;
#260 = DIRECTION ( 'NONE',  ( 0.0000000000000000000, 0.0000000000000000000, 1.000000000000000000 ) ) ;
#261 = ADVANCED_FACE ( 'NONE', ( #274 ), #139, .T. ) ;
#262 = PRESENTATION_STYLE_ASSIGNMENT (( #51 ) ) ;
#263 = APPLICATION_PROTOCOL_DEFINITION ( 'draft international standard', 'automotive_design', 1998, #146 ) ;
#264 =( NAMED_UNIT ( * ) SI_UNIT ( $, .STERADIAN. ) SOLID_ANGLE_UNIT ( ) );
#265 = AXIS2_PLACEMENT_3D ( 'NONE', #201, #71, #223 ) ;
#266 = DIRECTION ( 'NONE',  ( -0.0000000000000000000, -0.0000000000000000000, -1.000000000000000000 ) ) ;
#267 = CARTESIAN_POINT ( 'NONE',  ( 0.0000000000000000000, 0.0000000000000000000, 2.484999999999999432 ) ) ;
#268 = ADVANCED_FACE ( 'NONE', ( #233 ), #306, .T. ) ;
#269 = DIRECTION ( 'NONE',  ( -1.000000000000000000, 0.0000000000000000000, 0.0000000000000000000 ) ) ;
#270 = CARTESIAN_POINT ( 'NONE',  ( 0.1724999999999995981, 2.112515728529179297E-17, 2.500000000000000000 ) ) ;
#271 = PRESENTATION_LAYER_ASSIGNMENT (  '', '', ( #100 ) ) ;
#272 = DIRECTION ( 'NONE',  ( -1.000000000000000000, 0.0000000000000000000, 0.0000000000000000000 ) ) ;
#273 = PLANE ( 'NONE',  #300 ) ;
#274 = FACE_OUTER_BOUND ( 'NONE', #311, .T. ) ;
#275 = CIRCLE ( 'NONE', #83, 0.1724999999999995981 ) ;
#276 = VERTEX_POINT ( 'NONE', #158 ) ;
#277 = DIRECTION ( 'NONE',  ( 0.0000000000000000000, 0.0000000000000000000, 1.000000000000000000 ) ) ;
#278 = ORIENTED_EDGE ( 'NONE', *, *, #20, .T. ) ;
#279 = ADVANCED_FACE ( 'NONE', ( #213 ), #183, .T. ) ;
#280 = LINE ( 'NONE', #299, #203 ) ;
#281 = ORIENTED_EDGE ( 'NONE', *, *, #295, .F. ) ;
#282 = APPLICATION_PROTOCOL_DEFINITION ( 'draft international standard', 'automotive_design', 1998, #331 ) ;
#283 = ORIENTED_EDGE ( 'NONE', *, *, #319, .T. ) ;
#284 = SURFACE_STYLE_FILL_AREA ( #286 ) ;
#285 = ORIENTED_EDGE ( 'NONE', *, *, #55, .T. ) ;
#286 = FILL_AREA_STYLE ('',( #128 ) ) ;
#287 = LINE ( 'NONE', #241, #77 ) ;
#288 = VECTOR ( 'NONE', #215, 39.37007874015748143 ) ;
#289 = CARTESIAN_POINT ( 'NONE',  ( 0.0000000000000000000, 0.0000000000000000000, 2.500000000000000000 ) ) ;
#290 =( NAMED_UNIT ( * ) PLANE_ANGLE_UNIT ( ) SI_UNIT ( $, .RADIAN. ) );
#291 = DIRECTION ( 'NONE',  ( -0.0000000000000000000, -0.0000000000000000000, -1.000000000000000000 ) ) ;
#292 = AXIS2_PLACEMENT_3D ( 'NONE', #240, #25, #60 ) ;
#293 = PRODUCT_DEFINITION_FORMATION_WITH_SPECIFIED_SOURCE ( 'ANY', '', #167, .NOT_KNOWN. ) ;
#294 = DIRECTION ( 'NONE',  ( 1.000000000000000000, 0.0000000000000000000, 0.0000000000000000000 ) ) ;
#295 = EDGE_CURVE ( 'NONE', #200, #259, #342, .T. ) ;
#296 = SURFACE_SIDE_STYLE ('',( #320 ) ) ;
#297 = DIRECTION ( 'NONE',  ( 1.000000000000000000, 0.0000000000000000000, -0.0000000000000000000 ) ) ;
#298 = MECHANICAL_DESIGN_GEOMETRIC_PRESENTATION_REPRESENTATION (  '', ( #67 ), #112 ) ;
#299 = CARTESIAN_POINT ( 'NONE',  ( -0.02800000000000000405, 3.429011037612589091E-18, 0.0000000000000000000 ) ) ;
#300 = AXIS2_PLACEMENT_3D ( 'NONE', #37, #143, #226 ) ;
#301 = DIRECTION ( 'NONE',  ( 0.0000000000000000000, 0.0000000000000000000, -1.000000000000000000 ) ) ;
#302 = EDGE_CURVE ( 'NONE', #8, #326, #144, .T. ) ;
#303 = CARTESIAN_POINT ( 'NONE',  ( 0.0000000000000000000, 0.0000000000000000000, 0.0000000000000000000 ) ) ;
#304 = ORIENTED_EDGE ( 'NONE', *, *, #319, .F. ) ;
#305 = CARTESIAN_POINT ( 'NONE',  ( 0.0000000000000000000, 0.0000000000000000000, 0.0000000000000000000 ) ) ;
#306 = CONICAL_SURFACE ( 'NONE', #118, 0.1874500000000001165, 0.7853981633974491672 ) ;
#307 = ORIENTED_EDGE ( 'NONE', *, *, #159, .F. ) ;
#308 = FACE_OUTER_BOUND ( 'NONE', #258, .T. ) ;
#309 = ORIENTED_EDGE ( 'NONE', *, *, #314, .T. ) ;
#310 = DIRECTION ( 'NONE',  ( -0.0000000000000000000, -0.0000000000000000000, -1.000000000000000000 ) ) ;
#311 = EDGE_LOOP ( 'NONE', ( #160, #184, #129, #127 ) ) ;
#312 = ORIENTED_EDGE ( 'NONE', *, *, #73, .T. ) ;
#313 = AXIS2_PLACEMENT_3D ( 'NONE', #267, #135, #33 ) ;
#314 = EDGE_CURVE ( 'NONE', #182, #230, #152, .T. ) ;
#315 = DIRECTION ( 'NONE',  ( 0.0000000000000000000, 0.0000000000000000000, -1.000000000000000000 ) ) ;
#316 = EDGE_CURVE ( 'NONE', #326, #16, #209, .T. ) ;
#317 = CARTESIAN_POINT ( 'NONE',  ( 0.02800000000000000405, 0.0000000000000000000, 0.0000000000000000000 ) ) ;
#318 = DIMENSIONAL_EXPONENTS ( 1.000000000000000000, 0.0000000000000000000, 0.0000000000000000000, 0.0000000000000000000, 0.0000000000000000000, 0.0000000000000000000, 0.0000000000000000000 ) ;
#319 = EDGE_CURVE ( 'NONE', #259, #230, #211, .T. ) ;
#320 = SURFACE_STYLE_FILL_AREA ( #111 ) ;
#321 = SHAPE_DEFINITION_REPRESENTATION ( #104, #207 ) ;
#322 = DIRECTION ( 'NONE',  ( 0.0000000000000000000, 0.0000000000000000000, 1.000000000000000000 ) ) ;
#323 = DIRECTION ( 'NONE',  ( 0.0000000000000000000, 0.0000000000000000000, 1.000000000000000000 ) ) ;
#324 = CARTESIAN_POINT ( 'NONE',  ( -0.1874500000000001165, 2.295906586701500980E-17, 1.000000000000000000 ) ) ;
#325 = DIRECTION ( 'NONE',  ( -1.000000000000000000, 0.0000000000000000000, 0.0000000000000000000 ) ) ;
#326 = VERTEX_POINT ( 'NONE', #81 ) ;
#327 = CLOSED_SHELL ( 'NONE', ( #208, #166, #214, #220, #195, #279, #85, #261, #268, #194, #134, #248 ) ) ;
#328 = DIRECTION ( 'NONE',  ( 1.000000000000000000, 0.0000000000000000000, 0.0000000000000000000 ) ) ;
#329 = AXIS2_PLACEMENT_3D ( 'NONE', #305, #196, #116 ) ;
#330 = CARTESIAN_POINT ( 'NONE',  ( 0.0000000000000000000, 0.0000000000000000000, 1.000049999999999883 ) ) ;
#331 = APPLICATION_CONTEXT ( 'automotive_design' ) ;
#332 = FACE_OUTER_BOUND ( 'NONE', #334, .T. ) ;
#333 = UNCERTAINTY_MEASURE_WITH_UNIT (LENGTH_MEASURE( 1.000000000000000082E-05 ), #93, 'distance_accuracy_value', 'NONE');
#334 = EDGE_LOOP ( 'NONE', ( #337, #154, #121, #341 ) ) ;
#335 = DIRECTION ( 'NONE',  ( -0.0000000000000000000, -0.0000000000000000000, -1.000000000000000000 ) ) ;
#336 = CIRCLE ( 'NONE', #117, 0.1874500000000000333 ) ;
#337 = ORIENTED_EDGE ( 'NONE', *, *, #95, .T. ) ;
#338 = CARTESIAN_POINT ( 'NONE',  ( 0.0000000000000000000, 0.0000000000000000000, 1.000049999999999883 ) ) ;
#339 = ORIENTED_EDGE ( 'NONE', *, *, #244, .T. ) ;
#340 = CARTESIAN_POINT ( 'NONE',  ( -0.1875000000000000278, 0.0000000000000000000, 2.500000000000000000 ) ) ;
#341 = ORIENTED_EDGE ( 'NONE', *, *, #314, .F. ) ;
#342 = LINE ( 'NONE', #345, #288 ) ;
#343 = LINE ( 'NONE', #137, #138 ) ;
#344 = CIRCLE ( 'NONE', #164, 0.1875000000000000278 ) ;
#345 = CARTESIAN_POINT ( 'NONE',  ( 0.1875000000000000278, 2.296212748401287726E-17, 2.500000000000000000 ) ) ;
#346 = FILL_AREA_STYLE_COLOUR ( '', #89 ) ;
#347 = EDGE_CURVE ( 'NONE', #200, #182, #344, .T. ) ;
#348 = AXIS2_PLACEMENT_3D ( 'NONE', #1, #323, #237 ) ;
#349 = PRESENTATION_STYLE_ASSIGNMENT (( #140 ) ) ;
ENDSEC;
END-ISO-10303-21;
