ISO-10303-21;
HEADER;
FILE_DESCRIPTION (( 'STEP AP214' ),
    '1' );
FILE_NAME ('03782.STEP',
    '2023-06-22T15:45:53',
    ( '' ),
    ( '' ),
    'SwSTEP 2.0',
    'SolidWorks 2023',
    '' );
FILE_SCHEMA (( 'AUTOMOTIVE_DESIGN' ));
ENDSEC;

DATA;
#1 = SURFACE_STYLE_FILL_AREA ( #21 ) ;
#2 = SURFACE_SIDE_STYLE ('',( #219 ) ) ;
#3 =( LENGTH_UNIT ( ) NAMED_UNIT ( * ) SI_UNIT ( $, .METRE. ) );
#4 = AXIS2_PLACEMENT_3D ( 'NONE', #172, #38, #37 ) ;
#5 = MECHANICAL_DESIGN_GEOMETRIC_PRESENTATION_REPRESENTATION (  '', ( #101 ), #175 ) ;
#6 = ORIENTED_EDGE ( 'NONE', *, *, #126, .T. ) ;
#7 =( LENGTH_UNIT ( ) NAMED_UNIT ( * ) SI_UNIT ( $, .METRE. ) );
#8 = ORIENTED_EDGE ( 'NONE', *, *, #169, .T. ) ;
#9 = APPLICATION_CONTEXT ( 'automotive_design' ) ;
#10 = PLANE ( 'NONE',  #110 ) ;
#11 = ORIENTED_EDGE ( 'NONE', *, *, #81, .T. ) ;
#12 = AXIS2_PLACEMENT_3D ( 'NONE', #18, #113, #307 ) ;
#13 =( NAMED_UNIT ( * ) PLANE_ANGLE_UNIT ( ) SI_UNIT ( $, .RADIAN. ) );
#14 = MANIFOLD_SOLID_BREP ( 'Revolve - Tool Body (Straight Shanked)', #209 ) ;
#15 =( NAMED_UNIT ( * ) SI_UNIT ( $, .STERADIAN. ) SOLID_ANGLE_UNIT ( ) );
#16 = AXIS2_PLACEMENT_3D ( 'NONE', #139, #19, #186 ) ;
#17 = SURFACE_STYLE_FILL_AREA ( #229 ) ;
#18 = CARTESIAN_POINT ( 'NONE',  ( 0.000000000000000000, 3.250000000000000000, 0.000000000000000000 ) ) ;
#19 = DIRECTION ( 'NONE',  ( -4.453261087808560759E-17, 1.000000000000000000, -0.000000000000000000 ) ) ;
#20 = AXIS2_PLACEMENT_3D ( 'NONE', #111, #23, #230 ) ;
#21 = FILL_AREA_STYLE ('',( #287 ) ) ;
#22 = EDGE_CURVE ( 'NONE', #33, #30, #178, .T. ) ;
#23 = DIRECTION ( 'NONE',  ( 4.453261087808560759E-17, -1.000000000000000000, 0.000000000000000000 ) ) ;
#24 = DIRECTION ( 'NONE',  ( -1.000000000000000000, 0.000000000000000000, 0.000000000000000000 ) ) ;
#25 = STYLED_ITEM ( 'NONE', ( #291 ), #14 ) ;
#26 = VECTOR ( 'NONE', #143, 39.37007874015748143 ) ;
#27 = FACE_OUTER_BOUND ( 'NONE', #121, .T. ) ;
#28 = ORIENTED_EDGE ( 'NONE', *, *, #81, .F. ) ;
#29 = LINE ( 'NONE', #237, #292 ) ;
#30 = VERTEX_POINT ( 'NONE', #171 ) ;
#31 = FILL_AREA_STYLE ('',( #216 ) ) ;
#32 = AXIS2_PLACEMENT_3D ( 'NONE', #257, #283, #66 ) ;
#33 = VERTEX_POINT ( 'NONE', #301 ) ;
#34 = ORIENTED_EDGE ( 'NONE', *, *, #169, .F. ) ;
#35 =( LENGTH_UNIT ( ) NAMED_UNIT ( * ) SI_UNIT ( $, .METRE. ) );
#36 = ADVANCED_FACE ( 'NONE', ( #125 ), #179, .T. ) ;
#37 = DIRECTION ( 'NONE',  ( -1.000000000000000000, 0.000000000000000000, 0.000000000000000000 ) ) ;
#38 = DIRECTION ( 'NONE',  ( -4.453261087808560759E-17, 1.000000000000000000, -0.000000000000000000 ) ) ;
#39 = EDGE_CURVE ( 'NONE', #120, #118, #272, .T. ) ;
#40 = CARTESIAN_POINT ( 'NONE',  ( 0.000000000000000000, 3.250000000000000000, -0.5000000000000000000 ) ) ;
#41 = CARTESIAN_POINT ( 'NONE',  ( 0.000000000000000000, 0.000000000000000000, 0.000000000000000000 ) ) ;
#42 = CARTESIAN_POINT ( 'NONE',  ( 0.000000000000000000, 0.000000000000000000, 0.000000000000000000 ) ) ;
#43 = UNCERTAINTY_MEASURE_WITH_UNIT (LENGTH_MEASURE( 1.000000000000000082E-05 ), #56, 'distance_accuracy_value', 'NONE');
#44 = CARTESIAN_POINT ( 'NONE',  ( -0.5000000000000002220, 6.000000000000000888, 0.000000000000000000 ) ) ;
#45 = ADVANCED_FACE ( 'NONE', ( #59 ), #127, .T. ) ;
#46 = DIMENSIONAL_EXPONENTS ( 1.000000000000000000, 0.000000000000000000, 0.000000000000000000, 0.000000000000000000, 0.000000000000000000, 0.000000000000000000, 0.000000000000000000 ) ;
#47 = DIRECTION ( 'NONE',  ( -4.453261087808560759E-17, 1.000000000000000000, -0.000000000000000000 ) ) ;
#48 = STYLED_ITEM ( 'NONE', ( #58 ), #36 ) ;
#49 = MECHANICAL_DESIGN_GEOMETRIC_PRESENTATION_REPRESENTATION (  '', ( #80 ), #84 ) ;
#50 = DIMENSIONAL_EXPONENTS ( 1.000000000000000000, 0.000000000000000000, 0.000000000000000000, 0.000000000000000000, 0.000000000000000000, 0.000000000000000000, 0.000000000000000000 ) ;
#51 = PRESENTATION_STYLE_ASSIGNMENT (( #93 ) ) ;
#52 = CYLINDRICAL_SURFACE ( 'NONE', #210, 0.5000000000000001110 ) ;
#53 = VERTEX_POINT ( 'NONE', #40 ) ;
#54 = FACE_OUTER_BOUND ( 'NONE', #76, .T. ) ;
#55 = ORIENTED_EDGE ( 'NONE', *, *, #22, .T. ) ;
#56 =( CONVERSION_BASED_UNIT ( 'INCH', #250 ) LENGTH_UNIT ( ) NAMED_UNIT ( #224 ) );
#57 = COLOUR_RGB ( '',1.000000000000000000, 0.000000000000000000, 0.000000000000000000 ) ;
#58 = PRESENTATION_STYLE_ASSIGNMENT (( #122 ) ) ;
#59 = FACE_OUTER_BOUND ( 'NONE', #271, .T. ) ;
#60 = DIRECTION ( 'NONE',  ( 0.000000000000000000, 0.000000000000000000, -1.000000000000000000 ) ) ;
#61 = ADVANCED_FACE ( 'NONE', ( #112 ), #164, .F. ) ;
#62 = MECHANICAL_DESIGN_GEOMETRIC_PRESENTATION_REPRESENTATION (  '', ( #25 ), #109 ) ;
#63 = SURFACE_STYLE_USAGE ( .BOTH. , #280 ) ;
#64 = STYLED_ITEM ( 'NONE', ( #91 ), #235 ) ;
#65 = CARTESIAN_POINT ( 'NONE',  ( -0.5000000000000000000, 3.250000000000000000, 0.000000000000000000 ) ) ;
#66 = DIRECTION ( 'NONE',  ( 0.000000000000000000, -0.000000000000000000, 1.000000000000000000 ) ) ;
#67 = DIRECTION ( 'NONE',  ( -0.000000000000000000, -1.000000000000000000, -0.000000000000000000 ) ) ;
#68 = ADVANCED_FACE ( 'NONE', ( #138 ), #131, .F. ) ;
#69 =( NAMED_UNIT ( * ) PLANE_ANGLE_UNIT ( ) SI_UNIT ( $, .RADIAN. ) );
#70 = DIMENSIONAL_EXPONENTS ( 1.000000000000000000, 0.000000000000000000, 0.000000000000000000, 0.000000000000000000, 0.000000000000000000, 0.000000000000000000, 0.000000000000000000 ) ;
#71 = PRESENTATION_LAYER_ASSIGNMENT (  '', '', ( #25 ) ) ;
#72 = MECHANICAL_DESIGN_GEOMETRIC_PRESENTATION_REPRESENTATION (  '', ( #64 ), #147 ) ;
#73 = DIMENSIONAL_EXPONENTS ( 1.000000000000000000, 0.000000000000000000, 0.000000000000000000, 0.000000000000000000, 0.000000000000000000, 0.000000000000000000, 0.000000000000000000 ) ;
#74 = SURFACE_STYLE_USAGE ( .BOTH. , #167 ) ;
#75 = DIRECTION ( 'NONE',  ( -0.000000000000000000, -1.000000000000000000, -0.000000000000000000 ) ) ;
#76 = EDGE_LOOP ( 'NONE', ( #116, #195 ) ) ;
#77 = CLOSED_SHELL ( 'NONE', ( #36, #177, #45, #235 ) ) ;
#78 = AXIS2_PLACEMENT_3D ( 'NONE', #205, #211, #260 ) ;
#79 = ORIENTED_EDGE ( 'NONE', *, *, #251, .F. ) ;
#80 = STYLED_ITEM ( 'NONE', ( #248 ), #45 ) ;
#81 = EDGE_CURVE ( 'NONE', #118, #120, #223, .T. ) ;
#82 = LENGTH_MEASURE_WITH_UNIT ( LENGTH_MEASURE( 0.02539999999999999897 ), #303 );
#83 = SHAPE_DEFINITION_REPRESENTATION ( #85, #289 ) ;
#84 =( GEOMETRIC_REPRESENTATION_CONTEXT ( 3 ) GLOBAL_UNCERTAINTY_ASSIGNED_CONTEXT ( ( #43 ) ) GLOBAL_UNIT_ASSIGNED_CONTEXT ( ( #56, #173, #15 ) ) REPRESENTATION_CONTEXT ( 'NONE', 'WORKASPACE' ) );
#85 = PRODUCT_DEFINITION_SHAPE ( 'NONE', 'NONE',  #192 ) ;
#86 = DIRECTION ( 'NONE',  ( -0.000000000000000000, -1.000000000000000000, -0.000000000000000000 ) ) ;
#87 =( NAMED_UNIT ( * ) SI_UNIT ( $, .STERADIAN. ) SOLID_ANGLE_UNIT ( ) );
#88 = AXIS2_PLACEMENT_3D ( 'NONE', #309, #236, #24 ) ;
#89 = SURFACE_STYLE_USAGE ( .BOTH. , #284 ) ;
#90 = DIMENSIONAL_EXPONENTS ( 1.000000000000000000, 0.000000000000000000, 0.000000000000000000, 0.000000000000000000, 0.000000000000000000, 0.000000000000000000, 0.000000000000000000 ) ;
#91 = PRESENTATION_STYLE_ASSIGNMENT (( #246 ) ) ;
#92 = ORIENTED_EDGE ( 'NONE', *, *, #161, .F. ) ;
#93 = SURFACE_STYLE_USAGE ( .BOTH. , #194 ) ;
#94 = ORIENTED_EDGE ( 'NONE', *, *, #126, .F. ) ;
#95 = CIRCLE ( 'NONE', #12, 0.5000000000000000000 ) ;
#96 = SURFACE_STYLE_FILL_AREA ( #31 ) ;
#97 = LENGTH_MEASURE_WITH_UNIT ( LENGTH_MEASURE( 0.02539999999999999897 ), #3 );
#98 =( CONVERSION_BASED_UNIT ( 'INCH', #165 ) LENGTH_UNIT ( ) NAMED_UNIT ( #90 ) );
#99 = CARTESIAN_POINT ( 'NONE',  ( 0.000000000000000000, 0.000000000000000000, 0.000000000000000000 ) ) ;
#100 = VERTEX_POINT ( 'NONE', #207 ) ;
#101 = STYLED_ITEM ( 'NONE', ( #187 ), #177 ) ;
#102 =( LENGTH_UNIT ( ) NAMED_UNIT ( * ) SI_UNIT ( $, .METRE. ) );
#103 =( CONVERSION_BASED_UNIT ( 'INCH', #153 ) LENGTH_UNIT ( ) NAMED_UNIT ( #198 ) );
#104 =( NAMED_UNIT ( * ) SI_UNIT ( $, .STERADIAN. ) SOLID_ANGLE_UNIT ( ) );
#105 = UNCERTAINTY_MEASURE_WITH_UNIT (LENGTH_MEASURE( 1.000000000000000082E-05 ), #103, 'distance_accuracy_value', 'NONE');
#106 = APPLICATION_CONTEXT ( 'automotive_design' ) ;
#107 =( CONVERSION_BASED_UNIT ( 'INCH', #82 ) LENGTH_UNIT ( ) NAMED_UNIT ( #46 ) );
#108 = PRODUCT_CONTEXT ( 'NONE', #106, 'mechanical' ) ;
#109 =( GEOMETRIC_REPRESENTATION_CONTEXT ( 3 ) GLOBAL_UNCERTAINTY_ASSIGNED_CONTEXT ( ( #275 ) ) GLOBAL_UNIT_ASSIGNED_CONTEXT ( ( #145, #296, #104 ) ) REPRESENTATION_CONTEXT ( 'NONE', 'WORKASPACE' ) );
#110 = AXIS2_PLACEMENT_3D ( 'NONE', #99, #261, #190 ) ;
#111 = CARTESIAN_POINT ( 'NONE',  ( 0.5000000000000000000, 6.000000000000000888, 0.000000000000000000 ) ) ;
#112 = FACE_OUTER_BOUND ( 'NONE', #119, .T. ) ;
#113 = DIRECTION ( 'NONE',  ( -0.000000000000000000, -1.000000000000000000, -0.000000000000000000 ) ) ;
#114 = CARTESIAN_POINT ( 'NONE',  ( 4.957883579047472087E-34, 3.250000000000000000, 0.000000000000000000 ) ) ;
#115 = DIRECTION ( 'NONE',  ( -4.453261087808560759E-17, 1.000000000000000000, -0.000000000000000000 ) ) ;
#116 = ORIENTED_EDGE ( 'NONE', *, *, #208, .T. ) ;
#117 = LINE ( 'NONE', #293, #302 ) ;
#118 = VERTEX_POINT ( 'NONE', #281 ) ;
#119 = EDGE_LOOP ( 'NONE', ( #294, #28 ) ) ;
#120 = VERTEX_POINT ( 'NONE', #65 ) ;
#121 = EDGE_LOOP ( 'NONE', ( #79, #11, #193, #94 ) ) ;
#122 = SURFACE_STYLE_USAGE ( .BOTH. , #249 ) ;
#123 = MECHANICAL_DESIGN_GEOMETRIC_PRESENTATION_REPRESENTATION (  '', ( #204 ), #129 ) ;
#124 = DIRECTION ( 'NONE',  ( -4.453261087808560759E-17, 1.000000000000000000, -0.000000000000000000 ) ) ;
#125 = FACE_OUTER_BOUND ( 'NONE', #245, .T. ) ;
#126 = EDGE_CURVE ( 'NONE', #149, #214, #142, .T. ) ;
#127 = CYLINDRICAL_SURFACE ( 'NONE', #152, 0.5000000000000000000 ) ;
#128 = CARTESIAN_POINT ( 'NONE',  ( -1.224646799147354440E-16, 6.000000000000000888, 0.000000000000000000 ) ) ;
#129 =( GEOMETRIC_REPRESENTATION_CONTEXT ( 3 ) GLOBAL_UNCERTAINTY_ASSIGNED_CONTEXT ( ( #137 ) ) GLOBAL_UNIT_ASSIGNED_CONTEXT ( ( #295, #69, #241 ) ) REPRESENTATION_CONTEXT ( 'NONE', 'WORKASPACE' ) );
#130 = CARTESIAN_POINT ( 'NONE',  ( 0.000000000000000000, 0.000000000000000000, 0.000000000000000000 ) ) ;
#131 = PLANE ( 'NONE',  #20 ) ;
#132 =( NAMED_UNIT ( * ) PLANE_ANGLE_UNIT ( ) SI_UNIT ( $, .RADIAN. ) );
#133 = DIRECTION ( 'NONE',  ( 0.000000000000000000, 0.000000000000000000, -1.000000000000000000 ) ) ;
#134 = AXIS2_PLACEMENT_3D ( 'NONE', #130, #197, #60 ) ;
#135 = PRESENTATION_LAYER_ASSIGNMENT (  '', '', ( #101 ) ) ;
#136 = DIRECTION ( 'NONE',  ( 0.000000000000000000, 0.000000000000000000, -1.000000000000000000 ) ) ;
#137 = UNCERTAINTY_MEASURE_WITH_UNIT (LENGTH_MEASURE( 1.000000000000000082E-05 ), #295, 'distance_accuracy_value', 'NONE');
#138 = FACE_OUTER_BOUND ( 'NONE', #299, .T. ) ;
#139 = CARTESIAN_POINT ( 'NONE',  ( 0.000000000000000000, 3.250000000000000000, 0.000000000000000000 ) ) ;
#140 = DIRECTION ( 'NONE',  ( -1.000000000000000000, 0.000000000000000000, 0.000000000000000000 ) ) ;
#141 = AXIS2_PLACEMENT_3D ( 'NONE', #233, #183, #259 ) ;
#142 = CIRCLE ( 'NONE', #78, 0.5000000000000001110 ) ;
#143 = DIRECTION ( 'NONE',  ( -4.453261087808560759E-17, 1.000000000000000000, -0.000000000000000000 ) ) ;
#144 = LENGTH_MEASURE_WITH_UNIT ( LENGTH_MEASURE( 0.02539999999999999897 ), #239 );
#145 =( CONVERSION_BASED_UNIT ( 'INCH', #97 ) LENGTH_UNIT ( ) NAMED_UNIT ( #50 ) );
#146 = EDGE_LOOP ( 'NONE', ( #92, #265 ) ) ;
#147 =( GEOMETRIC_REPRESENTATION_CONTEXT ( 3 ) GLOBAL_UNCERTAINTY_ASSIGNED_CONTEXT ( ( #226 ) ) GLOBAL_UNIT_ASSIGNED_CONTEXT ( ( #98, #166, #188 ) ) REPRESENTATION_CONTEXT ( 'NONE', 'WORKASPACE' ) );
#148 = FILL_AREA_STYLE_COLOUR ( '', #217 ) ;
#149 = VERTEX_POINT ( 'NONE', #288 ) ;
#150 = FILL_AREA_STYLE ('',( #189 ) ) ;
#151 = VECTOR ( 'NONE', #200, 39.37007874015748143 ) ;
#152 = AXIS2_PLACEMENT_3D ( 'NONE', #300, #67, #133 ) ;
#153 = LENGTH_MEASURE_WITH_UNIT ( LENGTH_MEASURE( 0.02539999999999999897 ), #102 );
#154 = UNCERTAINTY_MEASURE_WITH_UNIT (LENGTH_MEASURE( 1.000000000000000082E-05 ), #253, 'distance_accuracy_value', 'NONE');
#155 = FACE_OUTER_BOUND ( 'NONE', #240, .T. ) ;
#156 = COLOUR_RGB ( '',0.7921568627450980005, 0.8196078431372548767, 0.9333333333333333481 ) ;
#157 = CIRCLE ( 'NONE', #88, 0.5000000000000001110 ) ;
#158 = LENGTH_MEASURE_WITH_UNIT ( LENGTH_MEASURE( 0.02539999999999999897 ), #231 );
#159 = APPLICATION_PROTOCOL_DEFINITION ( 'draft international standard', 'automotive_design', 1998, #106 ) ;
#160 = DIRECTION ( 'NONE',  ( -4.453261087808560759E-17, 1.000000000000000000, 0.000000000000000000 ) ) ;
#161 = EDGE_CURVE ( 'NONE', #53, #33, #95, .T. ) ;
#162 = CIRCLE ( 'NONE', #262, 0.5000000000000000000 ) ;
#163 = FACE_OUTER_BOUND ( 'NONE', #146, .T. ) ;
#164 = PLANE ( 'NONE',  #258 ) ;
#165 = LENGTH_MEASURE_WITH_UNIT ( LENGTH_MEASURE( 0.02539999999999999897 ), #7 );
#166 =( NAMED_UNIT ( * ) PLANE_ANGLE_UNIT ( ) SI_UNIT ( $, .RADIAN. ) );
#167 = SURFACE_SIDE_STYLE ('',( #213 ) ) ;
#168 = ORIENTED_EDGE ( 'NONE', *, *, #39, .T. ) ;
#169 = EDGE_CURVE ( 'NONE', #214, #149, #157, .T. ) ;
#170 = ORIENTED_EDGE ( 'NONE', *, *, #22, .F. ) ;
#171 = CARTESIAN_POINT ( 'NONE',  ( 6.123233995736766036E-17, 0.000000000000000000, 0.5000000000000000000 ) ) ;
#172 = CARTESIAN_POINT ( 'NONE',  ( 0.000000000000000000, 3.250000000000000000, 0.000000000000000000 ) ) ;
#173 =( NAMED_UNIT ( * ) PLANE_ANGLE_UNIT ( ) SI_UNIT ( $, .RADIAN. ) );
#174 = COLOUR_RGB ( '',1.000000000000000000, 0.000000000000000000, 0.000000000000000000 ) ;
#175 =( GEOMETRIC_REPRESENTATION_CONTEXT ( 3 ) GLOBAL_UNCERTAINTY_ASSIGNED_CONTEXT ( ( #154 ) ) GLOBAL_UNIT_ASSIGNED_CONTEXT ( ( #253, #203, #181 ) ) REPRESENTATION_CONTEXT ( 'NONE', 'WORKASPACE' ) );
#176 = SURFACE_STYLE_FILL_AREA ( #202 ) ;
#177 = ADVANCED_FACE ( 'NONE', ( #163 ), #255, .T. ) ;
#178 = LINE ( 'NONE', #273, #151 ) ;
#179 = CYLINDRICAL_SURFACE ( 'NONE', #134, 0.5000000000000000000 ) ;
#180 = CIRCLE ( 'NONE', #306, 0.5000000000000000000 ) ;
#181 =( NAMED_UNIT ( * ) SI_UNIT ( $, .STERADIAN. ) SOLID_ANGLE_UNIT ( ) );
#182 = DIRECTION ( 'NONE',  ( -1.000000000000000000, -4.453261087808560759E-17, 0.000000000000000000 ) ) ;
#183 = DIRECTION ( 'NONE',  ( -0.000000000000000000, -1.000000000000000000, -0.000000000000000000 ) ) ;
#184 = PRESENTATION_LAYER_ASSIGNMENT (  '', '', ( #80 ) ) ;
#185 = AXIS2_PLACEMENT_3D ( 'NONE', #128, #124, #228 ) ;
#186 = DIRECTION ( 'NONE',  ( -1.000000000000000000, 0.000000000000000000, 0.000000000000000000 ) ) ;
#187 = PRESENTATION_STYLE_ASSIGNMENT (( #89 ) ) ;
#188 =( NAMED_UNIT ( * ) SI_UNIT ( $, .STERADIAN. ) SOLID_ANGLE_UNIT ( ) );
#189 = FILL_AREA_STYLE_COLOUR ( '', #156 ) ;
#190 = DIRECTION ( 'NONE',  ( 0.000000000000000000, 0.000000000000000000, -1.000000000000000000 ) ) ;
#191 = ORIENTED_EDGE ( 'NONE', *, *, #161, .T. ) ;
#192 = PRODUCT_DEFINITION ( 'UNKNOWN', '', #298, #282 ) ;
#193 = ORIENTED_EDGE ( 'NONE', *, *, #276, .T. ) ;
#194 = SURFACE_SIDE_STYLE ('',( #96 ) ) ;
#195 = ORIENTED_EDGE ( 'NONE', *, *, #206, .T. ) ;
#196 = COLOUR_RGB ( '',0.7921568627450980005, 0.8196078431372548767, 0.9333333333333333481 ) ;
#197 = DIRECTION ( 'NONE',  ( -0.000000000000000000, -1.000000000000000000, -0.000000000000000000 ) ) ;
#198 = DIMENSIONAL_EXPONENTS ( 1.000000000000000000, 0.000000000000000000, 0.000000000000000000, 0.000000000000000000, 0.000000000000000000, 0.000000000000000000, 0.000000000000000000 ) ;
#199 = PRESENTATION_LAYER_ASSIGNMENT (  '', '', ( #64 ) ) ;
#200 = DIRECTION ( 'NONE',  ( -0.000000000000000000, -1.000000000000000000, -0.000000000000000000 ) ) ;
#201 = DIRECTION ( 'NONE',  ( 0.000000000000000000, 0.000000000000000000, 1.000000000000000000 ) ) ;
#202 = FILL_AREA_STYLE ('',( #225 ) ) ;
#203 =( NAMED_UNIT ( * ) PLANE_ANGLE_UNIT ( ) SI_UNIT ( $, .RADIAN. ) );
#204 = STYLED_ITEM ( 'NONE', ( #51 ), #215 ) ;
#205 = CARTESIAN_POINT ( 'NONE',  ( -1.224646799147354440E-16, 6.000000000000000888, 0.000000000000000000 ) ) ;
#206 = EDGE_CURVE ( 'NONE', #30, #100, #162, .T. ) ;
#207 = CARTESIAN_POINT ( 'NONE',  ( 0.000000000000000000, 0.000000000000000000, -0.5000000000000000000 ) ) ;
#208 = EDGE_CURVE ( 'NONE', #100, #30, #268, .T. ) ;
#209 = CLOSED_SHELL ( 'NONE', ( #308, #61, #242, #68 ) ) ;
#210 = AXIS2_PLACEMENT_3D ( 'NONE', #290, #47, #140 ) ;
#211 = DIRECTION ( 'NONE',  ( -4.453261087808560759E-17, 1.000000000000000000, -0.000000000000000000 ) ) ;
#212 = CARTESIAN_POINT ( 'NONE',  ( -0.5000000000000002220, 6.000000000000000888, 0.000000000000000000 ) ) ;
#213 = SURFACE_STYLE_FILL_AREA ( #150 ) ;
#214 = VERTEX_POINT ( 'NONE', #44 ) ;
#215 = MANIFOLD_SOLID_BREP ( 'Revolve - Cutting Edge', #77 ) ;
#216 = FILL_AREA_STYLE_COLOUR ( '', #196 ) ;
#217 = COLOUR_RGB ( '',1.000000000000000000, 0.000000000000000000, 0.000000000000000000 ) ;
#218 = EDGE_CURVE ( 'NONE', #33, #53, #180, .T. ) ;
#219 = SURFACE_STYLE_FILL_AREA ( #243 ) ;
#220 = ORIENTED_EDGE ( 'NONE', *, *, #208, .F. ) ;
#221 = ORIENTED_EDGE ( 'NONE', *, *, #251, .T. ) ;
#222 = MECHANICAL_DESIGN_GEOMETRIC_PRESENTATION_REPRESENTATION (  '', ( #48 ), #232 ) ;
#223 = CIRCLE ( 'NONE', #16, 0.5000000000000000000 ) ;
#224 = DIMENSIONAL_EXPONENTS ( 1.000000000000000000, 0.000000000000000000, 0.000000000000000000, 0.000000000000000000, 0.000000000000000000, 0.000000000000000000, 0.000000000000000000 ) ;
#225 = FILL_AREA_STYLE_COLOUR ( '', #57 ) ;
#226 = UNCERTAINTY_MEASURE_WITH_UNIT (LENGTH_MEASURE( 1.000000000000000082E-05 ), #98, 'distance_accuracy_value', 'NONE');
#227 = AXIS2_PLACEMENT_3D ( 'NONE', #41, #201, #305 ) ;
#228 = DIRECTION ( 'NONE',  ( -1.000000000000000000, 0.000000000000000000, 0.000000000000000000 ) ) ;
#229 = FILL_AREA_STYLE ('',( #252 ) ) ;
#230 = DIRECTION ( 'NONE',  ( 1.000000000000000000, 4.453261087808560759E-17, 0.000000000000000000 ) ) ;
#231 =( LENGTH_UNIT ( ) NAMED_UNIT ( * ) SI_UNIT ( $, .METRE. ) );
#232 =( GEOMETRIC_REPRESENTATION_CONTEXT ( 3 ) GLOBAL_UNCERTAINTY_ASSIGNED_CONTEXT ( ( #279 ) ) GLOBAL_UNIT_ASSIGNED_CONTEXT ( ( #107, #13, #278 ) ) REPRESENTATION_CONTEXT ( 'NONE', 'WORKASPACE' ) );
#233 = CARTESIAN_POINT ( 'NONE',  ( 0.000000000000000000, 0.000000000000000000, 0.000000000000000000 ) ) ;
#234 = CARTESIAN_POINT ( 'NONE',  ( 0.000000000000000000, 3.250000000000000000, 0.000000000000000000 ) ) ;
#235 = ADVANCED_FACE ( 'NONE', ( #54 ), #10, .T. ) ;
#236 = DIRECTION ( 'NONE',  ( -4.453261087808560759E-17, 1.000000000000000000, -0.000000000000000000 ) ) ;
#237 = CARTESIAN_POINT ( 'NONE',  ( 0.4999999999999999445, 6.000000000000000888, 6.123233995736767268E-17 ) ) ;
#238 = PRODUCT ( '03782', '03782', '', ( #108 ) ) ;
#239 =( LENGTH_UNIT ( ) NAMED_UNIT ( * ) SI_UNIT ( $, .METRE. ) );
#240 = EDGE_LOOP ( 'NONE', ( #168, #221, #34, #269 ) ) ;
#241 =( NAMED_UNIT ( * ) SI_UNIT ( $, .STERADIAN. ) SOLID_ANGLE_UNIT ( ) );
#242 = ADVANCED_FACE ( 'NONE', ( #27 ), #52, .T. ) ;
#243 = FILL_AREA_STYLE ('',( #148 ) ) ;
#244 = PRESENTATION_LAYER_ASSIGNMENT (  '', '', ( #204 ) ) ;
#245 = EDGE_LOOP ( 'NONE', ( #191, #55, #220, #264 ) ) ;
#246 = SURFACE_STYLE_USAGE ( .BOTH. , #2 ) ;
#247 = ORIENTED_EDGE ( 'NONE', *, *, #206, .F. ) ;
#248 = PRESENTATION_STYLE_ASSIGNMENT (( #63 ) ) ;
#249 = SURFACE_SIDE_STYLE ('',( #176 ) ) ;
#250 = LENGTH_MEASURE_WITH_UNIT ( LENGTH_MEASURE( 0.02539999999999999897 ), #35 );
#251 = EDGE_CURVE ( 'NONE', #118, #149, #29, .T. ) ;
#252 = FILL_AREA_STYLE_COLOUR ( '', #174 ) ;
#253 =( CONVERSION_BASED_UNIT ( 'INCH', #158 ) LENGTH_UNIT ( ) NAMED_UNIT ( #70 ) );
#254 = PRODUCT_RELATED_PRODUCT_CATEGORY ( 'part', '', ( #238 ) ) ;
#255 = PLANE ( 'NONE',  #32 ) ;
#256 = APPLICATION_PROTOCOL_DEFINITION ( 'draft international standard', 'automotive_design', 1998, #9 ) ;
#257 = CARTESIAN_POINT ( 'NONE',  ( 0.000000000000000000, 3.250000000000000000, 0.000000000000000000 ) ) ;
#258 = AXIS2_PLACEMENT_3D ( 'NONE', #114, #160, #182 ) ;
#259 = DIRECTION ( 'NONE',  ( 0.000000000000000000, 0.000000000000000000, -1.000000000000000000 ) ) ;
#260 = DIRECTION ( 'NONE',  ( -1.000000000000000000, 0.000000000000000000, 0.000000000000000000 ) ) ;
#261 = DIRECTION ( 'NONE',  ( 0.000000000000000000, -1.000000000000000000, -0.000000000000000000 ) ) ;
#262 = AXIS2_PLACEMENT_3D ( 'NONE', #42, #86, #136 ) ;
#263 = LINE ( 'NONE', #212, #26 ) ;
#264 = ORIENTED_EDGE ( 'NONE', *, *, #304, .F. ) ;
#265 = ORIENTED_EDGE ( 'NONE', *, *, #218, .F. ) ;
#266 = DIRECTION ( 'NONE',  ( 0.000000000000000000, 0.000000000000000000, -1.000000000000000000 ) ) ;
#267 = ORIENTED_EDGE ( 'NONE', *, *, #218, .T. ) ;
#268 = CIRCLE ( 'NONE', #141, 0.5000000000000000000 ) ;
#269 = ORIENTED_EDGE ( 'NONE', *, *, #276, .F. ) ;
#270 = CYLINDRICAL_SURFACE ( 'NONE', #185, 0.5000000000000001110 ) ;
#271 = EDGE_LOOP ( 'NONE', ( #170, #267, #297, #247 ) ) ;
#272 = CIRCLE ( 'NONE', #4, 0.5000000000000000000 ) ;
#273 = CARTESIAN_POINT ( 'NONE',  ( 6.123233995736766036E-17, 0.000000000000000000, 0.5000000000000000000 ) ) ;
#274 = COLOUR_RGB ( '',1.000000000000000000, 0.000000000000000000, 0.000000000000000000 ) ;
#275 = UNCERTAINTY_MEASURE_WITH_UNIT (LENGTH_MEASURE( 1.000000000000000082E-05 ), #145, 'distance_accuracy_value', 'NONE');
#276 = EDGE_CURVE ( 'NONE', #120, #214, #263, .T. ) ;
#277 = DIRECTION ( 'NONE',  ( -0.000000000000000000, -1.000000000000000000, -0.000000000000000000 ) ) ;
#278 =( NAMED_UNIT ( * ) SI_UNIT ( $, .STERADIAN. ) SOLID_ANGLE_UNIT ( ) );
#279 = UNCERTAINTY_MEASURE_WITH_UNIT (LENGTH_MEASURE( 1.000000000000000082E-05 ), #107, 'distance_accuracy_value', 'NONE');
#280 = SURFACE_SIDE_STYLE ('',( #17 ) ) ;
#281 = CARTESIAN_POINT ( 'NONE',  ( 0.5000000000000000000, 3.250000000000000000, 6.123233995736767268E-17 ) ) ;
#282 = PRODUCT_DEFINITION_CONTEXT ( 'detailed design', #9, 'design' ) ;
#283 = DIRECTION ( 'NONE',  ( 0.000000000000000000, 1.000000000000000000, 0.000000000000000000 ) ) ;
#284 = SURFACE_SIDE_STYLE ('',( #1 ) ) ;
#285 = PRESENTATION_LAYER_ASSIGNMENT (  '', '', ( #48 ) ) ;
#286 =( GEOMETRIC_REPRESENTATION_CONTEXT ( 3 ) GLOBAL_UNCERTAINTY_ASSIGNED_CONTEXT ( ( #105 ) ) GLOBAL_UNIT_ASSIGNED_CONTEXT ( ( #103, #132, #87 ) ) REPRESENTATION_CONTEXT ( 'NONE', 'WORKASPACE' ) );
#287 = FILL_AREA_STYLE_COLOUR ( '', #274 ) ;
#288 = CARTESIAN_POINT ( 'NONE',  ( 0.5000000000000000000, 6.000000000000000888, 6.123233995736767268E-17 ) ) ;
#289 = ADVANCED_BREP_SHAPE_REPRESENTATION ( '03782', ( #215, #14, #227 ), #286 ) ;
#290 = CARTESIAN_POINT ( 'NONE',  ( -1.224646799147354440E-16, 6.000000000000000888, 0.000000000000000000 ) ) ;
#291 = PRESENTATION_STYLE_ASSIGNMENT (( #74 ) ) ;
#292 = VECTOR ( 'NONE', #115, 39.37007874015748143 ) ;
#293 = CARTESIAN_POINT ( 'NONE',  ( 0.000000000000000000, 0.000000000000000000, -0.5000000000000000000 ) ) ;
#294 = ORIENTED_EDGE ( 'NONE', *, *, #39, .F. ) ;
#295 =( CONVERSION_BASED_UNIT ( 'INCH', #144 ) LENGTH_UNIT ( ) NAMED_UNIT ( #73 ) );
#296 =( NAMED_UNIT ( * ) PLANE_ANGLE_UNIT ( ) SI_UNIT ( $, .RADIAN. ) );
#297 = ORIENTED_EDGE ( 'NONE', *, *, #304, .T. ) ;
#298 = PRODUCT_DEFINITION_FORMATION_WITH_SPECIFIED_SOURCE ( 'ANY', '', #238, .NOT_KNOWN. ) ;
#299 = EDGE_LOOP ( 'NONE', ( #8, #6 ) ) ;
#300 = CARTESIAN_POINT ( 'NONE',  ( 0.000000000000000000, 0.000000000000000000, 0.000000000000000000 ) ) ;
#301 = CARTESIAN_POINT ( 'NONE',  ( 6.123233995736766036E-17, 3.250000000000000000, 0.5000000000000000000 ) ) ;
#302 = VECTOR ( 'NONE', #277, 39.37007874015748143 ) ;
#303 =( LENGTH_UNIT ( ) NAMED_UNIT ( * ) SI_UNIT ( $, .METRE. ) );
#304 = EDGE_CURVE ( 'NONE', #53, #100, #117, .T. ) ;
#305 = DIRECTION ( 'NONE',  ( 1.000000000000000000, 0.000000000000000000, 0.000000000000000000 ) ) ;
#306 = AXIS2_PLACEMENT_3D ( 'NONE', #234, #75, #266 ) ;
#307 = DIRECTION ( 'NONE',  ( 0.000000000000000000, 0.000000000000000000, -1.000000000000000000 ) ) ;
#308 = ADVANCED_FACE ( 'NONE', ( #155 ), #270, .T. ) ;
#309 = CARTESIAN_POINT ( 'NONE',  ( -1.224646799147354440E-16, 6.000000000000000888, 0.000000000000000000 ) ) ;
ENDSEC;
END-ISO-10303-21;
