ISO-10303-21;
HEADER;
FILE_DESCRIPTION (( 'STEP AP214' ),
    '1' );
FILE_NAME ('83375.STEP',
    '2023-06-23T09:39:57',
    ( '' ),
    ( '' ),
    'SwSTEP 2.0',
    'SolidWorks 2023',
    '' );
FILE_SCHEMA (( 'AUTOMOTIVE_DESIGN' ));
ENDSEC;

DATA;
#1 =( NAMED_UNIT ( * ) PLANE_ANGLE_UNIT ( ) SI_UNIT ( $, .RADIAN. ) );
#2 = ORIENTED_EDGE ( 'NONE', *, *, #71, .F. ) ;
#3 = PRESENTATION_LAYER_ASSIGNMENT (  '', '', ( #54 ) ) ;
#4 = PRODUCT_DEFINITION_CONTEXT ( 'detailed design', #11, 'design' ) ;
#5 = ORIENTED_EDGE ( 'NONE', *, *, #289, .F. ) ;
#6 = CYLINDRICAL_SURFACE ( 'NONE', #22, 0.1249999999999998751 ) ;
#7 =( LENGTH_UNIT ( ) NAMED_UNIT ( * ) SI_UNIT ( $, .METRE. ) );
#8 = CIRCLE ( 'NONE', #240, 0.1249999999999997641 ) ;
#9 =( NAMED_UNIT ( * ) PLANE_ANGLE_UNIT ( ) SI_UNIT ( $, .RADIAN. ) );
#10 = AXIS2_PLACEMENT_3D ( 'NONE', #77, #266, #205 ) ;
#11 = APPLICATION_CONTEXT ( 'automotive_design' ) ;
#12 = EDGE_CURVE ( 'NONE', #248, #264, #76, .T. ) ;
#13 = SURFACE_STYLE_FILL_AREA ( #64 ) ;
#14 = SURFACE_SIDE_STYLE ('',( #256 ) ) ;
#15 = CARTESIAN_POINT ( 'NONE',  ( -3.032960542342103792E-32, 1.000000000000000000, 0.000000000000000000 ) ) ;
#16 = SURFACE_STYLE_USAGE ( .BOTH. , #234 ) ;
#17 = VECTOR ( 'NONE', #249, 39.37007874015748143 ) ;
#18 = AXIS2_PLACEMENT_3D ( 'NONE', #278, #40, #162 ) ;
#19 = DIRECTION ( 'NONE',  ( -0.000000000000000000, -1.000000000000000000, -0.000000000000000000 ) ) ;
#20 = UNCERTAINTY_MEASURE_WITH_UNIT (LENGTH_MEASURE( 1.000000000000000082E-05 ), #44, 'distance_accuracy_value', 'NONE');
#21 = CARTESIAN_POINT ( 'NONE',  ( 0.000000000000000000, 1.000000000000000000, 0.000000000000000000 ) ) ;
#22 = AXIS2_PLACEMENT_3D ( 'NONE', #201, #294, #56 ) ;
#23 = DIRECTION ( 'NONE',  ( 0.000000000000000000, 1.000000000000000000, 0.000000000000000000 ) ) ;
#24 =( GEOMETRIC_REPRESENTATION_CONTEXT ( 3 ) GLOBAL_UNCERTAINTY_ASSIGNED_CONTEXT ( ( #114 ) ) GLOBAL_UNIT_ASSIGNED_CONTEXT ( ( #62, #134, #229 ) ) REPRESENTATION_CONTEXT ( 'NONE', 'WORKASPACE' ) );
#25 = CARTESIAN_POINT ( 'NONE',  ( -0.1249999999999995143, 3.000000000000000444, 0.000000000000000000 ) ) ;
#26 = EDGE_LOOP ( 'NONE', ( #267, #220, #80, #59 ) ) ;
#27 =( CONVERSION_BASED_UNIT ( 'INCH', #60 ) LENGTH_UNIT ( ) NAMED_UNIT ( #300 ) );
#28 = CARTESIAN_POINT ( 'NONE',  ( 0.1250000000000001110, 3.000000000000000444, 1.530808498934189968E-17 ) ) ;
#29 = DIMENSIONAL_EXPONENTS ( 1.000000000000000000, 0.000000000000000000, 0.000000000000000000, 0.000000000000000000, 0.000000000000000000, 0.000000000000000000, 0.000000000000000000 ) ;
#30 = EDGE_LOOP ( 'NONE', ( #288, #123 ) ) ;
#31 = PRODUCT_DEFINITION_FORMATION_WITH_SPECIFIED_SOURCE ( 'ANY', '', #85, .NOT_KNOWN. ) ;
#32 = DIMENSIONAL_EXPONENTS ( 1.000000000000000000, 0.000000000000000000, 0.000000000000000000, 0.000000000000000000, 0.000000000000000000, 0.000000000000000000, 0.000000000000000000 ) ;
#33 = VERTEX_POINT ( 'NONE', #261 ) ;
#34 = PRODUCT_DEFINITION ( 'UNKNOWN', '', #31, #4 ) ;
#35 =( NAMED_UNIT ( * ) SI_UNIT ( $, .STERADIAN. ) SOLID_ANGLE_UNIT ( ) );
#36 =( CONVERSION_BASED_UNIT ( 'INCH', #155 ) LENGTH_UNIT ( ) NAMED_UNIT ( #89 ) );
#37 = APPLICATION_PROTOCOL_DEFINITION ( 'draft international standard', 'automotive_design', 1998, #11 ) ;
#38 = ADVANCED_FACE ( 'NONE', ( #173 ), #6, .T. ) ;
#39 = LINE ( 'NONE', #191, #128 ) ;
#40 = DIRECTION ( 'NONE',  ( -0.000000000000000000, -1.000000000000000000, -0.000000000000000000 ) ) ;
#41 = LENGTH_MEASURE_WITH_UNIT ( LENGTH_MEASURE( 0.02539999999999999897 ), #181 );
#42 = VECTOR ( 'NONE', #163, 39.37007874015748143 ) ;
#43 = SURFACE_STYLE_USAGE ( .BOTH. , #14 ) ;
#44 =( CONVERSION_BASED_UNIT ( 'INCH', #41 ) LENGTH_UNIT ( ) NAMED_UNIT ( #295 ) );
#45 = CARTESIAN_POINT ( 'NONE',  ( 0.000000000000000000, 1.000000000000000000, 0.000000000000000000 ) ) ;
#46 = FILL_AREA_STYLE ('',( #169 ) ) ;
#47 =( NAMED_UNIT ( * ) PLANE_ANGLE_UNIT ( ) SI_UNIT ( $, .RADIAN. ) );
#48 = DIRECTION ( 'NONE',  ( -1.000000000000000000, 0.000000000000000000, 0.000000000000000000 ) ) ;
#49 = UNCERTAINTY_MEASURE_WITH_UNIT (LENGTH_MEASURE( 1.000000000000000082E-05 ), #292, 'distance_accuracy_value', 'NONE');
#50 = CARTESIAN_POINT ( 'NONE',  ( 0.1250000000000000000, 3.000000000000000444, 0.000000000000000000 ) ) ;
#51 = DIRECTION ( 'NONE',  ( -0.000000000000000000, -1.000000000000000000, -0.000000000000000000 ) ) ;
#52 = CARTESIAN_POINT ( 'NONE',  ( 2.449293598294705921E-16, 3.000000000000000444, 0.000000000000000000 ) ) ;
#53 = UNCERTAINTY_MEASURE_WITH_UNIT (LENGTH_MEASURE( 1.000000000000000082E-05 ), #147, 'distance_accuracy_value', 'NONE');
#54 = STYLED_ITEM ( 'NONE', ( #209 ), #178 ) ;
#55 = STYLED_ITEM ( 'NONE', ( #255 ), #226 ) ;
#56 = DIRECTION ( 'NONE',  ( -1.000000000000000000, 0.000000000000000000, 0.000000000000000000 ) ) ;
#57 = SURFACE_SIDE_STYLE ('',( #106 ) ) ;
#58 = CARTESIAN_POINT ( 'NONE',  ( 2.449293598294705921E-16, 3.000000000000000444, 0.000000000000000000 ) ) ;
#59 = ORIENTED_EDGE ( 'NONE', *, *, #93, .F. ) ;
#60 = LENGTH_MEASURE_WITH_UNIT ( LENGTH_MEASURE( 0.02539999999999999897 ), #7 );
#61 = EDGE_LOOP ( 'NONE', ( #287, #5 ) ) ;
#62 =( CONVERSION_BASED_UNIT ( 'INCH', #268 ) LENGTH_UNIT ( ) NAMED_UNIT ( #197 ) );
#63 = CARTESIAN_POINT ( 'NONE',  ( -3.032960542342103792E-32, 1.000000000000000000, 0.000000000000000000 ) ) ;
#64 = FILL_AREA_STYLE ('',( #94 ) ) ;
#65 = PRESENTATION_LAYER_ASSIGNMENT (  '', '', ( #175 ) ) ;
#66 = DIRECTION ( 'NONE',  ( 0.000000000000000000, 0.000000000000000000, -1.000000000000000000 ) ) ;
#67 = EDGE_CURVE ( 'NONE', #217, #130, #86, .T. ) ;
#68 = FILL_AREA_STYLE ('',( #116 ) ) ;
#69 = CIRCLE ( 'NONE', #202, 0.1249999999999997641 ) ;
#70 = AXIS2_PLACEMENT_3D ( 'NONE', #274, #273, #137 ) ;
#71 = EDGE_CURVE ( 'NONE', #217, #170, #194, .T. ) ;
#72 = MECHANICAL_DESIGN_GEOMETRIC_PRESENTATION_REPRESENTATION (  '', ( #207 ), #180 ) ;
#73 = CIRCLE ( 'NONE', #112, 0.1250000000000000000 ) ;
#74 = EDGE_CURVE ( 'NONE', #33, #264, #258, .T. ) ;
#75 = DIRECTION ( 'NONE',  ( -1.000000000000000000, 0.000000000000000000, 0.000000000000000000 ) ) ;
#76 = LINE ( 'NONE', #82, #90 ) ;
#77 = CARTESIAN_POINT ( 'NONE',  ( 0.000000000000000000, 0.000000000000000000, 0.000000000000000000 ) ) ;
#78 = FILL_AREA_STYLE ('',( #244 ) ) ;
#79 = MANIFOLD_SOLID_BREP ( 'Revolve - Tool Body (Straight Shanked)', #227 ) ;
#80 = ORIENTED_EDGE ( 'NONE', *, *, #95, .F. ) ;
#81 = FILL_AREA_STYLE_COLOUR ( '', #117 ) ;
#82 = CARTESIAN_POINT ( 'NONE',  ( 0.000000000000000000, 0.000000000000000000, -0.1250000000000000000 ) ) ;
#83 = DIMENSIONAL_EXPONENTS ( 1.000000000000000000, 0.000000000000000000, 0.000000000000000000, 0.000000000000000000, 0.000000000000000000, 0.000000000000000000, 0.000000000000000000 ) ;
#84 =( LENGTH_UNIT ( ) NAMED_UNIT ( * ) SI_UNIT ( $, .METRE. ) );
#85 = PRODUCT ( '83375', '83375', '', ( #253 ) ) ;
#86 = CIRCLE ( 'NONE', #208, 0.1250000000000000000 ) ;
#87 = EDGE_CURVE ( 'NONE', #246, #33, #39, .T. ) ;
#88 = CARTESIAN_POINT ( 'NONE',  ( 0.000000000000000000, 0.000000000000000000, 0.000000000000000000 ) ) ;
#89 = DIMENSIONAL_EXPONENTS ( 1.000000000000000000, 0.000000000000000000, 0.000000000000000000, 0.000000000000000000, 0.000000000000000000, 0.000000000000000000, 0.000000000000000000 ) ;
#90 = VECTOR ( 'NONE', #125, 39.37007874015748143 ) ;
#91 =( GEOMETRIC_REPRESENTATION_CONTEXT ( 3 ) GLOBAL_UNCERTAINTY_ASSIGNED_CONTEXT ( ( #245 ) ) GLOBAL_UNIT_ASSIGNED_CONTEXT ( ( #306, #47, #146 ) ) REPRESENTATION_CONTEXT ( 'NONE', 'WORKASPACE' ) );
#92 = CYLINDRICAL_SURFACE ( 'NONE', #18, 0.1250000000000000000 ) ;
#93 = EDGE_CURVE ( 'NONE', #130, #105, #168, .T. ) ;
#94 = FILL_AREA_STYLE_COLOUR ( '', #290 ) ;
#95 = EDGE_CURVE ( 'NONE', #105, #170, #69, .T. ) ;
#96 =( NAMED_UNIT ( * ) PLANE_ANGLE_UNIT ( ) SI_UNIT ( $, .RADIAN. ) );
#97 = LENGTH_MEASURE_WITH_UNIT ( LENGTH_MEASURE( 0.02539999999999999897 ), #233 );
#98 = PRESENTATION_STYLE_ASSIGNMENT (( #120 ) ) ;
#99 = DIRECTION ( 'NONE',  ( 0.000000000000000000, 0.000000000000000000, -1.000000000000000000 ) ) ;
#100 = STYLED_ITEM ( 'NONE', ( #98 ), #237 ) ;
#101 = CARTESIAN_POINT ( 'NONE',  ( 0.000000000000000000, 0.000000000000000000, -0.1250000000000000000 ) ) ;
#102 = DIRECTION ( 'NONE',  ( 1.000000000000000000, -1.224646799147352961E-16, 0.000000000000000000 ) ) ;
#103 = ORIENTED_EDGE ( 'NONE', *, *, #93, .T. ) ;
#104 = DIRECTION ( 'NONE',  ( -1.000000000000000000, 0.000000000000000000, 0.000000000000000000 ) ) ;
#105 = VERTEX_POINT ( 'NONE', #25 ) ;
#106 = SURFACE_STYLE_FILL_AREA ( #108 ) ;
#107 = ORIENTED_EDGE ( 'NONE', *, *, #74, .F. ) ;
#108 = FILL_AREA_STYLE ('',( #81 ) ) ;
#109 = ORIENTED_EDGE ( 'NONE', *, *, #145, .T. ) ;
#110 = DIRECTION ( 'NONE',  ( -0.000000000000000000, -1.000000000000000000, -0.000000000000000000 ) ) ;
#111 = EDGE_LOOP ( 'NONE', ( #132, #127 ) ) ;
#112 = AXIS2_PLACEMENT_3D ( 'NONE', #167, #51, #216 ) ;
#113 = ADVANCED_BREP_SHAPE_REPRESENTATION ( '83375', ( #178, #79, #136 ), #263 ) ;
#114 = UNCERTAINTY_MEASURE_WITH_UNIT (LENGTH_MEASURE( 1.000000000000000082E-05 ), #62, 'distance_accuracy_value', 'NONE');
#115 = FACE_OUTER_BOUND ( 'NONE', #151, .T. ) ;
#116 = FILL_AREA_STYLE_COLOUR ( '', #252 ) ;
#117 = COLOUR_RGB ( '',1.000000000000000000, 0.000000000000000000, 0.000000000000000000 ) ;
#118 = ADVANCED_FACE ( 'NONE', ( #166 ), #124, .T. ) ;
#119 = DIRECTION ( 'NONE',  ( 0.000000000000000000, 0.000000000000000000, 1.000000000000000000 ) ) ;
#120 = SURFACE_STYLE_USAGE ( .BOTH. , #183 ) ;
#121 = CARTESIAN_POINT ( 'NONE',  ( 0.000000000000000000, 1.000000000000000000, -0.1250000000000000000 ) ) ;
#122 =( GEOMETRIC_REPRESENTATION_CONTEXT ( 3 ) GLOBAL_UNCERTAINTY_ASSIGNED_CONTEXT ( ( #20 ) ) GLOBAL_UNIT_ASSIGNED_CONTEXT ( ( #44, #9, #232 ) ) REPRESENTATION_CONTEXT ( 'NONE', 'WORKASPACE' ) );
#123 = ORIENTED_EDGE ( 'NONE', *, *, #301, .T. ) ;
#124 = CYLINDRICAL_SURFACE ( 'NONE', #297, 0.1249999999999998751 ) ;
#125 = DIRECTION ( 'NONE',  ( -0.000000000000000000, -1.000000000000000000, -0.000000000000000000 ) ) ;
#126 = PRESENTATION_STYLE_ASSIGNMENT (( #247 ) ) ;
#127 = ORIENTED_EDGE ( 'NONE', *, *, #74, .T. ) ;
#128 = VECTOR ( 'NONE', #19, 39.37007874015748143 ) ;
#129 = MECHANICAL_DESIGN_GEOMETRIC_PRESENTATION_REPRESENTATION (  '', ( #100 ), #91 ) ;
#130 = VERTEX_POINT ( 'NONE', #307 ) ;
#131 = FACE_OUTER_BOUND ( 'NONE', #148, .T. ) ;
#132 = ORIENTED_EDGE ( 'NONE', *, *, #182, .T. ) ;
#133 = ADVANCED_FACE ( 'NONE', ( #188 ), #193, .F. ) ;
#134 =( NAMED_UNIT ( * ) PLANE_ANGLE_UNIT ( ) SI_UNIT ( $, .RADIAN. ) );
#135 = CIRCLE ( 'NONE', #275, 0.1250000000000000000 ) ;
#136 = AXIS2_PLACEMENT_3D ( 'NONE', #138, #119, #159 ) ;
#137 = DIRECTION ( 'NONE',  ( 0.000000000000000000, 0.000000000000000000, -1.000000000000000000 ) ) ;
#138 = CARTESIAN_POINT ( 'NONE',  ( 0.000000000000000000, 0.000000000000000000, 0.000000000000000000 ) ) ;
#139 = STYLED_ITEM ( 'NONE', ( #213 ), #79 ) ;
#140 = SURFACE_STYLE_FILL_AREA ( #46 ) ;
#141 = MECHANICAL_DESIGN_GEOMETRIC_PRESENTATION_REPRESENTATION (  '', ( #54 ), #239 ) ;
#142 = AXIS2_PLACEMENT_3D ( 'NONE', #50, #309, #102 ) ;
#143 = CARTESIAN_POINT ( 'NONE',  ( 9.373498641636606628E-34, 1.000000000000000000, 0.000000000000000000 ) ) ;
#144 = DIRECTION ( 'NONE',  ( 0.000000000000000000, -0.000000000000000000, 1.000000000000000000 ) ) ;
#145 = EDGE_CURVE ( 'NONE', #248, #246, #135, .T. ) ;
#146 =( NAMED_UNIT ( * ) SI_UNIT ( $, .STERADIAN. ) SOLID_ANGLE_UNIT ( ) );
#147 =( CONVERSION_BASED_UNIT ( 'INCH', #97 ) LENGTH_UNIT ( ) NAMED_UNIT ( #32 ) );
#148 = EDGE_LOOP ( 'NONE', ( #293, #196, #192, #107 ) ) ;
#149 = CYLINDRICAL_SURFACE ( 'NONE', #270, 0.1250000000000000000 ) ;
#150 = SURFACE_STYLE_USAGE ( .BOTH. , #57 ) ;
#151 = EDGE_LOOP ( 'NONE', ( #109, #176, #154, #291 ) ) ;
#152 = PLANE ( 'NONE',  #70 ) ;
#153 = APPLICATION_CONTEXT ( 'automotive_design' ) ;
#154 = ORIENTED_EDGE ( 'NONE', *, *, #182, .F. ) ;
#155 = LENGTH_MEASURE_WITH_UNIT ( LENGTH_MEASURE( 0.02539999999999999897 ), #271 );
#156 = DIRECTION ( 'NONE',  ( -1.000000000000000000, 0.000000000000000000, 0.000000000000000000 ) ) ;
#157 =( NAMED_UNIT ( * ) SI_UNIT ( $, .STERADIAN. ) SOLID_ANGLE_UNIT ( ) );
#158 = SURFACE_STYLE_USAGE ( .BOTH. , #254 ) ;
#159 = DIRECTION ( 'NONE',  ( 1.000000000000000000, 0.000000000000000000, 0.000000000000000000 ) ) ;
#160 = PRESENTATION_LAYER_ASSIGNMENT (  '', '', ( #100 ) ) ;
#161 = SURFACE_STYLE_FILL_AREA ( #68 ) ;
#162 = DIRECTION ( 'NONE',  ( 0.000000000000000000, 0.000000000000000000, -1.000000000000000000 ) ) ;
#163 = DIRECTION ( 'NONE',  ( 1.224646799147352961E-16, 1.000000000000000000, -0.000000000000000000 ) ) ;
#164 = CIRCLE ( 'NONE', #10, 0.1250000000000000000 ) ;
#165 = FILL_AREA_STYLE_COLOUR ( '', #184 ) ;
#166 = FACE_OUTER_BOUND ( 'NONE', #26, .T. ) ;
#167 = CARTESIAN_POINT ( 'NONE',  ( 0.000000000000000000, 1.000000000000000000, 0.000000000000000000 ) ) ;
#168 = LINE ( 'NONE', #260, #42 ) ;
#169 = FILL_AREA_STYLE_COLOUR ( '', #302 ) ;
#170 = VERTEX_POINT ( 'NONE', #190 ) ;
#171 = DIRECTION ( 'NONE',  ( -1.000000000000000000, 0.000000000000000000, 0.000000000000000000 ) ) ;
#172 = ORIENTED_EDGE ( 'NONE', *, *, #283, .F. ) ;
#173 = FACE_OUTER_BOUND ( 'NONE', #272, .T. ) ;
#174 = CLOSED_SHELL ( 'NONE', ( #226, #237, #189, #200 ) ) ;
#175 = STYLED_ITEM ( 'NONE', ( #126 ), #200 ) ;
#176 = ORIENTED_EDGE ( 'NONE', *, *, #87, .T. ) ;
#177 = ADVANCED_FACE ( 'NONE', ( #285 ), #259, .F. ) ;
#178 = MANIFOLD_SOLID_BREP ( 'Revolve - Cutting Edge', #174 ) ;
#179 =( NAMED_UNIT ( * ) SI_UNIT ( $, .STERADIAN. ) SOLID_ANGLE_UNIT ( ) );
#180 =( GEOMETRIC_REPRESENTATION_CONTEXT ( 3 ) GLOBAL_UNCERTAINTY_ASSIGNED_CONTEXT ( ( #236 ) ) GLOBAL_UNIT_ASSIGNED_CONTEXT ( ( #27, #224, #157 ) ) REPRESENTATION_CONTEXT ( 'NONE', 'WORKASPACE' ) );
#181 =( LENGTH_UNIT ( ) NAMED_UNIT ( * ) SI_UNIT ( $, .METRE. ) );
#182 = EDGE_CURVE ( 'NONE', #264, #33, #164, .T. ) ;
#183 = SURFACE_SIDE_STYLE ('',( #13 ) ) ;
#184 = COLOUR_RGB ( '',0.7921568627450980005, 0.8196078431372548767, 0.9333333333333333481 ) ;
#185 = CIRCLE ( 'NONE', #298, 0.1250000000000000000 ) ;
#186 = DIRECTION ( 'NONE',  ( 1.224646799147352961E-16, 1.000000000000000000, -0.000000000000000000 ) ) ;
#187 = LENGTH_MEASURE_WITH_UNIT ( LENGTH_MEASURE( 0.02539999999999999897 ), #282 );
#188 = FACE_OUTER_BOUND ( 'NONE', #265, .T. ) ;
#189 = ADVANCED_FACE ( 'NONE', ( #131 ), #149, .T. ) ;
#190 = CARTESIAN_POINT ( 'NONE',  ( 0.1249999999999999861, 3.000000000000000444, 1.530808498934190893E-17 ) ) ;
#191 = CARTESIAN_POINT ( 'NONE',  ( 1.530808498934191509E-17, 0.000000000000000000, 0.1250000000000000000 ) ) ;
#192 = ORIENTED_EDGE ( 'NONE', *, *, #12, .T. ) ;
#193 = PLANE ( 'NONE',  #251 ) ;
#194 = LINE ( 'NONE', #28, #17 ) ;
#195 = PRESENTATION_STYLE_ASSIGNMENT (( #150 ) ) ;
#196 = ORIENTED_EDGE ( 'NONE', *, *, #289, .T. ) ;
#197 = DIMENSIONAL_EXPONENTS ( 1.000000000000000000, 0.000000000000000000, 0.000000000000000000, 0.000000000000000000, 0.000000000000000000, 0.000000000000000000, 0.000000000000000000 ) ;
#198 = ORIENTED_EDGE ( 'NONE', *, *, #67, .T. ) ;
#199 = DIRECTION ( 'NONE',  ( 0.000000000000000000, 0.000000000000000000, -1.000000000000000000 ) ) ;
#200 = ADVANCED_FACE ( 'NONE', ( #296 ), #152, .T. ) ;
#201 = CARTESIAN_POINT ( 'NONE',  ( 2.449293598294705921E-16, 3.000000000000000444, 0.000000000000000000 ) ) ;
#202 = AXIS2_PLACEMENT_3D ( 'NONE', #52, #238, #48 ) ;
#203 = COLOUR_RGB ( '',1.000000000000000000, 0.000000000000000000, 0.000000000000000000 ) ;
#204 = SHAPE_DEFINITION_REPRESENTATION ( #279, #113 ) ;
#205 = DIRECTION ( 'NONE',  ( 0.000000000000000000, 0.000000000000000000, -1.000000000000000000 ) ) ;
#206 = PLANE ( 'NONE',  #230 ) ;
#207 = STYLED_ITEM ( 'NONE', ( #195 ), #189 ) ;
#208 = AXIS2_PLACEMENT_3D ( 'NONE', #63, #243, #156 ) ;
#209 = PRESENTATION_STYLE_ASSIGNMENT (( #16 ) ) ;
#210 = MECHANICAL_DESIGN_GEOMETRIC_PRESENTATION_REPRESENTATION (  '', ( #175 ), #24 ) ;
#211 = CARTESIAN_POINT ( 'NONE',  ( 1.530808498934191509E-17, 1.000000000000000000, 0.1250000000000000000 ) ) ;
#212 =( NAMED_UNIT ( * ) SI_UNIT ( $, .STERADIAN. ) SOLID_ANGLE_UNIT ( ) );
#213 = PRESENTATION_STYLE_ASSIGNMENT (( #43 ) ) ;
#214 = DIRECTION ( 'NONE',  ( -0.000000000000000000, -1.000000000000000000, -0.000000000000000000 ) ) ;
#215 = UNCERTAINTY_MEASURE_WITH_UNIT (LENGTH_MEASURE( 1.000000000000000082E-05 ), #36, 'distance_accuracy_value', 'NONE');
#216 = DIRECTION ( 'NONE',  ( 0.000000000000000000, 0.000000000000000000, -1.000000000000000000 ) ) ;
#217 = VERTEX_POINT ( 'NONE', #280 ) ;
#218 = CARTESIAN_POINT ( 'NONE',  ( 2.449293598294705921E-16, 3.000000000000000444, 0.000000000000000000 ) ) ;
#219 = DIRECTION ( 'NONE',  ( 1.224646799147352961E-16, 1.000000000000000000, -0.000000000000000000 ) ) ;
#220 = ORIENTED_EDGE ( 'NONE', *, *, #71, .T. ) ;
#221 = SURFACE_SIDE_STYLE ('',( #250 ) ) ;
#222 = MECHANICAL_DESIGN_GEOMETRIC_PRESENTATION_REPRESENTATION (  '', ( #55 ), #122 ) ;
#223 = ORIENTED_EDGE ( 'NONE', *, *, #67, .F. ) ;
#224 =( NAMED_UNIT ( * ) PLANE_ANGLE_UNIT ( ) SI_UNIT ( $, .RADIAN. ) );
#225 =( NAMED_UNIT ( * ) PLANE_ANGLE_UNIT ( ) SI_UNIT ( $, .RADIAN. ) );
#226 = ADVANCED_FACE ( 'NONE', ( #115 ), #92, .T. ) ;
#227 = CLOSED_SHELL ( 'NONE', ( #118, #133, #38, #177 ) ) ;
#228 = PRESENTATION_LAYER_ASSIGNMENT (  '', '', ( #55 ) ) ;
#229 =( NAMED_UNIT ( * ) SI_UNIT ( $, .STERADIAN. ) SOLID_ANGLE_UNIT ( ) );
#230 = AXIS2_PLACEMENT_3D ( 'NONE', #45, #23, #144 ) ;
#231 = DIRECTION ( 'NONE',  ( -0.000000000000000000, -1.000000000000000000, -0.000000000000000000 ) ) ;
#232 =( NAMED_UNIT ( * ) SI_UNIT ( $, .STERADIAN. ) SOLID_ANGLE_UNIT ( ) );
#233 =( LENGTH_UNIT ( ) NAMED_UNIT ( * ) SI_UNIT ( $, .METRE. ) );
#234 = SURFACE_SIDE_STYLE ('',( #140 ) ) ;
#235 = DIRECTION ( 'NONE',  ( 1.224646799147352961E-16, 1.000000000000000000, -0.000000000000000000 ) ) ;
#236 = UNCERTAINTY_MEASURE_WITH_UNIT (LENGTH_MEASURE( 1.000000000000000082E-05 ), #27, 'distance_accuracy_value', 'NONE');
#237 = ADVANCED_FACE ( 'NONE', ( #304 ), #206, .T. ) ;
#238 = DIRECTION ( 'NONE',  ( 1.224646799147352961E-16, 1.000000000000000000, -0.000000000000000000 ) ) ;
#239 =( GEOMETRIC_REPRESENTATION_CONTEXT ( 3 ) GLOBAL_UNCERTAINTY_ASSIGNED_CONTEXT ( ( #49 ) ) GLOBAL_UNIT_ASSIGNED_CONTEXT ( ( #292, #225, #35 ) ) REPRESENTATION_CONTEXT ( 'NONE', 'WORKASPACE' ) );
#240 = AXIS2_PLACEMENT_3D ( 'NONE', #58, #219, #171 ) ;
#241 = ORIENTED_EDGE ( 'NONE', *, *, #301, .F. ) ;
#242 =( LENGTH_UNIT ( ) NAMED_UNIT ( * ) SI_UNIT ( $, .METRE. ) );
#243 = DIRECTION ( 'NONE',  ( 1.224646799147352961E-16, 1.000000000000000000, -0.000000000000000000 ) ) ;
#244 = FILL_AREA_STYLE_COLOUR ( '', #203 ) ;
#245 = UNCERTAINTY_MEASURE_WITH_UNIT (LENGTH_MEASURE( 1.000000000000000082E-05 ), #306, 'distance_accuracy_value', 'NONE');
#246 = VERTEX_POINT ( 'NONE', #211 ) ;
#247 = SURFACE_STYLE_USAGE ( .BOTH. , #221 ) ;
#248 = VERTEX_POINT ( 'NONE', #121 ) ;
#249 = DIRECTION ( 'NONE',  ( 1.224646799147352961E-16, 1.000000000000000000, -0.000000000000000000 ) ) ;
#250 = SURFACE_STYLE_FILL_AREA ( #78 ) ;
#251 = AXIS2_PLACEMENT_3D ( 'NONE', #143, #235, #308 ) ;
#252 = COLOUR_RGB ( '',1.000000000000000000, 0.000000000000000000, 0.000000000000000000 ) ;
#253 = PRODUCT_CONTEXT ( 'NONE', #153, 'mechanical' ) ;
#254 = SURFACE_SIDE_STYLE ('',( #161 ) ) ;
#255 = PRESENTATION_STYLE_ASSIGNMENT (( #158 ) ) ;
#256 = SURFACE_STYLE_FILL_AREA ( #257 ) ;
#257 = FILL_AREA_STYLE ('',( #165 ) ) ;
#258 = CIRCLE ( 'NONE', #269, 0.1250000000000000000 ) ;
#259 = PLANE ( 'NONE',  #142 ) ;
#260 = CARTESIAN_POINT ( 'NONE',  ( -0.1249999999999996392, 3.000000000000000444, 0.000000000000000000 ) ) ;
#261 = CARTESIAN_POINT ( 'NONE',  ( 1.530808498934191509E-17, 0.000000000000000000, 0.1250000000000000000 ) ) ;
#262 = MECHANICAL_DESIGN_GEOMETRIC_PRESENTATION_REPRESENTATION (  '', ( #139 ), #305 ) ;
#263 =( GEOMETRIC_REPRESENTATION_CONTEXT ( 3 ) GLOBAL_UNCERTAINTY_ASSIGNED_CONTEXT ( ( #215 ) ) GLOBAL_UNIT_ASSIGNED_CONTEXT ( ( #36, #1, #179 ) ) REPRESENTATION_CONTEXT ( 'NONE', 'WORKASPACE' ) );
#264 = VERTEX_POINT ( 'NONE', #101 ) ;
#265 = EDGE_LOOP ( 'NONE', ( #172, #223 ) ) ;
#266 = DIRECTION ( 'NONE',  ( -0.000000000000000000, -1.000000000000000000, -0.000000000000000000 ) ) ;
#267 = ORIENTED_EDGE ( 'NONE', *, *, #283, .T. ) ;
#268 = LENGTH_MEASURE_WITH_UNIT ( LENGTH_MEASURE( 0.02539999999999999897 ), #84 );
#269 = AXIS2_PLACEMENT_3D ( 'NONE', #303, #231, #66 ) ;
#270 = AXIS2_PLACEMENT_3D ( 'NONE', #88, #110, #199 ) ;
#271 =( LENGTH_UNIT ( ) NAMED_UNIT ( * ) SI_UNIT ( $, .METRE. ) );
#272 = EDGE_LOOP ( 'NONE', ( #2, #198, #103, #241 ) ) ;
#273 = DIRECTION ( 'NONE',  ( 0.000000000000000000, -1.000000000000000000, -0.000000000000000000 ) ) ;
#274 = CARTESIAN_POINT ( 'NONE',  ( 0.000000000000000000, 0.000000000000000000, 0.000000000000000000 ) ) ;
#275 = AXIS2_PLACEMENT_3D ( 'NONE', #21, #214, #99 ) ;
#276 = APPLICATION_PROTOCOL_DEFINITION ( 'draft international standard', 'automotive_design', 1998, #153 ) ;
#277 = PRODUCT_RELATED_PRODUCT_CATEGORY ( 'part', '', ( #85 ) ) ;
#278 = CARTESIAN_POINT ( 'NONE',  ( 0.000000000000000000, 0.000000000000000000, 0.000000000000000000 ) ) ;
#279 = PRODUCT_DEFINITION_SHAPE ( 'NONE', 'NONE',  #34 ) ;
#280 = CARTESIAN_POINT ( 'NONE',  ( 0.1249999999999999861, 1.000000000000000000, 1.530808498934190893E-17 ) ) ;
#281 = PRESENTATION_LAYER_ASSIGNMENT (  '', '', ( #139 ) ) ;
#282 =( LENGTH_UNIT ( ) NAMED_UNIT ( * ) SI_UNIT ( $, .METRE. ) );
#283 = EDGE_CURVE ( 'NONE', #130, #217, #185, .T. ) ;
#284 = PRESENTATION_LAYER_ASSIGNMENT (  '', '', ( #207 ) ) ;
#285 = FACE_OUTER_BOUND ( 'NONE', #30, .T. ) ;
#286 = DIRECTION ( 'NONE',  ( 1.224646799147352961E-16, 1.000000000000000000, -0.000000000000000000 ) ) ;
#287 = ORIENTED_EDGE ( 'NONE', *, *, #145, .F. ) ;
#288 = ORIENTED_EDGE ( 'NONE', *, *, #95, .T. ) ;
#289 = EDGE_CURVE ( 'NONE', #246, #248, #73, .T. ) ;
#290 = COLOUR_RGB ( '',1.000000000000000000, 0.000000000000000000, 0.000000000000000000 ) ;
#291 = ORIENTED_EDGE ( 'NONE', *, *, #12, .F. ) ;
#292 =( CONVERSION_BASED_UNIT ( 'INCH', #299 ) LENGTH_UNIT ( ) NAMED_UNIT ( #29 ) );
#293 = ORIENTED_EDGE ( 'NONE', *, *, #87, .F. ) ;
#294 = DIRECTION ( 'NONE',  ( 1.224646799147352961E-16, 1.000000000000000000, -0.000000000000000000 ) ) ;
#295 = DIMENSIONAL_EXPONENTS ( 1.000000000000000000, 0.000000000000000000, 0.000000000000000000, 0.000000000000000000, 0.000000000000000000, 0.000000000000000000, 0.000000000000000000 ) ;
#296 = FACE_OUTER_BOUND ( 'NONE', #111, .T. ) ;
#297 = AXIS2_PLACEMENT_3D ( 'NONE', #218, #186, #104 ) ;
#298 = AXIS2_PLACEMENT_3D ( 'NONE', #15, #286, #75 ) ;
#299 = LENGTH_MEASURE_WITH_UNIT ( LENGTH_MEASURE( 0.02539999999999999897 ), #242 );
#300 = DIMENSIONAL_EXPONENTS ( 1.000000000000000000, 0.000000000000000000, 0.000000000000000000, 0.000000000000000000, 0.000000000000000000, 0.000000000000000000, 0.000000000000000000 ) ;
#301 = EDGE_CURVE ( 'NONE', #170, #105, #8, .T. ) ;
#302 = COLOUR_RGB ( '',0.7921568627450980005, 0.8196078431372548767, 0.9333333333333333481 ) ;
#303 = CARTESIAN_POINT ( 'NONE',  ( 0.000000000000000000, 0.000000000000000000, 0.000000000000000000 ) ) ;
#304 = FACE_OUTER_BOUND ( 'NONE', #61, .T. ) ;
#305 =( GEOMETRIC_REPRESENTATION_CONTEXT ( 3 ) GLOBAL_UNCERTAINTY_ASSIGNED_CONTEXT ( ( #53 ) ) GLOBAL_UNIT_ASSIGNED_CONTEXT ( ( #147, #96, #212 ) ) REPRESENTATION_CONTEXT ( 'NONE', 'WORKASPACE' ) );
#306 =( CONVERSION_BASED_UNIT ( 'INCH', #187 ) LENGTH_UNIT ( ) NAMED_UNIT ( #83 ) );
#307 = CARTESIAN_POINT ( 'NONE',  ( -0.1250000000000000000, 1.000000000000000000, 0.000000000000000000 ) ) ;
#308 = DIRECTION ( 'NONE',  ( -1.000000000000000000, 1.224646799147352961E-16, 0.000000000000000000 ) ) ;
#309 = DIRECTION ( 'NONE',  ( -1.224646799147352961E-16, -1.000000000000000000, 0.000000000000000000 ) ) ;
ENDSEC;
END-ISO-10303-21;
