ISO-10303-21;
HEADER;
FILE_DESCRIPTION (( 'STEP AP214' ),
    '1' );
FILE_NAME ('Micro_DM-500-490X.STEP',
    '2021-09-02T16:08:23',
    ( '' ),
    ( '' ),
    'SwSTEP 2.0',
    'SolidWorks 2020',
    '' );
FILE_SCHEMA (( 'AUTOMOTIVE_DESIGN' ));
ENDSEC;

DATA;
#1 = DIRECTION ( 'NONE',  ( -1.000000000000000000, 0.0000000000000000000, 0.0000000000000000000 ) ) ;
#2 = UNCERTAINTY_MEASURE_WITH_UNIT (LENGTH_MEASURE( 1.000000000000000082E-05 ), #240, 'distance_accuracy_value', 'NONE');
#3 = EDGE_CURVE ( 'NONE', #265, #271, #255, .T. ) ;
#4 = FACE_OUTER_BOUND ( 'NONE', #35, .T. ) ;
#5 = UNCERTAINTY_MEASURE_WITH_UNIT (LENGTH_MEASURE( 1.000000000000000082E-05 ), #305, 'distance_accuracy_value', 'NONE');
#6 = CONICAL_SURFACE ( 'NONE', #238, 0.2350000000000011524, 0.7853981633974380649 ) ;
#7 = SURFACE_STYLE_FILL_AREA ( #236 ) ;
#8 = ORIENTED_EDGE ( 'NONE', *, *, #314, .T. ) ;
#9 = FACE_OUTER_BOUND ( 'NONE', #164, .T. ) ;
#10 = ORIENTED_EDGE ( 'NONE', *, *, #30, .T. ) ;
#11 = AXIS2_PLACEMENT_3D ( 'NONE', #150, #232, #234 ) ;
#12 = EDGE_LOOP ( 'NONE', ( #33, #16 ) ) ;
#13 = DIRECTION ( 'NONE',  ( -1.000000000000000000, 0.0000000000000000000, 0.0000000000000000000 ) ) ;
#14 = ORIENTED_EDGE ( 'NONE', *, *, #102, .T. ) ;
#15 = DIRECTION ( 'NONE',  ( -0.0000000000000000000, -0.0000000000000000000, -1.000000000000000000 ) ) ;
#16 = ORIENTED_EDGE ( 'NONE', *, *, #122, .T. ) ;
#17 = DIRECTION ( 'NONE',  ( 0.0000000000000000000, 0.0000000000000000000, 1.000000000000000000 ) ) ;
#18 = PRODUCT_CONTEXT ( 'NONE', #69, 'mechanical' ) ;
#19 = CARTESIAN_POINT ( 'NONE',  ( 0.0000000000000000000, 0.0000000000000000000, 2.985000000000001208 ) ) ;
#20 = DIMENSIONAL_EXPONENTS ( 1.000000000000000000, 0.0000000000000000000, 0.0000000000000000000, 0.0000000000000000000, 0.0000000000000000000, 0.0000000000000000000, 0.0000000000000000000 ) ;
#21 = DIRECTION ( 'NONE',  ( 1.000000000000000000, 0.0000000000000000000, 0.0000000000000000000 ) ) ;
#22 = DIRECTION ( 'NONE',  ( -0.0000000000000000000, -0.0000000000000000000, -1.000000000000000000 ) ) ;
#23 = CIRCLE ( 'NONE', #101, 0.2499500000000001165 ) ;
#24 = DIRECTION ( 'NONE',  ( -1.000000000000000000, 0.0000000000000000000, 0.0000000000000000000 ) ) ;
#25 = APPLICATION_PROTOCOL_DEFINITION ( 'draft international standard', 'automotive_design', 1998, #121 ) ;
#26 = DIRECTION ( 'NONE',  ( 0.0000000000000000000, 0.0000000000000000000, -1.000000000000000000 ) ) ;
#27 = CARTESIAN_POINT ( 'NONE',  ( 0.0000000000000000000, 0.0000000000000000000, 1.000000000000000000 ) ) ;
#28 = AXIS2_PLACEMENT_3D ( 'NONE', #266, #319, #137 ) ;
#29 = LENGTH_MEASURE_WITH_UNIT ( LENGTH_MEASURE( 0.02539999999999999897 ), #56 );
#30 = EDGE_CURVE ( 'NONE', #287, #193, #207, .T. ) ;
#31 = ORIENTED_EDGE ( 'NONE', *, *, #166, .F. ) ;
#32 = CARTESIAN_POINT ( 'NONE',  ( 0.2350000000000011524, 2.877919977996294002E-17, 3.000000000000000444 ) ) ;
#33 = ORIENTED_EDGE ( 'NONE', *, *, #3, .T. ) ;
#34 = DIRECTION ( 'NONE',  ( -1.000000000000000000, 0.0000000000000000000, 0.0000000000000000000 ) ) ;
#35 = EDGE_LOOP ( 'NONE', ( #138, #268, #14, #249 ) ) ;
#36 = FACE_BOUND ( 'NONE', #118, .T. ) ;
#37 = DIRECTION ( 'NONE',  ( 1.000000000000000000, 0.0000000000000000000, 0.0000000000000000000 ) ) ;
#38 = ORIENTED_EDGE ( 'NONE', *, *, #314, .F. ) ;
#39 = DIRECTION ( 'NONE',  ( -1.000000000000000000, 0.0000000000000000000, 0.0000000000000000000 ) ) ;
#40 = CARTESIAN_POINT ( 'NONE',  ( 0.0000000000000000000, 0.0000000000000000000, 3.000000000000000444 ) ) ;
#41 = CARTESIAN_POINT ( 'NONE',  ( -0.2499500000000000888, 0.0000000000000000000, 0.0000000000000000000 ) ) ;
#42 =( CONVERSION_BASED_UNIT ( 'INCH', #304 ) LENGTH_UNIT ( ) NAMED_UNIT ( #20 ) );
#43 = AXIS2_PLACEMENT_3D ( 'NONE', #27, #161, #262 ) ;
#44 = EDGE_CURVE ( 'NONE', #199, #287, #177, .T. ) ;
#45 = SURFACE_STYLE_USAGE ( .BOTH. , #179 ) ;
#46 = DIMENSIONAL_EXPONENTS ( 1.000000000000000000, 0.0000000000000000000, 0.0000000000000000000, 0.0000000000000000000, 0.0000000000000000000, 0.0000000000000000000, 0.0000000000000000000 ) ;
#47 =( NAMED_UNIT ( * ) SI_UNIT ( $, .STERADIAN. ) SOLID_ANGLE_UNIT ( ) );
#48 = VECTOR ( 'NONE', #241, 39.37007874015748143 ) ;
#49 = DIRECTION ( 'NONE',  ( 0.7071067811865487940, 0.0000000000000000000, 0.7071067811865462405 ) ) ;
#50 = LINE ( 'NONE', #306, #200 ) ;
#51 = ADVANCED_FACE ( 'NONE', ( #9 ), #253, .T. ) ;
#52 = CIRCLE ( 'NONE', #270, 0.007499999999999999722 ) ;
#53 = AXIS2_PLACEMENT_3D ( 'NONE', #220, #321, #91 ) ;
#54 = DIRECTION ( 'NONE',  ( -1.000000000000000000, 0.0000000000000000000, 0.0000000000000000000 ) ) ;
#55 = CARTESIAN_POINT ( 'NONE',  ( -0.2500000000000000000, 0.0000000000000000000, 2.985000000000001208 ) ) ;
#56 =( LENGTH_UNIT ( ) NAMED_UNIT ( * ) SI_UNIT ( $, .METRE. ) );
#57 = PLANE ( 'NONE',  #28 ) ;
#58 = ORIENTED_EDGE ( 'NONE', *, *, #95, .T. ) ;
#59 =( NAMED_UNIT ( * ) SI_UNIT ( $, .STERADIAN. ) SOLID_ANGLE_UNIT ( ) );
#60 = EDGE_LOOP ( 'NONE', ( #195, #146 ) ) ;
#61 = CARTESIAN_POINT ( 'NONE',  ( -0.2350000000000011524, 0.0000000000000000000, 3.000000000000000444 ) ) ;
#62 = EDGE_CURVE ( 'NONE', #323, #190, #157, .T. ) ;
#63 = EDGE_LOOP ( 'NONE', ( #8, #93 ) ) ;
#64 = FACE_OUTER_BOUND ( 'NONE', #167, .T. ) ;
#65 = AXIS2_PLACEMENT_3D ( 'NONE', #251, #300, #68 ) ;
#66 = ORIENTED_EDGE ( 'NONE', *, *, #70, .F. ) ;
#67 = FACE_OUTER_BOUND ( 'NONE', #12, .T. ) ;
#68 = DIRECTION ( 'NONE',  ( -1.000000000000000000, 0.0000000000000000000, 0.0000000000000000000 ) ) ;
#69 = APPLICATION_CONTEXT ( 'automotive_design' ) ;
#70 = EDGE_CURVE ( 'NONE', #140, #313, #256, .T. ) ;
#71 = CARTESIAN_POINT ( 'NONE',  ( 0.0000000000000000000, 0.0000000000000000000, 1.707404996040164512E-17 ) ) ;
#72 = SURFACE_STYLE_FILL_AREA ( #98 ) ;
#73 = AXIS2_PLACEMENT_3D ( 'NONE', #210, #187, #54 ) ;
#74 = AXIS2_PLACEMENT_3D ( 'NONE', #216, #15, #119 ) ;
#75 = PRODUCT_DEFINITION_SHAPE ( 'NONE', 'NONE',  #219 ) ;
#76 = ADVANCED_FACE ( 'NONE', ( #4 ), #6, .T. ) ;
#77 = DIRECTION ( 'NONE',  ( -0.7071067811865402453, 0.0000000000000000000, -0.7071067811865546782 ) ) ;
#78 = CARTESIAN_POINT ( 'NONE',  ( 0.2499500000000000888, 3.061004674468810760E-17, 0.0000000000000000000 ) ) ;
#79 = VECTOR ( 'NONE', #126, 39.37007874015748143 ) ;
#80 = CYLINDRICAL_SURFACE ( 'NONE', #73, 0.2500000000000000000 ) ;
#81 = SURFACE_SIDE_STYLE ('',( #7 ) ) ;
#82 = LINE ( 'NONE', #104, #79 ) ;
#83 = ORIENTED_EDGE ( 'NONE', *, *, #30, .F. ) ;
#84 = AXIS2_PLACEMENT_3D ( 'NONE', #71, #258, #37 ) ;
#85 = CARTESIAN_POINT ( 'NONE',  ( 0.0000000000000000000, 0.0000000000000000000, 1.000000000000000000 ) ) ;
#86 = ORIENTED_EDGE ( 'NONE', *, *, #62, .T. ) ;
#87 = DIRECTION ( 'NONE',  ( 1.000000000000000000, 0.0000000000000000000, -0.0000000000000000000 ) ) ;
#88 = ORIENTED_EDGE ( 'NONE', *, *, #142, .F. ) ;
#89 = LINE ( 'NONE', #170, #153 ) ;
#90 = VERTEX_POINT ( 'NONE', #205 ) ;
#91 = DIRECTION ( 'NONE',  ( -1.000000000000000000, 0.0000000000000000000, 0.0000000000000000000 ) ) ;
#92 = VECTOR ( 'NONE', #108, 39.37007874015748143 ) ;
#93 = ORIENTED_EDGE ( 'NONE', *, *, #131, .T. ) ;
#94 = ADVANCED_FACE ( 'NONE', ( #110 ), #260, .T. ) ;
#95 = EDGE_CURVE ( 'NONE', #90, #287, #312, .T. ) ;
#96 = DIRECTION ( 'NONE',  ( -0.0000000000000000000, -0.0000000000000000000, -1.000000000000000000 ) ) ;
#97 = CONICAL_SURFACE ( 'NONE', #100, 0.007499999999999999722, 0.7853981633974501664 ) ;
#98 = FILL_AREA_STYLE ('',( #302 ) ) ;
#99 = DIRECTION ( 'NONE',  ( 0.0000000000000000000, 0.0000000000000000000, 1.000000000000000000 ) ) ;
#100 = AXIS2_PLACEMENT_3D ( 'NONE', #257, #284, #204 ) ;
#101 = AXIS2_PLACEMENT_3D ( 'NONE', #85, #272, #148 ) ;
#102 = EDGE_CURVE ( 'NONE', #265, #190, #50, .T. ) ;
#103 = CARTESIAN_POINT ( 'NONE',  ( 0.0000000000000000000, 0.0000000000000000000, 0.0000000000000000000 ) ) ;
#104 = CARTESIAN_POINT ( 'NONE',  ( 0.2500000000000000000, 3.061616997868382402E-17, 3.000000000000000444 ) ) ;
#105 = FACE_OUTER_BOUND ( 'NONE', #112, .T. ) ;
#106 = ADVANCED_BREP_SHAPE_REPRESENTATION ( 'Micro_DM-500-490X', ( #192, #308 ), #278 ) ;
#107 = AXIS2_PLACEMENT_3D ( 'NONE', #250, #165, #34 ) ;
#108 = DIRECTION ( 'NONE',  ( -0.7071067811865487940, 8.659560562354948882E-17, 0.7071067811865462405 ) ) ;
#109 = ORIENTED_EDGE ( 'NONE', *, *, #166, .T. ) ;
#110 = FACE_OUTER_BOUND ( 'NONE', #175, .T. ) ;
#111 = FACE_OUTER_BOUND ( 'NONE', #63, .T. ) ;
#112 = EDGE_LOOP ( 'NONE', ( #215, #230, #66, #316 ) ) ;
#113 = EDGE_CURVE ( 'NONE', #323, #313, #82, .T. ) ;
#114 = STYLED_ITEM ( 'NONE', ( #154 ), #106 ) ;
#115 = CYLINDRICAL_SURFACE ( 'NONE', #74, 0.2499500000000000888 ) ;
#116 = ORIENTED_EDGE ( 'NONE', *, *, #122, .F. ) ;
#117 = DIRECTION ( 'NONE',  ( -0.0000000000000000000, 0.0000000000000000000, -1.000000000000000000 ) ) ;
#118 = EDGE_LOOP ( 'NONE', ( #273, #211 ) ) ;
#119 = DIRECTION ( 'NONE',  ( -1.000000000000000000, 0.0000000000000000000, 0.0000000000000000000 ) ) ;
#120 = CARTESIAN_POINT ( 'NONE',  ( 0.0000000000000000000, 0.0000000000000000000, 1.000000000000000000 ) ) ;
#121 = APPLICATION_CONTEXT ( 'automotive_design' ) ;
#122 = EDGE_CURVE ( 'NONE', #271, #265, #227, .T. ) ;
#123 = PRESENTATION_LAYER_ASSIGNMENT (  '', '', ( #322 ) ) ;
#124 = CIRCLE ( 'NONE', #180, 0.2500000000000000000 ) ;
#125 = ADVANCED_FACE ( 'NONE', ( #105 ), #80, .T. ) ;
#126 = DIRECTION ( 'NONE',  ( -0.0000000000000000000, -0.0000000000000000000, -1.000000000000000000 ) ) ;
#127 = AXIS2_PLACEMENT_3D ( 'NONE', #290, #17, #87 ) ;
#128 = CARTESIAN_POINT ( 'NONE',  ( 0.007499999999999999722, 0.0000000000000000000, 1.707404996040164512E-17 ) ) ;
#129 = DIRECTION ( 'NONE',  ( -0.0000000000000000000, -0.0000000000000000000, -1.000000000000000000 ) ) ;
#130 = ORIENTED_EDGE ( 'NONE', *, *, #310, .T. ) ;
#131 = EDGE_CURVE ( 'NONE', #90, #134, #52, .T. ) ;
#132 = CARTESIAN_POINT ( 'NONE',  ( -0.007499999999999999722, 9.184850993605147975E-19, 1.707404996040164512E-17 ) ) ;
#133 = COLOUR_RGB ( '',0.7921568627450980005, 0.8196078431372548767, 0.9333333333333333481 ) ;
#134 = VERTEX_POINT ( 'NONE', #128 ) ;
#135 = DIRECTION ( 'NONE',  ( 1.000000000000000000, 0.0000000000000000000, 0.0000000000000000000 ) ) ;
#136 = ORIENTED_EDGE ( 'NONE', *, *, #102, .F. ) ;
#137 = DIRECTION ( 'NONE',  ( 1.000000000000000000, 0.0000000000000000000, -0.0000000000000000000 ) ) ;
#138 = ORIENTED_EDGE ( 'NONE', *, *, #237, .F. ) ;
#139 = CARTESIAN_POINT ( 'NONE',  ( 0.2499500000000001443, 3.061004674468811376E-17, 1.000000000000000000 ) ) ;
#140 = VERTEX_POINT ( 'NONE', #184 ) ;
#141 = MECHANICAL_DESIGN_GEOMETRIC_PRESENTATION_REPRESENTATION (  '', ( #322 ), #182 ) ;
#142 = EDGE_CURVE ( 'NONE', #134, #193, #183, .T. ) ;
#143 = PRESENTATION_LAYER_ASSIGNMENT (  '', '', ( #114 ) ) ;
#144 = PLANE ( 'NONE',  #281 ) ;
#145 = CARTESIAN_POINT ( 'NONE',  ( 0.0000000000000000000, 0.0000000000000000000, 2.985000000000001208 ) ) ;
#146 = ORIENTED_EDGE ( 'NONE', *, *, #185, .T. ) ;
#147 = ADVANCED_FACE ( 'NONE', ( #203 ), #97, .T. ) ;
#148 = DIRECTION ( 'NONE',  ( -1.000000000000000000, 0.0000000000000000000, 0.0000000000000000000 ) ) ;
#149 = DIRECTION ( 'NONE',  ( 0.0000000000000000000, 0.0000000000000000000, 1.000000000000000000 ) ) ;
#150 = CARTESIAN_POINT ( 'NONE',  ( 0.0000000000000000000, 0.0000000000000000000, 1.000000000000000000 ) ) ;
#151 = DIRECTION ( 'NONE',  ( 0.0000000000000000000, 0.0000000000000000000, -1.000000000000000000 ) ) ;
#152 = AXIS2_PLACEMENT_3D ( 'NONE', #103, #129, #159 ) ;
#153 = VECTOR ( 'NONE', #96, 39.37007874015748143 ) ;
#154 = PRESENTATION_STYLE_ASSIGNMENT (( #45 ) ) ;
#155 = DIRECTION ( 'NONE',  ( -1.000000000000000000, 0.0000000000000000000, 0.0000000000000000000 ) ) ;
#156 = DIMENSIONAL_EXPONENTS ( 1.000000000000000000, 0.0000000000000000000, 0.0000000000000000000, 0.0000000000000000000, 0.0000000000000000000, 0.0000000000000000000, 0.0000000000000000000 ) ;
#157 = CIRCLE ( 'NONE', #189, 0.2500000000000000000 ) ;
#158 = CARTESIAN_POINT ( 'NONE',  ( 0.0000000000000000000, 0.0000000000000000000, 1.707404996040164512E-17 ) ) ;
#159 = DIRECTION ( 'NONE',  ( -1.000000000000000000, 0.0000000000000000000, 0.0000000000000000000 ) ) ;
#160 = VECTOR ( 'NONE', #283, 39.37007874015748143 ) ;
#161 = DIRECTION ( 'NONE',  ( -0.0000000000000000000, -0.0000000000000000000, -1.000000000000000000 ) ) ;
#162 = PLANE ( 'NONE',  #127 ) ;
#163 = AXIS2_PLACEMENT_3D ( 'NONE', #120, #174, #13 ) ;
#164 = EDGE_LOOP ( 'NONE', ( #169, #38, #328, #130 ) ) ;
#165 = DIRECTION ( 'NONE',  ( 0.0000000000000000000, 0.0000000000000000000, -1.000000000000000000 ) ) ;
#166 = EDGE_CURVE ( 'NONE', #292, #193, #307, .T. ) ;
#167 = EDGE_LOOP ( 'NONE', ( #318, #86, #197, #274 ) ) ;
#168 = DIRECTION ( 'NONE',  ( -0.0000000000000000000, -0.0000000000000000000, -1.000000000000000000 ) ) ;
#169 = ORIENTED_EDGE ( 'NONE', *, *, #95, .F. ) ;
#170 = CARTESIAN_POINT ( 'NONE',  ( -0.2500000000000000000, 0.0000000000000000000, 3.000000000000000444 ) ) ;
#171 = ORIENTED_EDGE ( 'NONE', *, *, #285, .T. ) ;
#172 = CIRCLE ( 'NONE', #163, 0.2499500000000001165 ) ;
#173 = PRODUCT_DEFINITION_FORMATION_WITH_SPECIFIED_SOURCE ( 'ANY', '', #201, .NOT_KNOWN. ) ;
#174 = DIRECTION ( 'NONE',  ( -0.0000000000000000000, -0.0000000000000000000, -1.000000000000000000 ) ) ;
#175 = EDGE_LOOP ( 'NONE', ( #320, #109, #83, #243 ) ) ;
#176 = DIRECTION ( 'NONE',  ( -0.0000000000000000000, -0.0000000000000000000, -1.000000000000000000 ) ) ;
#177 = LINE ( 'NONE', #41, #48 ) ;
#178 = AXIS2_PLACEMENT_3D ( 'NONE', #317, #168, #39 ) ;
#179 = SURFACE_SIDE_STYLE ('',( #72 ) ) ;
#180 = AXIS2_PLACEMENT_3D ( 'NONE', #19, #151, #21 ) ;
#181 = PRODUCT_DEFINITION_CONTEXT ( 'detailed design', #121, 'design' ) ;
#182 =( GEOMETRIC_REPRESENTATION_CONTEXT ( 3 ) GLOBAL_UNCERTAINTY_ASSIGNED_CONTEXT ( ( #2 ) ) GLOBAL_UNIT_ASSIGNED_CONTEXT ( ( #240, #191, #59 ) ) REPRESENTATION_CONTEXT ( 'NONE', 'WORKASPACE' ) );
#183 = LINE ( 'NONE', #188, #277 ) ;
#184 = CARTESIAN_POINT ( 'NONE',  ( -0.2500000000000000000, 0.0000000000000000000, 1.000000000000000000 ) ) ;
#185 = EDGE_CURVE ( 'NONE', #313, #140, #231, .T. ) ;
#186 = COLOUR_RGB ( '',0.7921568627450980005, 0.8196078431372548767, 0.9333333333333333481 ) ;
#187 = DIRECTION ( 'NONE',  ( -0.0000000000000000000, -0.0000000000000000000, -1.000000000000000000 ) ) ;
#188 = CARTESIAN_POINT ( 'NONE',  ( 0.007499999999999999722, 0.0000000000000000000, 1.707404996040164512E-17 ) ) ;
#189 = AXIS2_PLACEMENT_3D ( 'NONE', #145, #248, #296 ) ;
#190 = VERTEX_POINT ( 'NONE', #55 ) ;
#191 =( NAMED_UNIT ( * ) PLANE_ANGLE_UNIT ( ) SI_UNIT ( $, .RADIAN. ) );
#192 = MANIFOLD_SOLID_BREP ( 'Cut-Revolve4', #327 ) ;
#193 = VERTEX_POINT ( 'NONE', #269 ) ;
#194 = FACE_OUTER_BOUND ( 'NONE', #60, .T. ) ;
#195 = ORIENTED_EDGE ( 'NONE', *, *, #70, .T. ) ;
#196 = ADVANCED_FACE ( 'NONE', ( #111 ), #162, .F. ) ;
#197 = ORIENTED_EDGE ( 'NONE', *, *, #279, .T. ) ;
#198 = CARTESIAN_POINT ( 'NONE',  ( 0.2500000000000000000, 3.061616997868382402E-17, 1.000000000000000000 ) ) ;
#199 = VERTEX_POINT ( 'NONE', #324 ) ;
#200 = VECTOR ( 'NONE', #77, 39.37007874015748854 ) ;
#201 = PRODUCT ( 'Micro_DM-500-490X', 'Micro_DM-500-490X', '', ( #18 ) ) ;
#202 = DIRECTION ( 'NONE',  ( 1.000000000000000000, 0.0000000000000000000, 0.0000000000000000000 ) ) ;
#203 = FACE_OUTER_BOUND ( 'NONE', #289, .T. ) ;
#204 = DIRECTION ( 'NONE',  ( 1.000000000000000000, 0.0000000000000000000, 0.0000000000000000000 ) ) ;
#205 = CARTESIAN_POINT ( 'NONE',  ( -0.007499999999999999722, 1.576426592202430407E-17, 1.707404996040164512E-17 ) ) ;
#206 = AXIS2_PLACEMENT_3D ( 'NONE', #40, #149, #297 ) ;
#207 = CIRCLE ( 'NONE', #65, 0.2499500000000000333 ) ;
#208 = CONICAL_SURFACE ( 'NONE', #107, 0.2350000000000011524, 0.7853981633974380649 ) ;
#209 = SURFACE_STYLE_USAGE ( .BOTH. , #81 ) ;
#210 = CARTESIAN_POINT ( 'NONE',  ( 0.0000000000000000000, 0.0000000000000000000, 3.000000000000000444 ) ) ;
#211 = ORIENTED_EDGE ( 'NONE', *, *, #285, .F. ) ;
#212 = LINE ( 'NONE', #32, #222 ) ;
#213 = AXIS2_PLACEMENT_3D ( 'NONE', #309, #235, #135 ) ;
#214 = MECHANICAL_DESIGN_GEOMETRIC_PRESENTATION_REPRESENTATION (  '', ( #114 ), #303 ) ;
#215 = ORIENTED_EDGE ( 'NONE', *, *, #325, .T. ) ;
#216 = CARTESIAN_POINT ( 'NONE',  ( 0.0000000000000000000, 0.0000000000000000000, 0.0000000000000000000 ) ) ;
#217 = ORIENTED_EDGE ( 'NONE', *, *, #310, .F. ) ;
#218 = ORIENTED_EDGE ( 'NONE', *, *, #44, .T. ) ;
#219 = PRODUCT_DEFINITION ( 'UNKNOWN', '', #173, #181 ) ;
#220 = CARTESIAN_POINT ( 'NONE',  ( 0.0000000000000000000, 0.0000000000000000000, 0.2424499999999991384 ) ) ;
#221 = EDGE_LOOP ( 'NONE', ( #116, #245, #294, #136 ) ) ;
#222 = VECTOR ( 'NONE', #295, 39.37007874015748854 ) ;
#223 = CARTESIAN_POINT ( 'NONE',  ( 0.2350000000000011524, 2.969768487932338510E-17, 3.000000000000000444 ) ) ;
#224 = ADVANCED_FACE ( 'NONE', ( #36, #194 ), #144, .T. ) ;
#225 =( NAMED_UNIT ( * ) PLANE_ANGLE_UNIT ( ) SI_UNIT ( $, .RADIAN. ) );
#226 =( LENGTH_UNIT ( ) NAMED_UNIT ( * ) SI_UNIT ( $, .METRE. ) );
#227 = CIRCLE ( 'NONE', #213, 0.2350000000000011524 ) ;
#228 = SHAPE_DEFINITION_REPRESENTATION ( #75, #106 ) ;
#229 = CIRCLE ( 'NONE', #53, 0.2499500000000000333 ) ;
#230 = ORIENTED_EDGE ( 'NONE', *, *, #113, .T. ) ;
#231 = CIRCLE ( 'NONE', #43, 0.2500000000000000000 ) ;
#232 = DIRECTION ( 'NONE',  ( -0.0000000000000000000, -0.0000000000000000000, -1.000000000000000000 ) ) ;
#233 = ADVANCED_FACE ( 'NONE', ( #67 ), #57, .T. ) ;
#234 = DIRECTION ( 'NONE',  ( -1.000000000000000000, 0.0000000000000000000, 0.0000000000000000000 ) ) ;
#235 = DIRECTION ( 'NONE',  ( 0.0000000000000000000, 0.0000000000000000000, 1.000000000000000000 ) ) ;
#236 = FILL_AREA_STYLE ('',( #264 ) ) ;
#237 = EDGE_CURVE ( 'NONE', #271, #323, #212, .T. ) ;
#238 = AXIS2_PLACEMENT_3D ( 'NONE', #280, #26, #1 ) ;
#239 = ORIENTED_EDGE ( 'NONE', *, *, #131, .F. ) ;
#240 =( CONVERSION_BASED_UNIT ( 'INCH', #29 ) LENGTH_UNIT ( ) NAMED_UNIT ( #156 ) );
#241 = DIRECTION ( 'NONE',  ( -0.0000000000000000000, -0.0000000000000000000, -1.000000000000000000 ) ) ;
#242 = FACE_OUTER_BOUND ( 'NONE', #221, .T. ) ;
#243 = ORIENTED_EDGE ( 'NONE', *, *, #44, .F. ) ;
#244 = FACE_OUTER_BOUND ( 'NONE', #267, .T. ) ;
#245 = ORIENTED_EDGE ( 'NONE', *, *, #237, .T. ) ;
#246 = ADVANCED_FACE ( 'NONE', ( #64 ), #315, .T. ) ;
#247 = DIRECTION ( 'NONE',  ( -1.000000000000000000, 0.0000000000000000000, 0.0000000000000000000 ) ) ;
#248 = DIRECTION ( 'NONE',  ( 0.0000000000000000000, 0.0000000000000000000, -1.000000000000000000 ) ) ;
#249 = ORIENTED_EDGE ( 'NONE', *, *, #62, .F. ) ;
#250 = CARTESIAN_POINT ( 'NONE',  ( 0.0000000000000000000, 0.0000000000000000000, 3.000000000000000444 ) ) ;
#251 = CARTESIAN_POINT ( 'NONE',  ( 0.0000000000000000000, 0.0000000000000000000, 0.2424499999999991384 ) ) ;
#252 = EDGE_CURVE ( 'NONE', #199, #292, #172, .T. ) ;
#253 = CONICAL_SURFACE ( 'NONE', #84, 0.007499999999999999722, 0.7853981633974501664 ) ;
#254 =( LENGTH_UNIT ( ) NAMED_UNIT ( * ) SI_UNIT ( $, .METRE. ) );
#255 = CIRCLE ( 'NONE', #206, 0.2350000000000011524 ) ;
#256 = CIRCLE ( 'NONE', #11, 0.2500000000000000000 ) ;
#257 = CARTESIAN_POINT ( 'NONE',  ( 0.0000000000000000000, 0.0000000000000000000, 1.707404996040164512E-17 ) ) ;
#258 = DIRECTION ( 'NONE',  ( 0.0000000000000000000, 0.0000000000000000000, 1.000000000000000000 ) ) ;
#259 = CIRCLE ( 'NONE', #282, 0.007499999999999999722 ) ;
#260 = CYLINDRICAL_SURFACE ( 'NONE', #152, 0.2499500000000000888 ) ;
#261 = APPLICATION_PROTOCOL_DEFINITION ( 'draft international standard', 'automotive_design', 1998, #69 ) ;
#262 = DIRECTION ( 'NONE',  ( -1.000000000000000000, 0.0000000000000000000, 0.0000000000000000000 ) ) ;
#263 = UNCERTAINTY_MEASURE_WITH_UNIT (LENGTH_MEASURE( 1.000000000000000082E-05 ), #42, 'distance_accuracy_value', 'NONE');
#264 = FILL_AREA_STYLE_COLOUR ( '', #133 ) ;
#265 = VERTEX_POINT ( 'NONE', #61 ) ;
#266 = CARTESIAN_POINT ( 'NONE',  ( 0.0000000000000000000, 0.0000000000000000000, 3.000000000000000444 ) ) ;
#267 = EDGE_LOOP ( 'NONE', ( #31, #171, #218, #217 ) ) ;
#268 = ORIENTED_EDGE ( 'NONE', *, *, #3, .F. ) ;
#269 = CARTESIAN_POINT ( 'NONE',  ( 0.2499500000000000333, 0.0000000000000000000, 0.2424499999999991384 ) ) ;
#270 = AXIS2_PLACEMENT_3D ( 'NONE', #158, #22, #24 ) ;
#271 = VERTEX_POINT ( 'NONE', #223 ) ;
#272 = DIRECTION ( 'NONE',  ( -0.0000000000000000000, -0.0000000000000000000, -1.000000000000000000 ) ) ;
#273 = ORIENTED_EDGE ( 'NONE', *, *, #252, .F. ) ;
#274 = ORIENTED_EDGE ( 'NONE', *, *, #185, .F. ) ;
#275 = LENGTH_MEASURE_WITH_UNIT ( LENGTH_MEASURE( 0.02539999999999999897 ), #254 );
#276 =( NAMED_UNIT ( * ) PLANE_ANGLE_UNIT ( ) SI_UNIT ( $, .RADIAN. ) );
#277 = VECTOR ( 'NONE', #49, 39.37007874015748143 ) ;
#278 =( GEOMETRIC_REPRESENTATION_CONTEXT ( 3 ) GLOBAL_UNCERTAINTY_ASSIGNED_CONTEXT ( ( #5 ) ) GLOBAL_UNIT_ASSIGNED_CONTEXT ( ( #305, #225, #301 ) ) REPRESENTATION_CONTEXT ( 'NONE', 'WORKASPACE' ) );
#279 = EDGE_CURVE ( 'NONE', #190, #140, #89, .T. ) ;
#280 = CARTESIAN_POINT ( 'NONE',  ( 0.0000000000000000000, 0.0000000000000000000, 3.000000000000000444 ) ) ;
#281 = AXIS2_PLACEMENT_3D ( 'NONE', #293, #117, #247 ) ;
#282 = AXIS2_PLACEMENT_3D ( 'NONE', #299, #176, #155 ) ;
#283 = DIRECTION ( 'NONE',  ( -0.0000000000000000000, -0.0000000000000000000, -1.000000000000000000 ) ) ;
#284 = DIRECTION ( 'NONE',  ( 0.0000000000000000000, 0.0000000000000000000, 1.000000000000000000 ) ) ;
#285 = EDGE_CURVE ( 'NONE', #292, #199, #23, .T. ) ;
#286 = PRODUCT_RELATED_PRODUCT_CATEGORY ( 'part', '', ( #201 ) ) ;
#287 = VERTEX_POINT ( 'NONE', #288 ) ;
#288 = CARTESIAN_POINT ( 'NONE',  ( -0.2499500000000000333, 3.061004674468809528E-17, 0.2424499999999991384 ) ) ;
#289 = EDGE_LOOP ( 'NONE', ( #239, #58, #10, #88 ) ) ;
#290 = CARTESIAN_POINT ( 'NONE',  ( 0.0000000000000000000, 0.0000000000000000000, 0.0000000000000000000 ) ) ;
#291 = ADVANCED_FACE ( 'NONE', ( #242 ), #208, .T. ) ;
#292 = VERTEX_POINT ( 'NONE', #139 ) ;
#293 = CARTESIAN_POINT ( 'NONE',  ( 0.2499500000000001165, 0.0000000000000000000, 1.000000000000000000 ) ) ;
#294 = ORIENTED_EDGE ( 'NONE', *, *, #325, .F. ) ;
#295 = DIRECTION ( 'NONE',  ( 0.7071067811865402453, 8.659560562354845344E-17, -0.7071067811865546782 ) ) ;
#296 = DIRECTION ( 'NONE',  ( 1.000000000000000000, 0.0000000000000000000, 0.0000000000000000000 ) ) ;
#297 = DIRECTION ( 'NONE',  ( 1.000000000000000000, 0.0000000000000000000, 0.0000000000000000000 ) ) ;
#298 = ADVANCED_FACE ( 'NONE', ( #244 ), #115, .T. ) ;
#299 = CARTESIAN_POINT ( 'NONE',  ( 0.0000000000000000000, 0.0000000000000000000, 1.707404996040164512E-17 ) ) ;
#300 = DIRECTION ( 'NONE',  ( -0.0000000000000000000, -0.0000000000000000000, -1.000000000000000000 ) ) ;
#301 =( NAMED_UNIT ( * ) SI_UNIT ( $, .STERADIAN. ) SOLID_ANGLE_UNIT ( ) );
#302 = FILL_AREA_STYLE_COLOUR ( '', #186 ) ;
#303 =( GEOMETRIC_REPRESENTATION_CONTEXT ( 3 ) GLOBAL_UNCERTAINTY_ASSIGNED_CONTEXT ( ( #263 ) ) GLOBAL_UNIT_ASSIGNED_CONTEXT ( ( #42, #276, #47 ) ) REPRESENTATION_CONTEXT ( 'NONE', 'WORKASPACE' ) );
#304 = LENGTH_MEASURE_WITH_UNIT ( LENGTH_MEASURE( 0.02539999999999999897 ), #226 );
#305 =( CONVERSION_BASED_UNIT ( 'INCH', #275 ) LENGTH_UNIT ( ) NAMED_UNIT ( #46 ) );
#306 = CARTESIAN_POINT ( 'NONE',  ( -0.2350000000000011524, 0.0000000000000000000, 3.000000000000000444 ) ) ;
#307 = LINE ( 'NONE', #78, #160 ) ;
#308 = AXIS2_PLACEMENT_3D ( 'NONE', #329, #99, #202 ) ;
#309 = CARTESIAN_POINT ( 'NONE',  ( 0.0000000000000000000, 0.0000000000000000000, 3.000000000000000444 ) ) ;
#310 = EDGE_CURVE ( 'NONE', #193, #287, #229, .T. ) ;
#311 = PRESENTATION_STYLE_ASSIGNMENT (( #209 ) ) ;
#312 = LINE ( 'NONE', #132, #92 ) ;
#313 = VERTEX_POINT ( 'NONE', #198 ) ;
#314 = EDGE_CURVE ( 'NONE', #134, #90, #259, .T. ) ;
#315 = CYLINDRICAL_SURFACE ( 'NONE', #178, 0.2500000000000000000 ) ;
#316 = ORIENTED_EDGE ( 'NONE', *, *, #279, .F. ) ;
#317 = CARTESIAN_POINT ( 'NONE',  ( 0.0000000000000000000, 0.0000000000000000000, 3.000000000000000444 ) ) ;
#318 = ORIENTED_EDGE ( 'NONE', *, *, #113, .F. ) ;
#319 = DIRECTION ( 'NONE',  ( 0.0000000000000000000, 0.0000000000000000000, 1.000000000000000000 ) ) ;
#320 = ORIENTED_EDGE ( 'NONE', *, *, #252, .T. ) ;
#321 = DIRECTION ( 'NONE',  ( -0.0000000000000000000, -0.0000000000000000000, -1.000000000000000000 ) ) ;
#322 = STYLED_ITEM ( 'NONE', ( #311 ), #192 ) ;
#323 = VERTEX_POINT ( 'NONE', #326 ) ;
#324 = CARTESIAN_POINT ( 'NONE',  ( -0.2499500000000001165, 0.0000000000000000000, 1.000000000000000000 ) ) ;
#325 = EDGE_CURVE ( 'NONE', #190, #323, #124, .T. ) ;
#326 = CARTESIAN_POINT ( 'NONE',  ( 0.2500000000000000000, 3.061616997868382402E-17, 2.985000000000001208 ) ) ;
#327 = CLOSED_SHELL ( 'NONE', ( #94, #147, #291, #125, #246, #233, #76, #224, #51, #298, #196 ) ) ;
#328 = ORIENTED_EDGE ( 'NONE', *, *, #142, .T. ) ;
#329 = CARTESIAN_POINT ( 'NONE',  ( 0.0000000000000000000, 0.0000000000000000000, 0.0000000000000000000 ) ) ;
ENDSEC;
END-ISO-10303-21;
