ISO-10303-21;
HEADER;
FILE_DESCRIPTION (( 'STEP AP214' ),
    '1' );
FILE_NAME ('Micro_BMS-040-2.STEP',
    '2021-09-03T15:19:15',
    ( '' ),
    ( '' ),
    'SwSTEP 2.0',
    'SolidWorks 2020',
    '' );
FILE_SCHEMA (( 'AUTOMOTIVE_DESIGN' ));
ENDSEC;

DATA;
#1 = CYLINDRICAL_SURFACE ( 'NONE', #246, 0.06250000000000000000 ) ;
#2 = DIRECTION ( 'NONE',  ( -0.0000000000000000000, -0.0000000000000000000, -1.000000000000000000 ) ) ;
#3 = EDGE_LOOP ( 'NONE', ( #292, #189, #124, #59 ) ) ;
#4 = CIRCLE ( 'NONE', #10, 0.01998000000000000123 ) ;
#5 = DIRECTION ( 'NONE',  ( -0.0000000000000000000, -0.0000000000000000000, -1.000000000000000000 ) ) ;
#6 = EDGE_CURVE ( 'NONE', #13, #37, #305, .T. ) ;
#7 = EDGE_LOOP ( 'NONE', ( #80, #238, #239, #119 ) ) ;
#8 = VECTOR ( 'NONE', #247, 39.37007874015748143 ) ;
#9 = LINE ( 'NONE', #162, #256 ) ;
#10 = AXIS2_PLACEMENT_3D ( 'NONE', #92, #228, #204 ) ;
#11 = ORIENTED_EDGE ( 'NONE', *, *, #240, .F. ) ;
#12 =( NAMED_UNIT ( * ) SI_UNIT ( $, .STERADIAN. ) SOLID_ANGLE_UNIT ( ) );
#13 = VERTEX_POINT ( 'NONE', #290 ) ;
#14 = EDGE_LOOP ( 'NONE', ( #317, #225, #211, #213 ) ) ;
#15 = DIRECTION ( 'NONE',  ( -1.224646799147353454E-16, -0.0000000000000000000, -1.000000000000000000 ) ) ;
#16 = CARTESIAN_POINT ( 'NONE',  ( 2.446844304696412268E-18, 0.0000000000000000000, 0.01998000000000000123 ) ) ;
#17 = PLANE ( 'NONE',  #98 ) ;
#18 = AXIS2_PLACEMENT_3D ( 'NONE', #276, #15, #22 ) ;
#19 = EDGE_CURVE ( 'NONE', #55, #166, #174, .T. ) ;
#20 = MECHANICAL_DESIGN_GEOMETRIC_PRESENTATION_REPRESENTATION (  '', ( #31 ), #36 ) ;
#21 = CARTESIAN_POINT ( 'NONE',  ( 2.446844304696412268E-18, 0.0000000000000000000, 0.01998000000000000123 ) ) ;
#22 = DIRECTION ( 'NONE',  ( -1.000000000000000000, 0.0000000000000000000, 0.0000000000000000000 ) ) ;
#23 = DIRECTION ( 'NONE',  ( 1.000000000000000000, 0.0000000000000000000, 0.0000000000000000000 ) ) ;
#24 = VECTOR ( 'NONE', #191, 39.37007874015748143 ) ;
#25 =( GEOMETRIC_REPRESENTATION_CONTEXT ( 3 ) GLOBAL_UNCERTAINTY_ASSIGNED_CONTEXT ( ( #89 ) ) GLOBAL_UNIT_ASSIGNED_CONTEXT ( ( #254, #157, #263 ) ) REPRESENTATION_CONTEXT ( 'NONE', 'WORKASPACE' ) );
#26 = CARTESIAN_POINT ( 'NONE',  ( -0.04750000000000064587, 0.0000000000000000000, 1.500000000000000222 ) ) ;
#27 = DIRECTION ( 'NONE',  ( -1.224646799147353454E-16, -0.0000000000000000000, -1.000000000000000000 ) ) ;
#28 = ORIENTED_EDGE ( 'NONE', *, *, #123, .F. ) ;
#29 = PRODUCT_DEFINITION ( 'UNKNOWN', '', #301, #146 ) ;
#30 = AXIS2_PLACEMENT_3D ( 'NONE', #16, #47, #109 ) ;
#31 = STYLED_ITEM ( 'NONE', ( #231 ), #229 ) ;
#32 = FILL_AREA_STYLE ('',( #201 ) ) ;
#33 = ORIENTED_EDGE ( 'NONE', *, *, #161, .F. ) ;
#34 = CARTESIAN_POINT ( 'NONE',  ( 0.0000000000000000000, 0.0000000000000000000, 1.500000000000000222 ) ) ;
#35 = FILL_AREA_STYLE ('',( #164 ) ) ;
#36 =( GEOMETRIC_REPRESENTATION_CONTEXT ( 3 ) GLOBAL_UNCERTAINTY_ASSIGNED_CONTEXT ( ( #136 ) ) GLOBAL_UNIT_ASSIGNED_CONTEXT ( ( #38, #291, #160 ) ) REPRESENTATION_CONTEXT ( 'NONE', 'WORKASPACE' ) );
#37 = VERTEX_POINT ( 'NONE', #235 ) ;
#38 =( CONVERSION_BASED_UNIT ( 'INCH', #77 ) LENGTH_UNIT ( ) NAMED_UNIT ( #156 ) );
#39 = DIRECTION ( 'NONE',  ( 0.0000000000000000000, 0.0000000000000000000, -1.000000000000000000 ) ) ;
#40 = ORIENTED_EDGE ( 'NONE', *, *, #192, .T. ) ;
#41 = FACE_OUTER_BOUND ( 'NONE', #14, .T. ) ;
#42 = DIRECTION ( 'NONE',  ( -1.224646799147353454E-16, -0.0000000000000000000, -1.000000000000000000 ) ) ;
#43 = DIRECTION ( 'NONE',  ( 1.000000000000000000, 0.0000000000000000000, 0.0000000000000000000 ) ) ;
#44 = EDGE_CURVE ( 'NONE', #13, #209, #9, .T. ) ;
#45 = DIRECTION ( 'NONE',  ( -1.000000000000000000, 0.0000000000000000000, 0.0000000000000000000 ) ) ;
#46 = CONICAL_SURFACE ( 'NONE', #314, 0.04750000000000064587, 0.7853981633974457255 ) ;
#47 = DIRECTION ( 'NONE',  ( 1.224646799147353207E-16, 1.000000000000000000, -0.0000000000000000000 ) ) ;
#48 = CARTESIAN_POINT ( 'NONE',  ( 0.0000000000000000000, 0.0000000000000000000, 1.500000000000000222 ) ) ;
#49 = AXIS2_PLACEMENT_3D ( 'NONE', #196, #65, #113 ) ;
#50 = CYLINDRICAL_SURFACE ( 'NONE', #321, 0.06250000000000000000 ) ;
#51 = CARTESIAN_POINT ( 'NONE',  ( -0.06249999999999996531, 0.0000000000000000000, 0.3011429029701436777 ) ) ;
#52 = CARTESIAN_POINT ( 'NONE',  ( 0.0000000000000000000, 0.0000000000000000000, 1.500000000000000222 ) ) ;
#53 = CIRCLE ( 'NONE', #203, 0.06250000000000000000 ) ;
#54 =( LENGTH_UNIT ( ) NAMED_UNIT ( * ) SI_UNIT ( $, .METRE. ) );
#55 = VERTEX_POINT ( 'NONE', #274 ) ;
#56 = EDGE_LOOP ( 'NONE', ( #104, #258, #97 ) ) ;
#57 = EDGE_LOOP ( 'NONE', ( #40, #165, #241, #187 ) ) ;
#58 = ORIENTED_EDGE ( 'NONE', *, *, #227, .F. ) ;
#59 = ORIENTED_EDGE ( 'NONE', *, *, #293, .F. ) ;
#60 = EDGE_CURVE ( 'NONE', #252, #294, #67, .T. ) ;
#61 = DIRECTION ( 'NONE',  ( -1.000000000000000000, 0.0000000000000000000, 2.136392637687893513E-16 ) ) ;
#62 = FACE_OUTER_BOUND ( 'NONE', #107, .T. ) ;
#63 = AXIS2_PLACEMENT_3D ( 'NONE', #221, #300, #304 ) ;
#64 = ADVANCED_FACE ( 'NONE', ( #303 ), #86, .T. ) ;
#65 = DIRECTION ( 'NONE',  ( 0.0000000000000000000, 1.000000000000000000, 0.0000000000000000000 ) ) ;
#66 = CARTESIAN_POINT ( 'NONE',  ( 2.446844304696412268E-18, 0.0000000000000000000, 0.01998000000000000123 ) ) ;
#67 = CIRCLE ( 'NONE', #18, 0.01998000000000000470 ) ;
#68 = CARTESIAN_POINT ( 'NONE',  ( 0.0000000000000000000, 0.0000000000000000000, 1.485000000000000764 ) ) ;
#69 = ADVANCED_FACE ( 'NONE', ( #62 ), #17, .T. ) ;
#70 = DIRECTION ( 'NONE',  ( -1.000000000000000000, 0.0000000000000000000, 0.0000000000000000000 ) ) ;
#71 = PRESENTATION_STYLE_ASSIGNMENT (( #308 ) ) ;
#72 = CARTESIAN_POINT ( 'NONE',  ( -0.06250000000000000000, 0.0000000000000000000, 1.500000000000000222 ) ) ;
#73 = DIRECTION ( 'NONE',  ( -0.0000000000000000000, -0.0000000000000000000, -1.000000000000000000 ) ) ;
#74 = EDGE_CURVE ( 'NONE', #180, #233, #148, .T. ) ;
#75 = CIRCLE ( 'NONE', #275, 0.04750000000000064587 ) ;
#76 = CARTESIAN_POINT ( 'NONE',  ( 0.0000000000000000000, 0.0000000000000000000, 1.485000000000000764 ) ) ;
#77 = LENGTH_MEASURE_WITH_UNIT ( LENGTH_MEASURE( 0.02539999999999999897 ), #102 );
#78 = ORIENTED_EDGE ( 'NONE', *, *, #253, .T. ) ;
#79 = APPLICATION_PROTOCOL_DEFINITION ( 'draft international standard', 'automotive_design', 1998, #264 ) ;
#80 = ORIENTED_EDGE ( 'NONE', *, *, #154, .F. ) ;
#81 = ADVANCED_FACE ( 'NONE', ( #144 ), #242, .T. ) ;
#82 = ORIENTED_EDGE ( 'NONE', *, *, #123, .T. ) ;
#83 = ORIENTED_EDGE ( 'NONE', *, *, #232, .F. ) ;
#84 = FACE_OUTER_BOUND ( 'NONE', #125, .T. ) ;
#85 = EDGE_CURVE ( 'NONE', #180, #318, #168, .T. ) ;
#86 = CONICAL_SURFACE ( 'NONE', #63, 0.01998000000000000470, 0.1745329251994338915 ) ;
#87 = CARTESIAN_POINT ( 'NONE',  ( 0.04750000000000064587, 5.817072295950006528E-18, 1.500000000000000222 ) ) ;
#88 = VECTOR ( 'NONE', #73, 39.37007874015748143 ) ;
#89 = UNCERTAINTY_MEASURE_WITH_UNIT (LENGTH_MEASURE( 1.000000000000000082E-05 ), #254, 'distance_accuracy_value', 'NONE');
#90 = DIRECTION ( 'NONE',  ( -1.000000000000000000, 0.0000000000000000000, 1.224646799147353454E-16 ) ) ;
#91 = CARTESIAN_POINT ( 'NONE',  ( 3.670266457044618402E-18, 0.0000000000000000000, 0.0000000000000000000 ) ) ;
#92 = CARTESIAN_POINT ( 'NONE',  ( 2.446844304696412268E-18, 0.0000000000000000000, 0.01998000000000000123 ) ) ;
#93 = DIRECTION ( 'NONE',  ( -0.1736481776669311916, 2.126576849575783316E-17, 0.9848077530122080203 ) ) ;
#94 = CARTESIAN_POINT ( 'NONE',  ( -0.01997999999999999776, 5.050443399683684906E-18, 0.05999999999999999778 ) ) ;
#95 = ADVANCED_FACE ( 'NONE', ( #41 ), #106, .T. ) ;
#96 = DIRECTION ( 'NONE',  ( -1.224646799147353454E-16, -0.0000000000000000000, -1.000000000000000000 ) ) ;
#97 = ORIENTED_EDGE ( 'NONE', *, *, #217, .F. ) ;
#98 = AXIS2_PLACEMENT_3D ( 'NONE', #167, #111, #108 ) ;
#99 = AXIS2_PLACEMENT_3D ( 'NONE', #286, #96, #249 ) ;
#100 = DIRECTION ( 'NONE',  ( -1.000000000000000000, 0.0000000000000000000, 1.224646799147353454E-16 ) ) ;
#101 = ORIENTED_EDGE ( 'NONE', *, *, #192, .F. ) ;
#102 =( LENGTH_UNIT ( ) NAMED_UNIT ( * ) SI_UNIT ( $, .METRE. ) );
#103 = DIRECTION ( 'NONE',  ( 1.000000000000000000, 0.0000000000000000000, 0.0000000000000000000 ) ) ;
#104 = ORIENTED_EDGE ( 'NONE', *, *, #74, .F. ) ;
#105 = ORIENTED_EDGE ( 'NONE', *, *, #137, .T. ) ;
#106 = CONICAL_SURFACE ( 'NONE', #110, 0.04750000000000064587, 0.7853981633974457255 ) ;
#107 = EDGE_LOOP ( 'NONE', ( #316, #78 ) ) ;
#108 = DIRECTION ( 'NONE',  ( 1.000000000000000000, 0.0000000000000000000, -0.0000000000000000000 ) ) ;
#109 = DIRECTION ( 'NONE',  ( -1.000000000000000000, 1.224646799147353207E-16, 0.0000000000000000000 ) ) ;
#110 = AXIS2_PLACEMENT_3D ( 'NONE', #215, #140, #45 ) ;
#111 = DIRECTION ( 'NONE',  ( 0.0000000000000000000, 0.0000000000000000000, 1.000000000000000000 ) ) ;
#112 = CIRCLE ( 'NONE', #143, 0.01998000000000000470 ) ;
#113 = DIRECTION ( 'NONE',  ( 1.000000000000000000, 0.0000000000000000000, 0.0000000000000000000 ) ) ;
#114 = LINE ( 'NONE', #87, #24 ) ;
#115 = DIRECTION ( 'NONE',  ( -1.224646799147353454E-16, -0.0000000000000000000, -1.000000000000000000 ) ) ;
#116 = FACE_OUTER_BOUND ( 'NONE', #3, .T. ) ;
#117 = ADVANCED_FACE ( 'NONE', ( #170 ), #269, .T. ) ;
#118 = CARTESIAN_POINT ( 'NONE',  ( 0.06250000000000002776, 7.654042494670959086E-18, 0.3011429029701436777 ) ) ;
#119 = ORIENTED_EDGE ( 'NONE', *, *, #217, .T. ) ;
#120 = DIMENSIONAL_EXPONENTS ( 1.000000000000000000, 0.0000000000000000000, 0.0000000000000000000, 0.0000000000000000000, 0.0000000000000000000, 0.0000000000000000000, 0.0000000000000000000 ) ;
#121 = LINE ( 'NONE', #72, #88 ) ;
#122 = SURFACE_STYLE_FILL_AREA ( #32 ) ;
#123 = EDGE_CURVE ( 'NONE', #318, #233, #153, .T. ) ;
#124 = ORIENTED_EDGE ( 'NONE', *, *, #199, .T. ) ;
#125 = EDGE_LOOP ( 'NONE', ( #11, #265, #105, #261 ) ) ;
#126 = CLOSED_SHELL ( 'NONE', ( #176, #186, #64, #277, #266, #281, #69, #95, #147, #81, #117 ) ) ;
#127 = AXIS2_PLACEMENT_3D ( 'NONE', #183, #260, #132 ) ;
#128 = PRESENTATION_LAYER_ASSIGNMENT (  '', '', ( #31 ) ) ;
#129 = APPLICATION_PROTOCOL_DEFINITION ( 'draft international standard', 'automotive_design', 1998, #226 ) ;
#130 = ORIENTED_EDGE ( 'NONE', *, *, #195, .T. ) ;
#131 = EDGE_CURVE ( 'NONE', #166, #13, #114, .T. ) ;
#132 = DIRECTION ( 'NONE',  ( 1.000000000000000000, 0.0000000000000000000, 0.0000000000000000000 ) ) ;
#133 = DIRECTION ( 'NONE',  ( 0.0000000000000000000, 0.0000000000000000000, 1.000000000000000000 ) ) ;
#134 = SURFACE_SIDE_STYLE ('',( #234 ) ) ;
#135 = EDGE_LOOP ( 'NONE', ( #288, #158, #101, #58 ) ) ;
#136 = UNCERTAINTY_MEASURE_WITH_UNIT (LENGTH_MEASURE( 1.000000000000000082E-05 ), #38, 'distance_accuracy_value', 'NONE');
#137 = EDGE_CURVE ( 'NONE', #252, #209, #138, .T. ) ;
#138 = LINE ( 'NONE', #319, #280 ) ;
#139 = DIRECTION ( 'NONE',  ( 1.224646799147353454E-16, 0.0000000000000000000, 1.000000000000000000 ) ) ;
#140 = DIRECTION ( 'NONE',  ( 0.0000000000000000000, 0.0000000000000000000, -1.000000000000000000 ) ) ;
#141 = AXIS2_PLACEMENT_3D ( 'NONE', #175, #27, #23 ) ;
#142 = CARTESIAN_POINT ( 'NONE',  ( 0.0000000000000000000, 0.0000000000000000000, 0.0000000000000000000 ) ) ;
#143 = AXIS2_PLACEMENT_3D ( 'NONE', #150, #115, #178 ) ;
#144 = FACE_OUTER_BOUND ( 'NONE', #7, .T. ) ;
#145 = DIRECTION ( 'NONE',  ( 1.000000000000000000, 0.0000000000000000000, 0.0000000000000000000 ) ) ;
#146 = PRODUCT_DEFINITION_CONTEXT ( 'detailed design', #264, 'design' ) ;
#147 = ADVANCED_FACE ( 'NONE', ( #84 ), #295, .T. ) ;
#148 = CIRCLE ( 'NONE', #30, 0.01998000000000000123 ) ;
#149 = VECTOR ( 'NONE', #200, 39.37007874015748143 ) ;
#150 = CARTESIAN_POINT ( 'NONE',  ( 7.347880794884121462E-18, 0.0000000000000000000, 0.05999999999999999778 ) ) ;
#151 = LENGTH_MEASURE_WITH_UNIT ( LENGTH_MEASURE( 0.02539999999999999897 ), #230 );
#152 = CARTESIAN_POINT ( 'NONE',  ( -0.01997999999999999776, 2.446844304696412268E-18, 0.05999999999999999778 ) ) ;
#153 = CIRCLE ( 'NONE', #179, 0.01998000000000000123 ) ;
#154 = EDGE_CURVE ( 'NONE', #252, #318, #219, .T. ) ;
#155 = ORIENTED_EDGE ( 'NONE', *, *, #154, .T. ) ;
#156 = DIMENSIONAL_EXPONENTS ( 1.000000000000000000, 0.0000000000000000000, 0.0000000000000000000, 0.0000000000000000000, 0.0000000000000000000, 0.0000000000000000000, 0.0000000000000000000 ) ;
#157 =( NAMED_UNIT ( * ) PLANE_ANGLE_UNIT ( ) SI_UNIT ( $, .RADIAN. ) );
#158 = ORIENTED_EDGE ( 'NONE', *, *, #131, .T. ) ;
#159 = DIMENSIONAL_EXPONENTS ( 1.000000000000000000, 0.0000000000000000000, 0.0000000000000000000, 0.0000000000000000000, 0.0000000000000000000, 0.0000000000000000000, 0.0000000000000000000 ) ;
#160 =( NAMED_UNIT ( * ) SI_UNIT ( $, .STERADIAN. ) SOLID_ANGLE_UNIT ( ) );
#161 = EDGE_CURVE ( 'NONE', #294, #233, #172, .T. ) ;
#162 = CARTESIAN_POINT ( 'NONE',  ( 0.06250000000000000000, 7.654042494670956004E-18, 1.500000000000000222 ) ) ;
#163 = AXIS2_PLACEMENT_3D ( 'NONE', #306, #202, #100 ) ;
#164 = FILL_AREA_STYLE_COLOUR ( '', #282 ) ;
#165 = ORIENTED_EDGE ( 'NONE', *, *, #44, .T. ) ;
#166 = VERTEX_POINT ( 'NONE', #273 ) ;
#167 = CARTESIAN_POINT ( 'NONE',  ( 0.0000000000000000000, 0.0000000000000000000, 1.500000000000000222 ) ) ;
#168 = CIRCLE ( 'NONE', #287, 0.01998000000000000123 ) ;
#169 = COLOUR_RGB ( '',0.7921568627450980005, 0.8196078431372548767, 0.9333333333333333481 ) ;
#170 = FACE_OUTER_BOUND ( 'NONE', #56, .T. ) ;
#171 = CARTESIAN_POINT ( 'NONE',  ( -0.01998000000000000123, 0.0000000000000000000, 2.446844304696412268E-18 ) ) ;
#172 = LINE ( 'NONE', #171, #8 ) ;
#173 = PRODUCT ( 'Micro_BMS-040-2', 'Micro_BMS-040-2', '', ( #237 ) ) ;
#174 = CIRCLE ( 'NONE', #236, 0.04750000000000064587 ) ;
#175 = CARTESIAN_POINT ( 'NONE',  ( 3.687936922083284908E-17, 0.0000000000000000000, 0.3011429029701436777 ) ) ;
#176 = ADVANCED_FACE ( 'NONE', ( #244 ), #322, .T. ) ;
#177 = DIRECTION ( 'NONE',  ( 0.0000000000000000000, 0.0000000000000000000, -1.000000000000000000 ) ) ;
#178 = DIRECTION ( 'NONE',  ( -1.000000000000000000, 0.0000000000000000000, 0.0000000000000000000 ) ) ;
#179 = AXIS2_PLACEMENT_3D ( 'NONE', #21, #139, #61 ) ;
#180 = VERTEX_POINT ( 'NONE', #91 ) ;
#181 = CARTESIAN_POINT ( 'NONE',  ( 0.0000000000000000000, 0.0000000000000000000, 1.500000000000000222 ) ) ;
#182 = LINE ( 'NONE', #152, #271 ) ;
#183 = CARTESIAN_POINT ( 'NONE',  ( 0.0000000000000000000, 0.0000000000000000000, 0.0000000000000000000 ) ) ;
#184 = MECHANICAL_DESIGN_GEOMETRIC_PRESENTATION_REPRESENTATION (  '', ( #310 ), #25 ) ;
#185 = DIRECTION ( 'NONE',  ( 1.000000000000000000, 0.0000000000000000000, 0.0000000000000000000 ) ) ;
#186 = ADVANCED_FACE ( 'NONE', ( #323 ), #197, .T. ) ;
#187 = ORIENTED_EDGE ( 'NONE', *, *, #199, .F. ) ;
#188 = SHAPE_DEFINITION_REPRESENTATION ( #267, #229 ) ;
#189 = ORIENTED_EDGE ( 'NONE', *, *, #6, .T. ) ;
#190 = EDGE_LOOP ( 'NONE', ( #268, #155, #82, #33 ) ) ;
#191 = DIRECTION ( 'NONE',  ( 0.7071067811865456854, 8.659560562354911904E-17, -0.7071067811865493491 ) ) ;
#192 = EDGE_CURVE ( 'NONE', #37, #13, #53, .T. ) ;
#193 = DIRECTION ( 'NONE',  ( 1.224646799147353454E-16, 0.0000000000000000000, 1.000000000000000000 ) ) ;
#194 = CARTESIAN_POINT ( 'NONE',  ( 0.01998000000000000123, 2.446844304696411883E-18, -2.446844304696412268E-18 ) ) ;
#195 = EDGE_CURVE ( 'NONE', #284, #209, #270, .T. ) ;
#196 = CARTESIAN_POINT ( 'NONE',  ( 2.446844304696412268E-18, 0.0000000000000000000, 0.01998000000000000123 ) ) ;
#197 = CYLINDRICAL_SURFACE ( 'NONE', #163, 0.01998000000000000123 ) ;
#198 = DIRECTION ( 'NONE',  ( -1.000000000000000000, 0.0000000000000000000, 0.0000000000000000000 ) ) ;
#199 = EDGE_CURVE ( 'NONE', #37, #284, #121, .T. ) ;
#200 = DIRECTION ( 'NONE',  ( -0.7071067811865456854, 0.0000000000000000000, -0.7071067811865493491 ) ) ;
#201 = FILL_AREA_STYLE_COLOUR ( '', #169 ) ;
#202 = DIRECTION ( 'NONE',  ( -1.224646799147353454E-16, -0.0000000000000000000, -1.000000000000000000 ) ) ;
#203 = AXIS2_PLACEMENT_3D ( 'NONE', #68, #251, #222 ) ;
#204 = DIRECTION ( 'NONE',  ( -1.000000000000000000, 0.0000000000000000000, 2.136392637687893513E-16 ) ) ;
#205 = LENGTH_MEASURE_WITH_UNIT ( LENGTH_MEASURE( 0.02539999999999999897 ), #54 );
#206 = ORIENTED_EDGE ( 'NONE', *, *, #74, .T. ) ;
#207 = AXIS2_PLACEMENT_3D ( 'NONE', #243, #193, #43 ) ;
#208 = SURFACE_STYLE_USAGE ( .BOTH. , #134 ) ;
#209 = VERTEX_POINT ( 'NONE', #118 ) ;
#210 = EDGE_LOOP ( 'NONE', ( #83, #298, #130, #315 ) ) ;
#211 = ORIENTED_EDGE ( 'NONE', *, *, #227, .T. ) ;
#212 = AXIS2_PLACEMENT_3D ( 'NONE', #142, #320, #90 ) ;
#213 = ORIENTED_EDGE ( 'NONE', *, *, #6, .F. ) ;
#214 = UNCERTAINTY_MEASURE_WITH_UNIT (LENGTH_MEASURE( 1.000000000000000082E-05 ), #257, 'distance_accuracy_value', 'NONE');
#215 = CARTESIAN_POINT ( 'NONE',  ( 0.0000000000000000000, 0.0000000000000000000, 1.500000000000000222 ) ) ;
#216 = DIRECTION ( 'NONE',  ( 0.0000000000000000000, -1.000000000000000000, 0.0000000000000000000 ) ) ;
#217 = EDGE_CURVE ( 'NONE', #233, #318, #4, .T. ) ;
#218 = VECTOR ( 'NONE', #42, 39.37007874015748143 ) ;
#219 = LINE ( 'NONE', #194, #218 ) ;
#220 = DIRECTION ( 'NONE',  ( -0.0000000000000000000, -0.0000000000000000000, -1.000000000000000000 ) ) ;
#221 = CARTESIAN_POINT ( 'NONE',  ( 7.347880794884121462E-18, 0.0000000000000000000, 0.05999999999999999778 ) ) ;
#222 = DIRECTION ( 'NONE',  ( 1.000000000000000000, 0.0000000000000000000, 0.0000000000000000000 ) ) ;
#223 = CARTESIAN_POINT ( 'NONE',  ( 0.01998000000000001511, 0.0000000000000000000, 0.05999999999999999778 ) ) ;
#224 = FACE_OUTER_BOUND ( 'NONE', #57, .T. ) ;
#225 = ORIENTED_EDGE ( 'NONE', *, *, #19, .F. ) ;
#226 = APPLICATION_CONTEXT ( 'automotive_design' ) ;
#227 = EDGE_CURVE ( 'NONE', #55, #37, #311, .T. ) ;
#228 = DIRECTION ( 'NONE',  ( 1.224646799147353454E-16, 0.0000000000000000000, 1.000000000000000000 ) ) ;
#229 = ADVANCED_BREP_SHAPE_REPRESENTATION ( 'Micro_BMS-040-2', ( #307, #127 ), #283 ) ;
#230 =( LENGTH_UNIT ( ) NAMED_UNIT ( * ) SI_UNIT ( $, .METRE. ) );
#231 = PRESENTATION_STYLE_ASSIGNMENT (( #208 ) ) ;
#232 = EDGE_CURVE ( 'NONE', #294, #252, #112, .T. ) ;
#233 = VERTEX_POINT ( 'NONE', #325 ) ;
#234 = SURFACE_STYLE_FILL_AREA ( #35 ) ;
#235 = CARTESIAN_POINT ( 'NONE',  ( -0.06250000000000000000, 0.0000000000000000000, 1.485000000000000764 ) ) ;
#236 = AXIS2_PLACEMENT_3D ( 'NONE', #34, #133, #103 ) ;
#237 = PRODUCT_CONTEXT ( 'NONE', #226, 'mechanical' ) ;
#238 = ORIENTED_EDGE ( 'NONE', *, *, #60, .T. ) ;
#239 = ORIENTED_EDGE ( 'NONE', *, *, #161, .T. ) ;
#240 = EDGE_CURVE ( 'NONE', #294, #284, #182, .T. ) ;
#241 = ORIENTED_EDGE ( 'NONE', *, *, #195, .F. ) ;
#242 = CYLINDRICAL_SURFACE ( 'NONE', #212, 0.01998000000000000123 ) ;
#243 = CARTESIAN_POINT ( 'NONE',  ( 7.347880794884121462E-18, 0.0000000000000000000, 0.05999999999999999778 ) ) ;
#244 = FACE_OUTER_BOUND ( 'NONE', #259, .T. ) ;
#245 = AXIS2_PLACEMENT_3D ( 'NONE', #76, #39, #185 ) ;
#246 = AXIS2_PLACEMENT_3D ( 'NONE', #48, #2, #70 ) ;
#247 = DIRECTION ( 'NONE',  ( -1.224646799147353454E-16, -0.0000000000000000000, -1.000000000000000000 ) ) ;
#248 = CARTESIAN_POINT ( 'NONE',  ( 2.446844304696412268E-18, 0.0000000000000000000, 0.01998000000000000123 ) ) ;
#249 = DIRECTION ( 'NONE',  ( 1.000000000000000000, 0.0000000000000000000, 0.0000000000000000000 ) ) ;
#250 = DIRECTION ( 'NONE',  ( 0.0000000000000000000, 0.0000000000000000000, 1.000000000000000000 ) ) ;
#251 = DIRECTION ( 'NONE',  ( 0.0000000000000000000, 0.0000000000000000000, -1.000000000000000000 ) ) ;
#252 = VERTEX_POINT ( 'NONE', #223 ) ;
#253 = EDGE_CURVE ( 'NONE', #166, #55, #75, .T. ) ;
#254 =( CONVERSION_BASED_UNIT ( 'INCH', #151 ) LENGTH_UNIT ( ) NAMED_UNIT ( #159 ) );
#255 = CARTESIAN_POINT ( 'NONE',  ( 0.01998000000000000470, 2.446844304696411883E-18, 0.01997999999999999776 ) ) ;
#256 = VECTOR ( 'NONE', #220, 39.37007874015748143 ) ;
#257 =( CONVERSION_BASED_UNIT ( 'INCH', #205 ) LENGTH_UNIT ( ) NAMED_UNIT ( #120 ) );
#258 = ORIENTED_EDGE ( 'NONE', *, *, #85, .T. ) ;
#259 = EDGE_LOOP ( 'NONE', ( #313, #206, #28 ) ) ;
#260 = DIRECTION ( 'NONE',  ( 0.0000000000000000000, 0.0000000000000000000, 1.000000000000000000 ) ) ;
#261 = ORIENTED_EDGE ( 'NONE', *, *, #293, .T. ) ;
#262 = PRESENTATION_LAYER_ASSIGNMENT (  '', '', ( #310 ) ) ;
#263 =( NAMED_UNIT ( * ) SI_UNIT ( $, .STERADIAN. ) SOLID_ANGLE_UNIT ( ) );
#264 = APPLICATION_CONTEXT ( 'automotive_design' ) ;
#265 = ORIENTED_EDGE ( 'NONE', *, *, #60, .F. ) ;
#266 = ADVANCED_FACE ( 'NONE', ( #224 ), #50, .T. ) ;
#267 = PRODUCT_DEFINITION_SHAPE ( 'NONE', 'NONE',  #29 ) ;
#268 = ORIENTED_EDGE ( 'NONE', *, *, #232, .T. ) ;
#269 = SPHERICAL_SURFACE ( 'NONE', #309, 0.01998000000000000123 ) ;
#270 = CIRCLE ( 'NONE', #141, 0.06250000000000000000 ) ;
#271 = VECTOR ( 'NONE', #93, 39.37007874015747433 ) ;
#272 = DIRECTION ( 'NONE',  ( 0.1736481776669313859, 0.0000000000000000000, 0.9848077530122077983 ) ) ;
#273 = CARTESIAN_POINT ( 'NONE',  ( 0.04750000000000064587, 6.735557395310482421E-18, 1.500000000000000222 ) ) ;
#274 = CARTESIAN_POINT ( 'NONE',  ( -0.04750000000000064587, 0.0000000000000000000, 1.500000000000000222 ) ) ;
#275 = AXIS2_PLACEMENT_3D ( 'NONE', #181, #250, #145 ) ;
#276 = CARTESIAN_POINT ( 'NONE',  ( 7.347880794884121462E-18, 0.0000000000000000000, 0.05999999999999999778 ) ) ;
#277 = ADVANCED_FACE ( 'NONE', ( #285 ), #46, .T. ) ;
#278 = DIRECTION ( 'NONE',  ( -1.000000000000000000, 0.0000000000000000000, 0.0000000000000000000 ) ) ;
#279 = SURFACE_SIDE_STYLE ('',( #122 ) ) ;
#280 = VECTOR ( 'NONE', #272, 39.37007874015748143 ) ;
#281 = ADVANCED_FACE ( 'NONE', ( #116 ), #1, .T. ) ;
#282 = COLOUR_RGB ( '',0.7921568627450980005, 0.8196078431372548767, 0.9333333333333333481 ) ;
#283 =( GEOMETRIC_REPRESENTATION_CONTEXT ( 3 ) GLOBAL_UNCERTAINTY_ASSIGNED_CONTEXT ( ( #214 ) ) GLOBAL_UNIT_ASSIGNED_CONTEXT ( ( #257, #297, #12 ) ) REPRESENTATION_CONTEXT ( 'NONE', 'WORKASPACE' ) );
#284 = VERTEX_POINT ( 'NONE', #51 ) ;
#285 = FACE_OUTER_BOUND ( 'NONE', #135, .T. ) ;
#286 = CARTESIAN_POINT ( 'NONE',  ( 3.687936922083284908E-17, 0.0000000000000000000, 0.3011429029701436777 ) ) ;
#287 = AXIS2_PLACEMENT_3D ( 'NONE', #66, #216, #302 ) ;
#288 = ORIENTED_EDGE ( 'NONE', *, *, #253, .F. ) ;
#289 = PRODUCT_RELATED_PRODUCT_CATEGORY ( 'part', '', ( #173 ) ) ;
#290 = CARTESIAN_POINT ( 'NONE',  ( 0.06250000000000000000, 7.654042494670956004E-18, 1.485000000000000764 ) ) ;
#291 =( NAMED_UNIT ( * ) PLANE_ANGLE_UNIT ( ) SI_UNIT ( $, .RADIAN. ) );
#292 = ORIENTED_EDGE ( 'NONE', *, *, #44, .F. ) ;
#293 = EDGE_CURVE ( 'NONE', #209, #284, #296, .T. ) ;
#294 = VERTEX_POINT ( 'NONE', #94 ) ;
#295 = CONICAL_SURFACE ( 'NONE', #207, 0.01998000000000000470, 0.1745329251994338915 ) ;
#296 = CIRCLE ( 'NONE', #99, 0.06250000000000000000 ) ;
#297 =( NAMED_UNIT ( * ) PLANE_ANGLE_UNIT ( ) SI_UNIT ( $, .RADIAN. ) );
#298 = ORIENTED_EDGE ( 'NONE', *, *, #240, .T. ) ;
#299 = DIRECTION ( 'NONE',  ( 0.0000000000000000000, 1.000000000000000000, 0.0000000000000000000 ) ) ;
#300 = DIRECTION ( 'NONE',  ( 1.224646799147353454E-16, 0.0000000000000000000, 1.000000000000000000 ) ) ;
#301 = PRODUCT_DEFINITION_FORMATION_WITH_SPECIFIED_SOURCE ( 'ANY', '', #173, .NOT_KNOWN. ) ;
#302 = DIRECTION ( 'NONE',  ( 0.0000000000000000000, 0.0000000000000000000, -1.000000000000000000 ) ) ;
#303 = FACE_OUTER_BOUND ( 'NONE', #210, .T. ) ;
#304 = DIRECTION ( 'NONE',  ( 1.000000000000000000, 0.0000000000000000000, 0.0000000000000000000 ) ) ;
#305 = CIRCLE ( 'NONE', #245, 0.06250000000000000000 ) ;
#306 = CARTESIAN_POINT ( 'NONE',  ( 0.0000000000000000000, 0.0000000000000000000, 0.0000000000000000000 ) ) ;
#307 = MANIFOLD_SOLID_BREP ( 'Fillet1', #126 ) ;
#308 = SURFACE_STYLE_USAGE ( .BOTH. , #279 ) ;
#309 = AXIS2_PLACEMENT_3D ( 'NONE', #248, #299, #324 ) ;
#310 = STYLED_ITEM ( 'NONE', ( #71 ), #307 ) ;
#311 = LINE ( 'NONE', #26, #149 ) ;
#312 = CARTESIAN_POINT ( 'NONE',  ( 0.0000000000000000000, 0.0000000000000000000, 1.500000000000000222 ) ) ;
#313 = ORIENTED_EDGE ( 'NONE', *, *, #85, .F. ) ;
#314 = AXIS2_PLACEMENT_3D ( 'NONE', #312, #177, #198 ) ;
#315 = ORIENTED_EDGE ( 'NONE', *, *, #137, .F. ) ;
#316 = ORIENTED_EDGE ( 'NONE', *, *, #19, .T. ) ;
#317 = ORIENTED_EDGE ( 'NONE', *, *, #131, .F. ) ;
#318 = VERTEX_POINT ( 'NONE', #255 ) ;
#319 = CARTESIAN_POINT ( 'NONE',  ( 0.01998000000000001511, 0.0000000000000000000, 0.05999999999999999778 ) ) ;
#320 = DIRECTION ( 'NONE',  ( -1.224646799147353454E-16, -0.0000000000000000000, -1.000000000000000000 ) ) ;
#321 = AXIS2_PLACEMENT_3D ( 'NONE', #52, #5, #278 ) ;
#322 = SPHERICAL_SURFACE ( 'NONE', #49, 0.01998000000000000123 ) ;
#323 = FACE_OUTER_BOUND ( 'NONE', #190, .T. ) ;
#324 = DIRECTION ( 'NONE',  ( 1.000000000000000000, 0.0000000000000000000, 0.0000000000000000000 ) ) ;
#325 = CARTESIAN_POINT ( 'NONE',  ( -0.01997999999999999776, 0.0000000000000000000, 0.01998000000000000470 ) ) ;
ENDSEC;
END-ISO-10303-21;
