ISO-10303-21;
HEADER;
FILE_DESCRIPTION (( 'STEP AP214' ),
    '1' );
FILE_NAME ('06468.STEP',
    '2023-07-05T16:03:24',
    ( '' ),
    ( '' ),
    'SwSTEP 2.0',
    'SolidWorks 2023',
    '' );
FILE_SCHEMA (( 'AUTOMOTIVE_DESIGN' ));
ENDSEC;

DATA;
#1 = AXIS2_PLACEMENT_3D ( 'NONE', #69, #196, #263 ) ;
#2 = SURFACE_STYLE_FILL_AREA ( #223 ) ;
#3 = PRODUCT_DEFINITION_FORMATION_WITH_SPECIFIED_SOURCE ( 'ANY', '', #111, .NOT_KNOWN. ) ;
#4 = VERTEX_POINT ( 'NONE', #203 ) ;
#5 = VERTEX_POINT ( 'NONE', #161 ) ;
#6 = MANIFOLD_SOLID_BREP ( 'Revolve - Tool Body (Pointed)', #184 ) ;
#7 =( LENGTH_UNIT ( ) NAMED_UNIT ( * ) SI_UNIT ( $, .METRE. ) );
#8 = DIRECTION ( 'NONE',  ( 0.000000000000000000, 0.000000000000000000, 1.000000000000000000 ) ) ;
#9 =( NAMED_UNIT ( * ) SI_UNIT ( $, .STERADIAN. ) SOLID_ANGLE_UNIT ( ) );
#10 =( NAMED_UNIT ( * ) SI_UNIT ( $, .STERADIAN. ) SOLID_ANGLE_UNIT ( ) );
#11 = MECHANICAL_DESIGN_GEOMETRIC_PRESENTATION_REPRESENTATION (  '', ( #28 ), #14 ) ;
#12 = PLANE ( 'NONE',  #227 ) ;
#13 =( GEOMETRIC_REPRESENTATION_CONTEXT ( 3 ) GLOBAL_UNCERTAINTY_ASSIGNED_CONTEXT ( ( #198 ) ) GLOBAL_UNIT_ASSIGNED_CONTEXT ( ( #170, #231, #63 ) ) REPRESENTATION_CONTEXT ( 'NONE', 'WORKASPACE' ) );
#14 =( GEOMETRIC_REPRESENTATION_CONTEXT ( 3 ) GLOBAL_UNCERTAINTY_ASSIGNED_CONTEXT ( ( #92 ) ) GLOBAL_UNIT_ASSIGNED_CONTEXT ( ( #108, #151, #260 ) ) REPRESENTATION_CONTEXT ( 'NONE', 'WORKASPACE' ) );
#15 = DIMENSIONAL_EXPONENTS ( 1.000000000000000000, 0.000000000000000000, 0.000000000000000000, 0.000000000000000000, 0.000000000000000000, 0.000000000000000000, 0.000000000000000000 ) ;
#16 = CARTESIAN_POINT ( 'NONE',  ( 0.000000000000000000, 0.000000000000000000, 0.000000000000000000 ) ) ;
#17 = DIMENSIONAL_EXPONENTS ( 1.000000000000000000, 0.000000000000000000, 0.000000000000000000, 0.000000000000000000, 0.000000000000000000, 0.000000000000000000, 0.000000000000000000 ) ;
#18 = CARTESIAN_POINT ( 'NONE',  ( -6.123233995736772199E-17, 3.000000000000000444, 0.000000000000000000 ) ) ;
#19 =( GEOMETRIC_REPRESENTATION_CONTEXT ( 3 ) GLOBAL_UNCERTAINTY_ASSIGNED_CONTEXT ( ( #74 ) ) GLOBAL_UNIT_ASSIGNED_CONTEXT ( ( #25, #29, #10 ) ) REPRESENTATION_CONTEXT ( 'NONE', 'WORKASPACE' ) );
#20 = DIRECTION ( 'NONE',  ( 0.000000000000000000, 0.4999999999999979461, 0.8660254037844397068 ) ) ;
#21 = ADVANCED_FACE ( 'NONE', ( #163 ), #246, .F. ) ;
#22 = ORIENTED_EDGE ( 'NONE', *, *, #233, .F. ) ;
#23 = PRESENTATION_STYLE_ASSIGNMENT (( #40 ) ) ;
#24 = ORIENTED_EDGE ( 'NONE', *, *, #255, .T. ) ;
#25 =( CONVERSION_BASED_UNIT ( 'INCH', #253 ) LENGTH_UNIT ( ) NAMED_UNIT ( #15 ) );
#26 = LINE ( 'NONE', #251, #101 ) ;
#27 = FILL_AREA_STYLE_COLOUR ( '', #145 ) ;
#28 = STYLED_ITEM ( 'NONE', ( #168 ), #254 ) ;
#29 =( NAMED_UNIT ( * ) PLANE_ANGLE_UNIT ( ) SI_UNIT ( $, .RADIAN. ) );
#30 = DIRECTION ( 'NONE',  ( -1.000000000000000000, -1.365923996832133088E-16, 0.000000000000000000 ) ) ;
#31 = DIMENSIONAL_EXPONENTS ( 1.000000000000000000, 0.000000000000000000, 0.000000000000000000, 0.000000000000000000, 0.000000000000000000, 0.000000000000000000, 0.000000000000000000 ) ;
#32 = SURFACE_STYLE_FILL_AREA ( #214 ) ;
#33 = DIMENSIONAL_EXPONENTS ( 1.000000000000000000, 0.000000000000000000, 0.000000000000000000, 0.000000000000000000, 0.000000000000000000, 0.000000000000000000, 0.000000000000000000 ) ;
#34 = DIRECTION ( 'NONE',  ( -1.000000000000000000, 0.000000000000000000, 0.000000000000000000 ) ) ;
#35 = FACE_OUTER_BOUND ( 'NONE', #221, .T. ) ;
#36 = DIRECTION ( 'NONE',  ( 0.000000000000000000, 0.000000000000000000, 1.000000000000000000 ) ) ;
#37 = ORIENTED_EDGE ( 'NONE', *, *, #102, .F. ) ;
#38 = SURFACE_SIDE_STYLE ('',( #2 ) ) ;
#39 = STYLED_ITEM ( 'NONE', ( #105 ), #87 ) ;
#40 = SURFACE_STYLE_USAGE ( .BOTH. , #38 ) ;
#41 = ORIENTED_EDGE ( 'NONE', *, *, #166, .T. ) ;
#42 = SURFACE_STYLE_USAGE ( .BOTH. , #173 ) ;
#43 = DIRECTION ( 'NONE',  ( 0.000000000000000000, 1.000000000000000000, 0.000000000000000000 ) ) ;
#44 = CARTESIAN_POINT ( 'NONE',  ( -6.123233995736772199E-17, 3.000000000000000444, 0.000000000000000000 ) ) ;
#45 = FILL_AREA_STYLE ('',( #200 ) ) ;
#46 = SURFACE_STYLE_USAGE ( .BOTH. , #235 ) ;
#47 = DIRECTION ( 'NONE',  ( -1.000000000000000000, 0.000000000000000000, 0.000000000000000000 ) ) ;
#48 = VECTOR ( 'NONE', #213, 39.37007874015748143 ) ;
#49 = AXIS2_PLACEMENT_3D ( 'NONE', #94, #191, #8 ) ;
#50 = CARTESIAN_POINT ( 'NONE',  ( -6.123233995736772199E-17, 3.000000000000000444, 0.000000000000000000 ) ) ;
#51 = CARTESIAN_POINT ( 'NONE',  ( -0.2500000000000001110, 3.000000000000000444, 0.000000000000000000 ) ) ;
#52 = APPLICATION_CONTEXT ( 'automotive_design' ) ;
#53 =( LENGTH_UNIT ( ) NAMED_UNIT ( * ) SI_UNIT ( $, .METRE. ) );
#54 = ORIENTED_EDGE ( 'NONE', *, *, #255, .F. ) ;
#55 = EDGE_LOOP ( 'NONE', ( #185, #79, #76, #265 ) ) ;
#56 =( NAMED_UNIT ( * ) SI_UNIT ( $, .STERADIAN. ) SOLID_ANGLE_UNIT ( ) );
#57 = ORIENTED_EDGE ( 'NONE', *, *, #178, .F. ) ;
#58 = CIRCLE ( 'NONE', #215, 0.2499999999999997224 ) ;
#59 = ADVANCED_FACE ( 'NONE', ( #183 ), #109, .T. ) ;
#60 = CLOSED_SHELL ( 'NONE', ( #87, #264, #254 ) ) ;
#61 = AXIS2_PLACEMENT_3D ( 'NONE', #234, #257, #65 ) ;
#62 = LENGTH_MEASURE_WITH_UNIT ( LENGTH_MEASURE( 0.02539999999999999897 ), #171 );
#63 =( NAMED_UNIT ( * ) SI_UNIT ( $, .STERADIAN. ) SOLID_ANGLE_UNIT ( ) );
#64 =( CONVERSION_BASED_UNIT ( 'INCH', #62 ) LENGTH_UNIT ( ) NAMED_UNIT ( #33 ) );
#65 = DIRECTION ( 'NONE',  ( 0.000000000000000000, -0.000000000000000000, 1.000000000000000000 ) ) ;
#66 = DIRECTION ( 'NONE',  ( -1.215909390471913142E-16, 1.000000000000000000, -0.000000000000000000 ) ) ;
#67 = SHAPE_DEFINITION_REPRESENTATION ( #190, #71 ) ;
#68 = DIRECTION ( 'NONE',  ( 1.000000000000000000, 1.215909390471913142E-16, 0.000000000000000000 ) ) ;
#69 = CARTESIAN_POINT ( 'NONE',  ( -6.123233995736772199E-17, 3.000000000000000444, 0.000000000000000000 ) ) ;
#70 = CIRCLE ( 'NONE', #158, 0.2499999999999997224 ) ;
#71 = ADVANCED_BREP_SHAPE_REPRESENTATION ( '06468', ( #103, #6, #167 ), #13 ) ;
#72 = APPLICATION_PROTOCOL_DEFINITION ( 'draft international standard', 'automotive_design', 1998, #247 ) ;
#73 = CONICAL_SURFACE ( 'NONE', #49, 68.19097667594041923, 1.047197551196600074 ) ;
#74 = UNCERTAINTY_MEASURE_WITH_UNIT (LENGTH_MEASURE( 1.000000000000000082E-05 ), #25, 'distance_accuracy_value', 'NONE');
#75 = ORIENTED_EDGE ( 'NONE', *, *, #134, .F. ) ;
#76 = ORIENTED_EDGE ( 'NONE', *, *, #138, .F. ) ;
#77 = PRESENTATION_LAYER_ASSIGNMENT (  '', '', ( #192 ) ) ;
#78 = EDGE_CURVE ( 'NONE', #121, #4, #26, .T. ) ;
#79 = ORIENTED_EDGE ( 'NONE', *, *, #233, .T. ) ;
#80 = DIRECTION ( 'NONE',  ( -1.000000000000000000, 0.000000000000000000, 0.000000000000000000 ) ) ;
#81 = LENGTH_MEASURE_WITH_UNIT ( LENGTH_MEASURE( 0.02539999999999999897 ), #229 );
#82 = SURFACE_SIDE_STYLE ('',( #207 ) ) ;
#83 = CARTESIAN_POINT ( 'NONE',  ( 0.2500000000000000000, 0.1443375672974054613, 3.061616997868382402E-17 ) ) ;
#84 = DIRECTION ( 'NONE',  ( 0.000000000000000000, 0.000000000000000000, -1.000000000000000000 ) ) ;
#85 =( GEOMETRIC_REPRESENTATION_CONTEXT ( 3 ) GLOBAL_UNCERTAINTY_ASSIGNED_CONTEXT ( ( #242 ) ) GLOBAL_UNIT_ASSIGNED_CONTEXT ( ( #137, #99, #56 ) ) REPRESENTATION_CONTEXT ( 'NONE', 'WORKASPACE' ) );
#86 =( NAMED_UNIT ( * ) PLANE_ANGLE_UNIT ( ) SI_UNIT ( $, .RADIAN. ) );
#87 = ADVANCED_FACE ( 'NONE', ( #230 ), #159, .T. ) ;
#88 = SURFACE_STYLE_FILL_AREA ( #256 ) ;
#89 = FACE_OUTER_BOUND ( 'NONE', #162, .T. ) ;
#90 = CARTESIAN_POINT ( 'NONE',  ( 0.000000000000000000, 0.000000000000000000, 0.000000000000000000 ) ) ;
#91 = DIRECTION ( 'NONE',  ( -1.215909390471913142E-16, 1.000000000000000000, -0.000000000000000000 ) ) ;
#92 = UNCERTAINTY_MEASURE_WITH_UNIT (LENGTH_MEASURE( 1.000000000000000082E-05 ), #108, 'distance_accuracy_value', 'NONE');
#93 = CARTESIAN_POINT ( 'NONE',  ( 0.000000000000000000, 0.1443375672974056556, 0.000000000000000000 ) ) ;
#94 = CARTESIAN_POINT ( 'NONE',  ( 0.000000000000000000, 39.37007874015748143, 0.000000000000000000 ) ) ;
#95 = EDGE_CURVE ( 'NONE', #5, #205, #212, .T. ) ;
#96 = EDGE_LOOP ( 'NONE', ( #22, #204, #244, #75 ) ) ;
#97 = DIRECTION ( 'NONE',  ( -1.000000000000000000, -1.215909390471913142E-16, 0.000000000000000000 ) ) ;
#98 = AXIS2_PLACEMENT_3D ( 'NONE', #50, #91, #47 ) ;
#99 =( NAMED_UNIT ( * ) PLANE_ANGLE_UNIT ( ) SI_UNIT ( $, .RADIAN. ) );
#100 = ORIENTED_EDGE ( 'NONE', *, *, #178, .T. ) ;
#101 = VECTOR ( 'NONE', #126, 39.37007874015748854 ) ;
#102 = EDGE_CURVE ( 'NONE', #5, #116, #58, .T. ) ;
#103 = MANIFOLD_SOLID_BREP ( 'Revolve - Cutting Edge', #60 ) ;
#104 =( LENGTH_UNIT ( ) NAMED_UNIT ( * ) SI_UNIT ( $, .METRE. ) );
#105 = PRESENTATION_STYLE_ASSIGNMENT (( #144 ) ) ;
#106 = DIRECTION ( 'NONE',  ( -0.000000000000000000, -1.000000000000000000, -0.000000000000000000 ) ) ;
#107 = CARTESIAN_POINT ( 'NONE',  ( -0.2499999999999999722, 3.000000000000000444, 0.000000000000000000 ) ) ;
#108 =( CONVERSION_BASED_UNIT ( 'INCH', #149 ) LENGTH_UNIT ( ) NAMED_UNIT ( #258 ) );
#109 = CYLINDRICAL_SURFACE ( 'NONE', #202, 0.2499999999999998890 ) ;
#110 = AXIS2_PLACEMENT_3D ( 'NONE', #147, #43, #124 ) ;
#111 = PRODUCT ( '06468', '06468', '', ( #243 ) ) ;
#112 = DIRECTION ( 'NONE',  ( -1.215909390471913142E-16, 1.000000000000000000, -0.000000000000000000 ) ) ;
#113 = CARTESIAN_POINT ( 'NONE',  ( 0.000000000000000000, 0.1443375672974056556, 0.2500000000000000000 ) ) ;
#114 = LENGTH_MEASURE_WITH_UNIT ( LENGTH_MEASURE( 0.02539999999999999897 ), #53 );
#115 = CIRCLE ( 'NONE', #117, 0.2499999999999999722 ) ;
#116 = VERTEX_POINT ( 'NONE', #83 ) ;
#117 = AXIS2_PLACEMENT_3D ( 'NONE', #232, #106, #84 ) ;
#118 =( GEOMETRIC_REPRESENTATION_CONTEXT ( 3 ) GLOBAL_UNCERTAINTY_ASSIGNED_CONTEXT ( ( #177 ) ) GLOBAL_UNIT_ASSIGNED_CONTEXT ( ( #228, #122, #261 ) ) REPRESENTATION_CONTEXT ( 'NONE', 'WORKASPACE' ) );
#119 = VERTEX_POINT ( 'NONE', #113 ) ;
#120 = AXIS2_PLACEMENT_3D ( 'NONE', #225, #143, #97 ) ;
#121 = VERTEX_POINT ( 'NONE', #16 ) ;
#122 =( NAMED_UNIT ( * ) PLANE_ANGLE_UNIT ( ) SI_UNIT ( $, .RADIAN. ) );
#123 = FILL_AREA_STYLE_COLOUR ( '', #259 ) ;
#124 = DIRECTION ( 'NONE',  ( 0.000000000000000000, 0.000000000000000000, 1.000000000000000000 ) ) ;
#125 = ADVANCED_FACE ( 'NONE', ( #89 ), #12, .F. ) ;
#126 = DIRECTION ( 'NONE',  ( 1.060575238724908024E-16, 0.4999999999999979461, -0.8660254037844397068 ) ) ;
#127 = FACE_OUTER_BOUND ( 'NONE', #245, .T. ) ;
#128 = DIRECTION ( 'NONE',  ( 1.215909390471913142E-16, -1.000000000000000000, 0.000000000000000000 ) ) ;
#129 = PRESENTATION_STYLE_ASSIGNMENT (( #46 ) ) ;
#130 = DIRECTION ( 'NONE',  ( -1.215909390471913142E-16, 1.000000000000000000, -0.000000000000000000 ) ) ;
#131 = CIRCLE ( 'NONE', #141, 0.2499999999999999722 ) ;
#132 = LINE ( 'NONE', #219, #193 ) ;
#133 = COLOUR_RGB ( '',0.7921568627450980005, 0.8196078431372548767, 0.9333333333333333481 ) ;
#134 = EDGE_CURVE ( 'NONE', #186, #205, #182, .T. ) ;
#135 = APPLICATION_PROTOCOL_DEFINITION ( 'draft international standard', 'automotive_design', 1998, #52 ) ;
#136 = ADVANCED_FACE ( 'NONE', ( #238 ), #175, .T. ) ;
#137 =( CONVERSION_BASED_UNIT ( 'INCH', #114 ) LENGTH_UNIT ( ) NAMED_UNIT ( #236 ) );
#138 = EDGE_CURVE ( 'NONE', #205, #186, #146, .T. ) ;
#139 = FILL_AREA_STYLE_COLOUR ( '', #133 ) ;
#140 = ORIENTED_EDGE ( 'NONE', *, *, #78, .F. ) ;
#141 = AXIS2_PLACEMENT_3D ( 'NONE', #93, #157, #176 ) ;
#142 = PRODUCT_RELATED_PRODUCT_CATEGORY ( 'part', '', ( #111 ) ) ;
#143 = DIRECTION ( 'NONE',  ( -1.215909390471913142E-16, 1.000000000000000000, 0.000000000000000000 ) ) ;
#144 = SURFACE_STYLE_USAGE ( .BOTH. , #82 ) ;
#145 = COLOUR_RGB ( '',1.000000000000000000, 0.000000000000000000, 0.000000000000000000 ) ;
#146 = CIRCLE ( 'NONE', #98, 0.2500000000000000555 ) ;
#147 = CARTESIAN_POINT ( 'NONE',  ( 0.000000000000000000, 39.37007874015748143, 0.000000000000000000 ) ) ;
#148 = COLOUR_RGB ( '',0.7921568627450980005, 0.8196078431372548767, 0.9333333333333333481 ) ;
#149 = LENGTH_MEASURE_WITH_UNIT ( LENGTH_MEASURE( 0.02539999999999999897 ), #211 );
#150 = FILL_AREA_STYLE_COLOUR ( '', #148 ) ;
#151 =( NAMED_UNIT ( * ) PLANE_ANGLE_UNIT ( ) SI_UNIT ( $, .RADIAN. ) );
#152 = PRESENTATION_LAYER_ASSIGNMENT (  '', '', ( #39 ) ) ;
#153 = PLANE ( 'NONE',  #61 ) ;
#154 = CARTESIAN_POINT ( 'NONE',  ( 0.2500000000000000000, 3.000000000000000444, 0.000000000000000000 ) ) ;
#155 = MECHANICAL_DESIGN_GEOMETRIC_PRESENTATION_REPRESENTATION (  '', ( #192 ), #19 ) ;
#156 = PRODUCT_DEFINITION_CONTEXT ( 'detailed design', #247, 'design' ) ;
#157 = DIRECTION ( 'NONE',  ( -0.000000000000000000, -1.000000000000000000, -0.000000000000000000 ) ) ;
#158 = AXIS2_PLACEMENT_3D ( 'NONE', #240, #66, #216 ) ;
#159 = CONICAL_SURFACE ( 'NONE', #110, 68.19097667594041923, 1.047197551196600074 ) ;
#160 = EDGE_LOOP ( 'NONE', ( #248, #181, #100 ) ) ;
#161 = CARTESIAN_POINT ( 'NONE',  ( -0.2499999999999994449, 0.1443375672974054058, 0.000000000000000000 ) ) ;
#162 = EDGE_LOOP ( 'NONE', ( #220, #165 ) ) ;
#163 = FACE_OUTER_BOUND ( 'NONE', #206, .T. ) ;
#164 =( GEOMETRIC_REPRESENTATION_CONTEXT ( 3 ) GLOBAL_UNCERTAINTY_ASSIGNED_CONTEXT ( ( #201 ) ) GLOBAL_UNIT_ASSIGNED_CONTEXT ( ( #64, #86, #9 ) ) REPRESENTATION_CONTEXT ( 'NONE', 'WORKASPACE' ) );
#165 = ORIENTED_EDGE ( 'NONE', *, *, #134, .T. ) ;
#166 = EDGE_CURVE ( 'NONE', #121, #119, #217, .T. ) ;
#167 = AXIS2_PLACEMENT_3D ( 'NONE', #90, #36, #180 ) ;
#168 = PRESENTATION_STYLE_ASSIGNMENT (( #189 ) ) ;
#169 = AXIS2_PLACEMENT_3D ( 'NONE', #18, #112, #34 ) ;
#170 =( CONVERSION_BASED_UNIT ( 'INCH', #81 ) LENGTH_UNIT ( ) NAMED_UNIT ( #31 ) );
#171 =( LENGTH_UNIT ( ) NAMED_UNIT ( * ) SI_UNIT ( $, .METRE. ) );
#172 = MECHANICAL_DESIGN_GEOMETRIC_PRESENTATION_REPRESENTATION (  '', ( #241 ), #85 ) ;
#173 = SURFACE_SIDE_STYLE ('',( #88 ) ) ;
#174 = SURFACE_SIDE_STYLE ('',( #237 ) ) ;
#175 = CYLINDRICAL_SURFACE ( 'NONE', #169, 0.2499999999999998890 ) ;
#176 = DIRECTION ( 'NONE',  ( 0.000000000000000000, 0.000000000000000000, -1.000000000000000000 ) ) ;
#177 = UNCERTAINTY_MEASURE_WITH_UNIT (LENGTH_MEASURE( 1.000000000000000082E-05 ), #228, 'distance_accuracy_value', 'NONE');
#178 = EDGE_CURVE ( 'NONE', #4, #119, #131, .T. ) ;
#179 = PRESENTATION_LAYER_ASSIGNMENT (  '', '', ( #28 ) ) ;
#180 = DIRECTION ( 'NONE',  ( 1.000000000000000000, 0.000000000000000000, 0.000000000000000000 ) ) ;
#181 = ORIENTED_EDGE ( 'NONE', *, *, #78, .T. ) ;
#182 = CIRCLE ( 'NONE', #1, 0.2500000000000000555 ) ;
#183 = FACE_OUTER_BOUND ( 'NONE', #55, .T. ) ;
#184 = CLOSED_SHELL ( 'NONE', ( #59, #21, #136, #125 ) ) ;
#185 = ORIENTED_EDGE ( 'NONE', *, *, #102, .T. ) ;
#186 = VERTEX_POINT ( 'NONE', #262 ) ;
#187 = ORIENTED_EDGE ( 'NONE', *, *, #195, .F. ) ;
#188 = DIRECTION ( 'NONE',  ( -1.215909390471913142E-16, 1.000000000000000000, -0.000000000000000000 ) ) ;
#189 = SURFACE_STYLE_USAGE ( .BOTH. , #174 ) ;
#190 = PRODUCT_DEFINITION_SHAPE ( 'NONE', 'NONE',  #208 ) ;
#191 = DIRECTION ( 'NONE',  ( 0.000000000000000000, 1.000000000000000000, 0.000000000000000000 ) ) ;
#192 = STYLED_ITEM ( 'NONE', ( #129 ), #264 ) ;
#193 = VECTOR ( 'NONE', #130, 39.37007874015748143 ) ;
#194 = CARTESIAN_POINT ( 'NONE',  ( 2.859903368367275526E-16, 0.1443375672974054336, 0.000000000000000000 ) ) ;
#195 = EDGE_CURVE ( 'NONE', #116, #5, #70, .T. ) ;
#196 = DIRECTION ( 'NONE',  ( -1.215909390471913142E-16, 1.000000000000000000, -0.000000000000000000 ) ) ;
#197 = MECHANICAL_DESIGN_GEOMETRIC_PRESENTATION_REPRESENTATION (  '', ( #252 ), #118 ) ;
#198 = UNCERTAINTY_MEASURE_WITH_UNIT (LENGTH_MEASURE( 1.000000000000000082E-05 ), #170, 'distance_accuracy_value', 'NONE');
#199 = CARTESIAN_POINT ( 'NONE',  ( 0.000000000000000000, 0.000000000000000000, 0.000000000000000000 ) ) ;
#200 = FILL_AREA_STYLE_COLOUR ( '', #222 ) ;
#201 = UNCERTAINTY_MEASURE_WITH_UNIT (LENGTH_MEASURE( 1.000000000000000082E-05 ), #64, 'distance_accuracy_value', 'NONE');
#202 = AXIS2_PLACEMENT_3D ( 'NONE', #44, #210, #80 ) ;
#203 = CARTESIAN_POINT ( 'NONE',  ( 3.061616997868383018E-17, 0.1443375672974056556, -0.2500000000000000000 ) ) ;
#204 = ORIENTED_EDGE ( 'NONE', *, *, #195, .T. ) ;
#205 = VERTEX_POINT ( 'NONE', #51 ) ;
#206 = EDGE_LOOP ( 'NONE', ( #37, #187 ) ) ;
#207 = SURFACE_STYLE_FILL_AREA ( #209 ) ;
#208 = PRODUCT_DEFINITION ( 'UNKNOWN', '', #3, #156 ) ;
#209 = FILL_AREA_STYLE ('',( #123 ) ) ;
#210 = DIRECTION ( 'NONE',  ( -1.215909390471913142E-16, 1.000000000000000000, -0.000000000000000000 ) ) ;
#211 =( LENGTH_UNIT ( ) NAMED_UNIT ( * ) SI_UNIT ( $, .METRE. ) );
#212 = LINE ( 'NONE', #107, #48 ) ;
#213 = DIRECTION ( 'NONE',  ( -1.215909390471913142E-16, 1.000000000000000000, -0.000000000000000000 ) ) ;
#214 = FILL_AREA_STYLE ('',( #27 ) ) ;
#215 = AXIS2_PLACEMENT_3D ( 'NONE', #194, #188, #30 ) ;
#216 = DIRECTION ( 'NONE',  ( -1.000000000000000000, -1.365923996832133088E-16, 0.000000000000000000 ) ) ;
#217 = LINE ( 'NONE', #199, #250 ) ;
#218 = PRESENTATION_LAYER_ASSIGNMENT (  '', '', ( #241 ) ) ;
#219 = CARTESIAN_POINT ( 'NONE',  ( 0.2499999999999998335, 3.000000000000000444, 3.061616997868381785E-17 ) ) ;
#220 = ORIENTED_EDGE ( 'NONE', *, *, #138, .T. ) ;
#221 = EDGE_LOOP ( 'NONE', ( #140, #41, #24 ) ) ;
#222 = COLOUR_RGB ( '',1.000000000000000000, 0.000000000000000000, 0.000000000000000000 ) ;
#223 = FILL_AREA_STYLE ('',( #139 ) ) ;
#224 = MECHANICAL_DESIGN_GEOMETRIC_PRESENTATION_REPRESENTATION (  '', ( #39 ), #164 ) ;
#225 = CARTESIAN_POINT ( 'NONE',  ( 2.859903368367275526E-16, 0.1443375672974056556, 0.000000000000000000 ) ) ;
#226 = PRESENTATION_STYLE_ASSIGNMENT (( #42 ) ) ;
#227 = AXIS2_PLACEMENT_3D ( 'NONE', #154, #128, #68 ) ;
#228 =( CONVERSION_BASED_UNIT ( 'INCH', #249 ) LENGTH_UNIT ( ) NAMED_UNIT ( #17 ) );
#229 =( LENGTH_UNIT ( ) NAMED_UNIT ( * ) SI_UNIT ( $, .METRE. ) );
#230 = FACE_OUTER_BOUND ( 'NONE', #160, .T. ) ;
#231 =( NAMED_UNIT ( * ) PLANE_ANGLE_UNIT ( ) SI_UNIT ( $, .RADIAN. ) );
#232 = CARTESIAN_POINT ( 'NONE',  ( 0.000000000000000000, 0.1443375672974056556, 0.000000000000000000 ) ) ;
#233 = EDGE_CURVE ( 'NONE', #116, #186, #132, .T. ) ;
#234 = CARTESIAN_POINT ( 'NONE',  ( 0.000000000000000000, 0.1443375672974056556, 0.000000000000000000 ) ) ;
#235 = SURFACE_SIDE_STYLE ('',( #32 ) ) ;
#236 = DIMENSIONAL_EXPONENTS ( 1.000000000000000000, 0.000000000000000000, 0.000000000000000000, 0.000000000000000000, 0.000000000000000000, 0.000000000000000000, 0.000000000000000000 ) ;
#237 = SURFACE_STYLE_FILL_AREA ( #45 ) ;
#238 = FACE_OUTER_BOUND ( 'NONE', #96, .T. ) ;
#239 = PRESENTATION_LAYER_ASSIGNMENT (  '', '', ( #252 ) ) ;
#240 = CARTESIAN_POINT ( 'NONE',  ( 2.859903368367275526E-16, 0.1443375672974054336, 0.000000000000000000 ) ) ;
#241 = STYLED_ITEM ( 'NONE', ( #23 ), #6 ) ;
#242 = UNCERTAINTY_MEASURE_WITH_UNIT (LENGTH_MEASURE( 1.000000000000000082E-05 ), #137, 'distance_accuracy_value', 'NONE');
#243 = PRODUCT_CONTEXT ( 'NONE', #52, 'mechanical' ) ;
#244 = ORIENTED_EDGE ( 'NONE', *, *, #95, .T. ) ;
#245 = EDGE_LOOP ( 'NONE', ( #54, #57 ) ) ;
#246 = PLANE ( 'NONE',  #120 ) ;
#247 = APPLICATION_CONTEXT ( 'automotive_design' ) ;
#248 = ORIENTED_EDGE ( 'NONE', *, *, #166, .F. ) ;
#249 = LENGTH_MEASURE_WITH_UNIT ( LENGTH_MEASURE( 0.02539999999999999897 ), #7 );
#250 = VECTOR ( 'NONE', #20, 39.37007874015748854 ) ;
#251 = CARTESIAN_POINT ( 'NONE',  ( 0.000000000000000000, 0.000000000000000000, 0.000000000000000000 ) ) ;
#252 = STYLED_ITEM ( 'NONE', ( #226 ), #103 ) ;
#253 = LENGTH_MEASURE_WITH_UNIT ( LENGTH_MEASURE( 0.02539999999999999897 ), #104 );
#254 = ADVANCED_FACE ( 'NONE', ( #35 ), #73, .T. ) ;
#255 = EDGE_CURVE ( 'NONE', #119, #4, #115, .T. ) ;
#256 = FILL_AREA_STYLE ('',( #150 ) ) ;
#257 = DIRECTION ( 'NONE',  ( 0.000000000000000000, 1.000000000000000000, 0.000000000000000000 ) ) ;
#258 = DIMENSIONAL_EXPONENTS ( 1.000000000000000000, 0.000000000000000000, 0.000000000000000000, 0.000000000000000000, 0.000000000000000000, 0.000000000000000000, 0.000000000000000000 ) ;
#259 = COLOUR_RGB ( '',1.000000000000000000, 0.000000000000000000, 0.000000000000000000 ) ;
#260 =( NAMED_UNIT ( * ) SI_UNIT ( $, .STERADIAN. ) SOLID_ANGLE_UNIT ( ) );
#261 =( NAMED_UNIT ( * ) SI_UNIT ( $, .STERADIAN. ) SOLID_ANGLE_UNIT ( ) );
#262 = CARTESIAN_POINT ( 'NONE',  ( 0.2500000000000000000, 3.000000000000000444, 3.061616997868382402E-17 ) ) ;
#263 = DIRECTION ( 'NONE',  ( -1.000000000000000000, 0.000000000000000000, 0.000000000000000000 ) ) ;
#264 = ADVANCED_FACE ( 'NONE', ( #127 ), #153, .T. ) ;
#265 = ORIENTED_EDGE ( 'NONE', *, *, #95, .F. ) ;
ENDSEC;
END-ISO-10303-21;
