ISO-10303-21;
HEADER;
FILE_DESCRIPTION (( 'STEP AP214' ),
    '1' );
FILE_NAME ('81703.STEP',
    '2023-06-23T02:36:40',
    ( '' ),
    ( '' ),
    'SwSTEP 2.0',
    'SolidWorks 2023',
    '' );
FILE_SCHEMA (( 'AUTOMOTIVE_DESIGN' ));
ENDSEC;

DATA;
#1 = EDGE_LOOP ( 'NONE', ( #148, #123, #60, #330 ) ) ;
#2 = VECTOR ( 'NONE', #350, 39.37007874015748143 ) ;
#3 = CYLINDRICAL_SURFACE ( 'NONE', #325, 0.09375000000000004163 ) ;
#4 = CARTESIAN_POINT ( 'NONE',  ( 0.07809999999999997500, 0.1875000000000001110, 9.564491501340826783E-18 ) ) ;
#5 = ORIENTED_EDGE ( 'NONE', *, *, #54, .T. ) ;
#6 = PLANE ( 'NONE',  #50 ) ;
#7 = PRODUCT_CONTEXT ( 'NONE', #68, 'mechanical' ) ;
#8 = AXIS2_PLACEMENT_3D ( 'NONE', #308, #274, #305 ) ;
#9 = CARTESIAN_POINT ( 'NONE',  ( 0.09375000000000006939, 2.000000000000000000, 1.148106374200644325E-17 ) ) ;
#10 = FILL_AREA_STYLE_COLOUR ( '', #152 ) ;
#11 = DIRECTION ( 'NONE',  ( 3.378335997647870959E-17, 1.000000000000000000, -0.000000000000000000 ) ) ;
#12 = AXIS2_PLACEMENT_3D ( 'NONE', #63, #120, #255 ) ;
#13 = DIRECTION ( 'NONE',  ( 3.378335997647870959E-17, 1.000000000000000000, -0.000000000000000000 ) ) ;
#14 = FILL_AREA_STYLE ('',( #10 ) ) ;
#15 =( LENGTH_UNIT ( ) NAMED_UNIT ( * ) SI_UNIT ( $, .METRE. ) );
#16 = DIMENSIONAL_EXPONENTS ( 1.000000000000000000, 0.000000000000000000, 0.000000000000000000, 0.000000000000000000, 0.000000000000000000, 0.000000000000000000, 0.000000000000000000 ) ;
#17 = LINE ( 'NONE', #4, #104 ) ;
#18 = ADVANCED_FACE ( 'NONE', ( #280 ), #6, .T. ) ;
#19 = AXIS2_PLACEMENT_3D ( 'NONE', #56, #323, #326 ) ;
#20 = PRESENTATION_STYLE_ASSIGNMENT (( #265 ) ) ;
#21 =( NAMED_UNIT ( * ) PLANE_ANGLE_UNIT ( ) SI_UNIT ( $, .RADIAN. ) );
#22 =( NAMED_UNIT ( * ) SI_UNIT ( $, .STERADIAN. ) SOLID_ANGLE_UNIT ( ) );
#23 = DIRECTION ( 'NONE',  ( 3.378335997647870959E-17, 1.000000000000000000, -0.000000000000000000 ) ) ;
#24 = PRESENTATION_STYLE_ASSIGNMENT (( #329 ) ) ;
#25 = VERTEX_POINT ( 'NONE', #9 ) ;
#26 = EDGE_CURVE ( 'NONE', #197, #87, #259, .T. ) ;
#27 = FILL_AREA_STYLE_COLOUR ( '', #154 ) ;
#28 = ORIENTED_EDGE ( 'NONE', *, *, #116, .T. ) ;
#29 = MECHANICAL_DESIGN_GEOMETRIC_PRESENTATION_REPRESENTATION (  '', ( #124 ), #353 ) ;
#30 = EDGE_LOOP ( 'NONE', ( #5, #208 ) ) ;
#31 = STYLED_ITEM ( 'NONE', ( #20 ), #82 ) ;
#32 = FILL_AREA_STYLE ('',( #27 ) ) ;
#33 = ORIENTED_EDGE ( 'NONE', *, *, #283, .F. ) ;
#34 = MANIFOLD_SOLID_BREP ( 'Revolve - Cutting Edge', #266 ) ;
#35 = EDGE_CURVE ( 'NONE', #53, #167, #83, .T. ) ;
#36 = DIRECTION ( 'NONE',  ( 1.000000000000000000, 0.000000000000000000, 0.000000000000000000 ) ) ;
#37 = SURFACE_STYLE_FILL_AREA ( #206 ) ;
#38 = PRESENTATION_LAYER_ASSIGNMENT (  '', '', ( #345 ) ) ;
#39 = MANIFOLD_SOLID_BREP ( 'Revolve - Tool Body (Reduced Cut Diameter)', #146 ) ;
#40 =( NAMED_UNIT ( * ) SI_UNIT ( $, .STERADIAN. ) SOLID_ANGLE_UNIT ( ) );
#41 = DIRECTION ( 'NONE',  ( 3.378335997647870959E-17, 1.000000000000000000, -0.000000000000000000 ) ) ;
#42 = DIRECTION ( 'NONE',  ( 0.000000000000000000, 0.000000000000000000, 1.000000000000000000 ) ) ;
#43 = CARTESIAN_POINT ( 'NONE',  ( 0.000000000000000000, 0.000000000000000000, 0.000000000000000000 ) ) ;
#44 = FILL_AREA_STYLE_COLOUR ( '', #245 ) ;
#45 = CARTESIAN_POINT ( 'NONE',  ( -0.07809999999999997500, 0.1875000000000001110, 0.000000000000000000 ) ) ;
#46 = DIMENSIONAL_EXPONENTS ( 1.000000000000000000, 0.000000000000000000, 0.000000000000000000, 0.000000000000000000, 0.000000000000000000, 0.000000000000000000, 0.000000000000000000 ) ;
#47 = SURFACE_SIDE_STYLE ('',( #312 ) ) ;
#48 = CARTESIAN_POINT ( 'NONE',  ( 0.000000000000000000, 0.000000000000000000, -0.07810000000000000275 ) ) ;
#49 = LINE ( 'NONE', #139, #2 ) ;
#50 = AXIS2_PLACEMENT_3D ( 'NONE', #314, #62, #288 ) ;
#51 = VECTOR ( 'NONE', #319, 39.37007874015748143 ) ;
#52 = CARTESIAN_POINT ( 'NONE',  ( 0.09375000000000006939, 2.000000000000000000, 0.000000000000000000 ) ) ;
#53 = VERTEX_POINT ( 'NONE', #108 ) ;
#54 = EDGE_CURVE ( 'NONE', #279, #25, #110, .T. ) ;
#55 = DIRECTION ( 'NONE',  ( -1.000000000000000000, 0.000000000000000000, 0.000000000000000000 ) ) ;
#56 = CARTESIAN_POINT ( 'NONE',  ( 1.452617642477878901E-18, 0.2304980216144648930, 0.000000000000000000 ) ) ;
#57 = STYLED_ITEM ( 'NONE', ( #212 ), #39 ) ;
#58 = MECHANICAL_DESIGN_GEOMETRIC_PRESENTATION_REPRESENTATION (  '', ( #118 ), #268 ) ;
#59 = CARTESIAN_POINT ( 'NONE',  ( 0.000000000000000000, 0.1875000000000001110, 0.000000000000000000 ) ) ;
#60 = ORIENTED_EDGE ( 'NONE', *, *, #54, .F. ) ;
#61 = UNCERTAINTY_MEASURE_WITH_UNIT (LENGTH_MEASURE( 1.000000000000000082E-05 ), #125, 'distance_accuracy_value', 'NONE');
#62 = DIRECTION ( 'NONE',  ( 0.000000000000000000, 1.000000000000000000, 0.000000000000000000 ) ) ;
#63 = CARTESIAN_POINT ( 'NONE',  ( 0.000000000000000000, 0.1875000000000001110, 0.000000000000000000 ) ) ;
#64 = AXIS2_PLACEMENT_3D ( 'NONE', #43, #156, #269 ) ;
#65 = FILL_AREA_STYLE_COLOUR ( '', #340 ) ;
#66 = ORIENTED_EDGE ( 'NONE', *, *, #169, .F. ) ;
#67 = DIMENSIONAL_EXPONENTS ( 1.000000000000000000, 0.000000000000000000, 0.000000000000000000, 0.000000000000000000, 0.000000000000000000, 0.000000000000000000, 0.000000000000000000 ) ;
#68 = APPLICATION_CONTEXT ( 'automotive_design' ) ;
#69 = EDGE_LOOP ( 'NONE', ( #66, #337, #357, #252 ) ) ;
#70 = CONICAL_SURFACE ( 'NONE', #355, 0.07809999999999997500, 0.3490658503988683381 ) ;
#71 = ADVANCED_FACE ( 'NONE', ( #263 ), #262, .T. ) ;
#72 = DIMENSIONAL_EXPONENTS ( 1.000000000000000000, 0.000000000000000000, 0.000000000000000000, 0.000000000000000000, 0.000000000000000000, 0.000000000000000000, 0.000000000000000000 ) ;
#73 = SURFACE_SIDE_STYLE ('',( #157 ) ) ;
#74 = PRESENTATION_LAYER_ASSIGNMENT (  '', '', ( #339 ) ) ;
#75 = AXIS2_PLACEMENT_3D ( 'NONE', #135, #233, #109 ) ;
#76 =( LENGTH_UNIT ( ) NAMED_UNIT ( * ) SI_UNIT ( $, .METRE. ) );
#77 = EDGE_CURVE ( 'NONE', #25, #279, #341, .T. ) ;
#78 = CARTESIAN_POINT ( 'NONE',  ( -0.09374999999999997224, 2.000000000000000000, 0.000000000000000000 ) ) ;
#79 = CARTESIAN_POINT ( 'NONE',  ( 4.456836681127840668E-35, 0.1874999999999999722, 0.000000000000000000 ) ) ;
#80 = DIRECTION ( 'NONE',  ( 0.000000000000000000, 0.000000000000000000, -1.000000000000000000 ) ) ;
#81 = ORIENTED_EDGE ( 'NONE', *, *, #346, .F. ) ;
#82 = ADVANCED_FACE ( 'NONE', ( #238 ), #138, .T. ) ;
#83 = CIRCLE ( 'NONE', #281, 0.07809999999999997500 ) ;
#84 = CONICAL_SURFACE ( 'NONE', #89, 0.07809999999999997500, 0.3490658503988683381 ) ;
#85 = SURFACE_STYLE_FILL_AREA ( #32 ) ;
#86 = DIRECTION ( 'NONE',  ( 0.000000000000000000, 0.000000000000000000, -1.000000000000000000 ) ) ;
#87 = VERTEX_POINT ( 'NONE', #45 ) ;
#88 = MECHANICAL_DESIGN_GEOMETRIC_PRESENTATION_REPRESENTATION (  '', ( #345 ), #126 ) ;
#89 = AXIS2_PLACEMENT_3D ( 'NONE', #133, #13, #107 ) ;
#90 = VERTEX_POINT ( 'NONE', #160 ) ;
#91 = ADVANCED_FACE ( 'NONE', ( #236 ), #84, .T. ) ;
#92 = APPLICATION_CONTEXT ( 'automotive_design' ) ;
#93 = UNCERTAINTY_MEASURE_WITH_UNIT (LENGTH_MEASURE( 1.000000000000000082E-05 ), #338, 'distance_accuracy_value', 'NONE');
#94 =( LENGTH_UNIT ( ) NAMED_UNIT ( * ) SI_UNIT ( $, .METRE. ) );
#95 = EDGE_LOOP ( 'NONE', ( #225, #228, #28, #249 ) ) ;
#96 = VECTOR ( 'NONE', #181, 39.37007874015748143 ) ;
#97 =( CONVERSION_BASED_UNIT ( 'INCH', #151 ) LENGTH_UNIT ( ) NAMED_UNIT ( #72 ) );
#98 = UNCERTAINTY_MEASURE_WITH_UNIT (LENGTH_MEASURE( 1.000000000000000082E-05 ), #97, 'distance_accuracy_value', 'NONE');
#99 =( NAMED_UNIT ( * ) SI_UNIT ( $, .STERADIAN. ) SOLID_ANGLE_UNIT ( ) );
#100 = DIMENSIONAL_EXPONENTS ( 1.000000000000000000, 0.000000000000000000, 0.000000000000000000, 0.000000000000000000, 0.000000000000000000, 0.000000000000000000, 0.000000000000000000 ) ;
#101 = ORIENTED_EDGE ( 'NONE', *, *, #302, .T. ) ;
#102 = ADVANCED_FACE ( 'NONE', ( #297 ), #318, .T. ) ;
#103 =( NAMED_UNIT ( * ) SI_UNIT ( $, .STERADIAN. ) SOLID_ANGLE_UNIT ( ) );
#104 = VECTOR ( 'NONE', #143, 39.37007874015748854 ) ;
#105 = LENGTH_MEASURE_WITH_UNIT ( LENGTH_MEASURE( 0.02539999999999999897 ), #76 );
#106 = DIRECTION ( 'NONE',  ( 0.000000000000000000, 0.000000000000000000, -1.000000000000000000 ) ) ;
#107 = DIRECTION ( 'NONE',  ( -1.000000000000000000, 0.000000000000000000, 0.000000000000000000 ) ) ;
#108 = CARTESIAN_POINT ( 'NONE',  ( 9.564491501340826783E-18, 0.1874999999999999722, 0.07809999999999997500 ) ) ;
#109 = DIRECTION ( 'NONE',  ( -1.000000000000000000, 0.000000000000000000, 0.000000000000000000 ) ) ;
#110 = CIRCLE ( 'NONE', #310, 0.09375000000000001388 ) ;
#111 = AXIS2_PLACEMENT_3D ( 'NONE', #52, #241, #218 ) ;
#112 = CARTESIAN_POINT ( 'NONE',  ( 6.123233995736766036E-17, 2.000000000000000000, 0.000000000000000000 ) ) ;
#113 = FILL_AREA_STYLE ('',( #185 ) ) ;
#114 = LENGTH_MEASURE_WITH_UNIT ( LENGTH_MEASURE( 0.02539999999999999897 ), #141 );
#115 = SURFACE_SIDE_STYLE ('',( #85 ) ) ;
#116 = EDGE_CURVE ( 'NONE', #171, #279, #214, .T. ) ;
#117 = UNCERTAINTY_MEASURE_WITH_UNIT (LENGTH_MEASURE( 1.000000000000000082E-05 ), #316, 'distance_accuracy_value', 'NONE');
#118 = STYLED_ITEM ( 'NONE', ( #24 ), #223 ) ;
#119 = DIRECTION ( 'NONE',  ( -1.000000000000000000, 0.000000000000000000, 0.000000000000000000 ) ) ;
#120 = DIRECTION ( 'NONE',  ( 3.378335997647870959E-17, 1.000000000000000000, -0.000000000000000000 ) ) ;
#121 = UNCERTAINTY_MEASURE_WITH_UNIT (LENGTH_MEASURE( 1.000000000000000082E-05 ), #164, 'distance_accuracy_value', 'NONE');
#122 = FACE_OUTER_BOUND ( 'NONE', #69, .T. ) ;
#123 = ORIENTED_EDGE ( 'NONE', *, *, #289, .T. ) ;
#124 = STYLED_ITEM ( 'NONE', ( #216 ), #34 ) ;
#125 =( CONVERSION_BASED_UNIT ( 'INCH', #253 ) LENGTH_UNIT ( ) NAMED_UNIT ( #67 ) );
#126 =( GEOMETRIC_REPRESENTATION_CONTEXT ( 3 ) GLOBAL_UNCERTAINTY_ASSIGNED_CONTEXT ( ( #93 ) ) GLOBAL_UNIT_ASSIGNED_CONTEXT ( ( #338, #349, #22 ) ) REPRESENTATION_CONTEXT ( 'NONE', 'WORKASPACE' ) );
#127 =( NAMED_UNIT ( * ) PLANE_ANGLE_UNIT ( ) SI_UNIT ( $, .RADIAN. ) );
#128 = CARTESIAN_POINT ( 'NONE',  ( 0.000000000000000000, 0.1874999999999999722, 0.000000000000000000 ) ) ;
#129 =( LENGTH_UNIT ( ) NAMED_UNIT ( * ) SI_UNIT ( $, .METRE. ) );
#130 = PRESENTATION_LAYER_ASSIGNMENT (  '', '', ( #57 ) ) ;
#131 = AXIS2_PLACEMENT_3D ( 'NONE', #356, #327, #86 ) ;
#132 =( NAMED_UNIT ( * ) PLANE_ANGLE_UNIT ( ) SI_UNIT ( $, .RADIAN. ) );
#133 = CARTESIAN_POINT ( 'NONE',  ( 0.000000000000000000, 0.1875000000000001110, 0.000000000000000000 ) ) ;
#134 = LENGTH_MEASURE_WITH_UNIT ( LENGTH_MEASURE( 0.02539999999999999897 ), #320 );
#135 = CARTESIAN_POINT ( 'NONE',  ( 6.123233995736766036E-17, 2.000000000000000000, 0.000000000000000000 ) ) ;
#136 = SURFACE_STYLE_FILL_AREA ( #14 ) ;
#137 =( GEOMETRIC_REPRESENTATION_CONTEXT ( 3 ) GLOBAL_UNCERTAINTY_ASSIGNED_CONTEXT ( ( #98 ) ) GLOBAL_UNIT_ASSIGNED_CONTEXT ( ( #97, #155, #103 ) ) REPRESENTATION_CONTEXT ( 'NONE', 'WORKASPACE' ) );
#138 = CYLINDRICAL_SURFACE ( 'NONE', #170, 0.07809999999999997500 ) ;
#139 = CARTESIAN_POINT ( 'NONE',  ( 0.000000000000000000, 0.000000000000000000, -0.07809999999999997500 ) ) ;
#140 = ORIENTED_EDGE ( 'NONE', *, *, #217, .F. ) ;
#141 =( LENGTH_UNIT ( ) NAMED_UNIT ( * ) SI_UNIT ( $, .METRE. ) );
#142 = AXIS2_PLACEMENT_3D ( 'NONE', #242, #41, #180 ) ;
#143 = DIRECTION ( 'NONE',  ( 0.3420201433256709889, 0.9396926207859074287, 4.188538737677018882E-17 ) ) ;
#144 = ORIENTED_EDGE ( 'NONE', *, *, #321, .T. ) ;
#145 = ORIENTED_EDGE ( 'NONE', *, *, #35, .T. ) ;
#146 = CLOSED_SHELL ( 'NONE', ( #315, #91, #230, #220, #102, #270 ) ) ;
#147 = VECTOR ( 'NONE', #299, 39.37007874015748143 ) ;
#148 = ORIENTED_EDGE ( 'NONE', *, *, #172, .T. ) ;
#149 = ORIENTED_EDGE ( 'NONE', *, *, #283, .T. ) ;
#150 = PRESENTATION_STYLE_ASSIGNMENT (( #153 ) ) ;
#151 = LENGTH_MEASURE_WITH_UNIT ( LENGTH_MEASURE( 0.02539999999999999897 ), #129 );
#152 = COLOUR_RGB ( '',1.000000000000000000, 0.000000000000000000, 0.000000000000000000 ) ;
#153 = SURFACE_STYLE_USAGE ( .BOTH. , #176 ) ;
#154 = COLOUR_RGB ( '',1.000000000000000000, 0.000000000000000000, 0.000000000000000000 ) ;
#155 =( NAMED_UNIT ( * ) PLANE_ANGLE_UNIT ( ) SI_UNIT ( $, .RADIAN. ) );
#156 = DIRECTION ( 'NONE',  ( -0.000000000000000000, -1.000000000000000000, -0.000000000000000000 ) ) ;
#157 = SURFACE_STYLE_FILL_AREA ( #213 ) ;
#158 = PRODUCT_DEFINITION ( 'UNKNOWN', '', #335, #202 ) ;
#159 = MECHANICAL_DESIGN_GEOMETRIC_PRESENTATION_REPRESENTATION (  '', ( #339 ), #209 ) ;
#160 = CARTESIAN_POINT ( 'NONE',  ( 9.564491501340828324E-18, 0.000000000000000000, 0.07810000000000000275 ) ) ;
#161 = AXIS2_PLACEMENT_3D ( 'NONE', #267, #272, #194 ) ;
#162 = CARTESIAN_POINT ( 'NONE',  ( 6.123233995736766036E-17, 2.000000000000000000, 0.000000000000000000 ) ) ;
#163 = SURFACE_STYLE_FILL_AREA ( #113 ) ;
#164 =( CONVERSION_BASED_UNIT ( 'INCH', #114 ) LENGTH_UNIT ( ) NAMED_UNIT ( #16 ) );
#165 = CARTESIAN_POINT ( 'NONE',  ( -0.09375000000000006939, 0.2304980216144648930, 0.000000000000000000 ) ) ;
#166 = CARTESIAN_POINT ( 'NONE',  ( 0.000000000000000000, 0.000000000000000000, 0.000000000000000000 ) ) ;
#167 = VERTEX_POINT ( 'NONE', #264 ) ;
#168 = FACE_OUTER_BOUND ( 'NONE', #309, .T. ) ;
#169 = EDGE_CURVE ( 'NONE', #197, #177, #17, .T. ) ;
#170 = AXIS2_PLACEMENT_3D ( 'NONE', #296, #343, #106 ) ;
#171 = VERTEX_POINT ( 'NONE', #165 ) ;
#172 = EDGE_CURVE ( 'NONE', #171, #177, #188, .T. ) ;
#173 = ORIENTED_EDGE ( 'NONE', *, *, #321, .F. ) ;
#174 = CIRCLE ( 'NONE', #142, 0.07809999999999997500 ) ;
#175 = EDGE_LOOP ( 'NONE', ( #224, #313, #250, #359 ) ) ;
#176 = SURFACE_SIDE_STYLE ('',( #37 ) ) ;
#177 = VERTEX_POINT ( 'NONE', #247 ) ;
#178 = EDGE_CURVE ( 'NONE', #177, #171, #231, .T. ) ;
#179 = ORIENTED_EDGE ( 'NONE', *, *, #217, .T. ) ;
#180 = DIRECTION ( 'NONE',  ( -1.000000000000000000, 0.000000000000000000, 0.000000000000000000 ) ) ;
#181 = DIRECTION ( 'NONE',  ( 3.378335997647870959E-17, 1.000000000000000000, -0.000000000000000000 ) ) ;
#182 = DIRECTION ( 'NONE',  ( -1.000000000000000000, 0.000000000000000000, 0.000000000000000000 ) ) ;
#183 = DIRECTION ( 'NONE',  ( 0.000000000000000000, 0.000000000000000000, -1.000000000000000000 ) ) ;
#184 = DIRECTION ( 'NONE',  ( -1.000000000000000000, 3.378335997647870959E-17, 0.000000000000000000 ) ) ;
#185 = FILL_AREA_STYLE_COLOUR ( '', #190 ) ;
#186 = DIRECTION ( 'NONE',  ( 0.000000000000000000, 0.000000000000000000, -1.000000000000000000 ) ) ;
#187 = PRESENTATION_LAYER_ASSIGNMENT (  '', '', ( #124 ) ) ;
#188 = CIRCLE ( 'NONE', #19, 0.09375000000000006939 ) ;
#189 = FACE_OUTER_BOUND ( 'NONE', #1, .T. ) ;
#190 = COLOUR_RGB ( '',1.000000000000000000, 0.000000000000000000, 0.000000000000000000 ) ;
#191 = CARTESIAN_POINT ( 'NONE',  ( 0.000000000000000000, 0.000000000000000000, 0.000000000000000000 ) ) ;
#192 = FACE_OUTER_BOUND ( 'NONE', #273, .T. ) ;
#193 = LINE ( 'NONE', #277, #96 ) ;
#194 = DIRECTION ( 'NONE',  ( -1.000000000000000000, 0.000000000000000000, 0.000000000000000000 ) ) ;
#195 = COLOUR_RGB ( '',0.7921568627450980005, 0.8196078431372548767, 0.9333333333333333481 ) ;
#196 = PRESENTATION_LAYER_ASSIGNMENT (  '', '', ( #118 ) ) ;
#197 = VERTEX_POINT ( 'NONE', #306 ) ;
#198 = PRODUCT_DEFINITION_SHAPE ( 'NONE', 'NONE',  #158 ) ;
#199 = EDGE_LOOP ( 'NONE', ( #140, #334 ) ) ;
#200 = FILL_AREA_STYLE ('',( #332 ) ) ;
#201 = MECHANICAL_DESIGN_GEOMETRIC_PRESENTATION_REPRESENTATION (  '', ( #57 ), #254 ) ;
#202 = PRODUCT_DEFINITION_CONTEXT ( 'detailed design', #92, 'design' ) ;
#203 = MECHANICAL_DESIGN_GEOMETRIC_PRESENTATION_REPRESENTATION (  '', ( #31 ), #226 ) ;
#204 = ORIENTED_EDGE ( 'NONE', *, *, #234, .T. ) ;
#205 =( CONVERSION_BASED_UNIT ( 'INCH', #284 ) LENGTH_UNIT ( ) NAMED_UNIT ( #229 ) );
#206 = FILL_AREA_STYLE ('',( #65 ) ) ;
#207 = SHAPE_DEFINITION_REPRESENTATION ( #198, #292 ) ;
#208 = ORIENTED_EDGE ( 'NONE', *, *, #77, .T. ) ;
#209 =( GEOMETRIC_REPRESENTATION_CONTEXT ( 3 ) GLOBAL_UNCERTAINTY_ASSIGNED_CONTEXT ( ( #61 ) ) GLOBAL_UNIT_ASSIGNED_CONTEXT ( ( #125, #331, #99 ) ) REPRESENTATION_CONTEXT ( 'NONE', 'WORKASPACE' ) );
#210 = CIRCLE ( 'NONE', #131, 0.07810000000000000275 ) ;
#211 = SURFACE_STYLE_USAGE ( .BOTH. , #344 ) ;
#212 = PRESENTATION_STYLE_ASSIGNMENT (( #342 ) ) ;
#213 = FILL_AREA_STYLE ('',( #44 ) ) ;
#214 = LINE ( 'NONE', #78, #147 ) ;
#215 = CIRCLE ( 'NONE', #8, 0.07809999999999997500 ) ;
#216 = PRESENTATION_STYLE_ASSIGNMENT (( #232 ) ) ;
#217 = EDGE_CURVE ( 'NONE', #167, #53, #215, .T. ) ;
#218 = DIRECTION ( 'NONE',  ( 1.000000000000000000, -3.378335997647870959E-17, 0.000000000000000000 ) ) ;
#219 = AXIS2_PLACEMENT_3D ( 'NONE', #294, #42, #36 ) ;
#220 = ADVANCED_FACE ( 'NONE', ( #122 ), #70, .T. ) ;
#221 = PLANE ( 'NONE',  #290 ) ;
#222 = ORIENTED_EDGE ( 'NONE', *, *, #234, .F. ) ;
#223 = ADVANCED_FACE ( 'NONE', ( #168 ), #301, .T. ) ;
#224 = ORIENTED_EDGE ( 'NONE', *, *, #346, .T. ) ;
#225 = ORIENTED_EDGE ( 'NONE', *, *, #289, .F. ) ;
#226 =( GEOMETRIC_REPRESENTATION_CONTEXT ( 3 ) GLOBAL_UNCERTAINTY_ASSIGNED_CONTEXT ( ( #286 ) ) GLOBAL_UNIT_ASSIGNED_CONTEXT ( ( #205, #127, #40 ) ) REPRESENTATION_CONTEXT ( 'NONE', 'WORKASPACE' ) );
#227 = APPLICATION_PROTOCOL_DEFINITION ( 'draft international standard', 'automotive_design', 1998, #92 ) ;
#228 = ORIENTED_EDGE ( 'NONE', *, *, #178, .T. ) ;
#229 = DIMENSIONAL_EXPONENTS ( 1.000000000000000000, 0.000000000000000000, 0.000000000000000000, 0.000000000000000000, 0.000000000000000000, 0.000000000000000000, 0.000000000000000000 ) ;
#230 = ADVANCED_FACE ( 'NONE', ( #192 ), #221, .F. ) ;
#231 = CIRCLE ( 'NONE', #161, 0.09375000000000006939 ) ;
#232 = SURFACE_STYLE_USAGE ( .BOTH. , #47 ) ;
#233 = DIRECTION ( 'NONE',  ( 3.378335997647870959E-17, 1.000000000000000000, -0.000000000000000000 ) ) ;
#234 = EDGE_CURVE ( 'NONE', #167, #291, #49, .T. ) ;
#235 = PRESENTATION_STYLE_ASSIGNMENT (( #211 ) ) ;
#236 = FACE_OUTER_BOUND ( 'NONE', #175, .T. ) ;
#237 = AXIS2_PLACEMENT_3D ( 'NONE', #112, #300, #351 ) ;
#238 = FACE_OUTER_BOUND ( 'NONE', #311, .T. ) ;
#239 =( NAMED_UNIT ( * ) SI_UNIT ( $, .STERADIAN. ) SOLID_ANGLE_UNIT ( ) );
#240 = DIRECTION ( 'NONE',  ( 0.000000000000000000, -1.000000000000000000, -0.000000000000000000 ) ) ;
#241 = DIRECTION ( 'NONE',  ( -3.378335997647870959E-17, -1.000000000000000000, 0.000000000000000000 ) ) ;
#242 = CARTESIAN_POINT ( 'NONE',  ( 0.000000000000000000, 0.1875000000000001110, 0.000000000000000000 ) ) ;
#243 = CARTESIAN_POINT ( 'NONE',  ( -0.09374999999999994449, 2.000000000000000000, 0.000000000000000000 ) ) ;
#244 = ORIENTED_EDGE ( 'NONE', *, *, #302, .F. ) ;
#245 = COLOUR_RGB ( '',0.7921568627450980005, 0.8196078431372548767, 0.9333333333333333481 ) ;
#246 = AXIS2_PLACEMENT_3D ( 'NONE', #166, #282, #186 ) ;
#247 = CARTESIAN_POINT ( 'NONE',  ( 0.09375000000000006939, 0.2304980216144648930, 1.148106374200644633E-17 ) ) ;
#248 = PRODUCT ( '81703', '81703', '', ( #7 ) ) ;
#249 = ORIENTED_EDGE ( 'NONE', *, *, #77, .F. ) ;
#250 = ORIENTED_EDGE ( 'NONE', *, *, #172, .F. ) ;
#251 = CIRCLE ( 'NONE', #64, 0.07810000000000000275 ) ;
#252 = ORIENTED_EDGE ( 'NONE', *, *, #178, .F. ) ;
#253 = LENGTH_MEASURE_WITH_UNIT ( LENGTH_MEASURE( 0.02539999999999999897 ), #94 );
#254 =( GEOMETRIC_REPRESENTATION_CONTEXT ( 3 ) GLOBAL_UNCERTAINTY_ASSIGNED_CONTEXT ( ( #117 ) ) GLOBAL_UNIT_ASSIGNED_CONTEXT ( ( #316, #132, #256 ) ) REPRESENTATION_CONTEXT ( 'NONE', 'WORKASPACE' ) );
#255 = DIRECTION ( 'NONE',  ( -1.000000000000000000, 0.000000000000000000, 0.000000000000000000 ) ) ;
#256 =( NAMED_UNIT ( * ) SI_UNIT ( $, .STERADIAN. ) SOLID_ANGLE_UNIT ( ) );
#257 = LENGTH_MEASURE_WITH_UNIT ( LENGTH_MEASURE( 0.02539999999999999897 ), #15 );
#258 = DIMENSIONAL_EXPONENTS ( 1.000000000000000000, 0.000000000000000000, 0.000000000000000000, 0.000000000000000000, 0.000000000000000000, 0.000000000000000000, 0.000000000000000000 ) ;
#259 = CIRCLE ( 'NONE', #12, 0.07809999999999997500 ) ;
#260 = AXIS2_PLACEMENT_3D ( 'NONE', #191, #240, #80 ) ;
#261 = DIRECTION ( 'NONE',  ( -0.000000000000000000, -1.000000000000000000, -0.000000000000000000 ) ) ;
#262 = PLANE ( 'NONE',  #260 ) ;
#263 = FACE_OUTER_BOUND ( 'NONE', #336, .T. ) ;
#264 = CARTESIAN_POINT ( 'NONE',  ( 0.000000000000000000, 0.1874999999999999722, -0.07809999999999997500 ) ) ;
#265 = SURFACE_STYLE_USAGE ( .BOTH. , #271 ) ;
#266 = CLOSED_SHELL ( 'NONE', ( #82, #18, #223, #71 ) ) ;
#267 = CARTESIAN_POINT ( 'NONE',  ( 1.452617642477878901E-18, 0.2304980216144648930, 0.000000000000000000 ) ) ;
#268 =( GEOMETRIC_REPRESENTATION_CONTEXT ( 3 ) GLOBAL_UNCERTAINTY_ASSIGNED_CONTEXT ( ( #121 ) ) GLOBAL_UNIT_ASSIGNED_CONTEXT ( ( #164, #21, #239 ) ) REPRESENTATION_CONTEXT ( 'NONE', 'WORKASPACE' ) );
#269 = DIRECTION ( 'NONE',  ( 0.000000000000000000, 0.000000000000000000, -1.000000000000000000 ) ) ;
#270 = ADVANCED_FACE ( 'NONE', ( #303 ), #352, .F. ) ;
#271 = SURFACE_SIDE_STYLE ('',( #163 ) ) ;
#272 = DIRECTION ( 'NONE',  ( 3.378335997647870959E-17, 1.000000000000000000, -0.000000000000000000 ) ) ;
#273 = EDGE_LOOP ( 'NONE', ( #81, #275 ) ) ;
#274 = DIRECTION ( 'NONE',  ( -0.000000000000000000, -1.000000000000000000, -0.000000000000000000 ) ) ;
#275 = ORIENTED_EDGE ( 'NONE', *, *, #26, .F. ) ;
#276 = CARTESIAN_POINT ( 'NONE',  ( -0.07809999999999997500, 0.1875000000000001110, 0.000000000000000000 ) ) ;
#277 = CARTESIAN_POINT ( 'NONE',  ( 0.09375000000000011102, 2.000000000000000000, 1.148106374200644171E-17 ) ) ;
#278 = PRESENTATION_LAYER_ASSIGNMENT (  '', '', ( #31 ) ) ;
#279 = VERTEX_POINT ( 'NONE', #243 ) ;
#280 = FACE_OUTER_BOUND ( 'NONE', #199, .T. ) ;
#281 = AXIS2_PLACEMENT_3D ( 'NONE', #128, #261, #183 ) ;
#282 = DIRECTION ( 'NONE',  ( -0.000000000000000000, -1.000000000000000000, -0.000000000000000000 ) ) ;
#283 = EDGE_CURVE ( 'NONE', #90, #291, #210, .T. ) ;
#284 = LENGTH_MEASURE_WITH_UNIT ( LENGTH_MEASURE( 0.02539999999999999897 ), #322 );
#285 = CARTESIAN_POINT ( 'NONE',  ( 9.564491501340826783E-18, 0.000000000000000000, 0.07809999999999997500 ) ) ;
#286 = UNCERTAINTY_MEASURE_WITH_UNIT (LENGTH_MEASURE( 1.000000000000000082E-05 ), #205, 'distance_accuracy_value', 'NONE');
#287 = APPLICATION_PROTOCOL_DEFINITION ( 'draft international standard', 'automotive_design', 1998, #68 ) ;
#288 = DIRECTION ( 'NONE',  ( 0.000000000000000000, -0.000000000000000000, 1.000000000000000000 ) ) ;
#289 = EDGE_CURVE ( 'NONE', #177, #25, #193, .T. ) ;
#290 = AXIS2_PLACEMENT_3D ( 'NONE', #79, #23, #184 ) ;
#291 = VERTEX_POINT ( 'NONE', #48 ) ;
#292 = ADVANCED_BREP_SHAPE_REPRESENTATION ( '81703', ( #34, #39, #219 ), #137 ) ;
#293 =( CONVERSION_BASED_UNIT ( 'INCH', #134 ) LENGTH_UNIT ( ) NAMED_UNIT ( #258 ) );
#294 = CARTESIAN_POINT ( 'NONE',  ( 0.000000000000000000, 0.000000000000000000, 0.000000000000000000 ) ) ;
#295 = DIRECTION ( 'NONE',  ( -0.3420201433256709334, 0.9396926207859076507, 0.000000000000000000 ) ) ;
#296 = CARTESIAN_POINT ( 'NONE',  ( 0.000000000000000000, 0.000000000000000000, 0.000000000000000000 ) ) ;
#297 = FACE_OUTER_BOUND ( 'NONE', #95, .T. ) ;
#298 =( NAMED_UNIT ( * ) SI_UNIT ( $, .STERADIAN. ) SOLID_ANGLE_UNIT ( ) );
#299 = DIRECTION ( 'NONE',  ( 3.378335997647870959E-17, 1.000000000000000000, -0.000000000000000000 ) ) ;
#300 = DIRECTION ( 'NONE',  ( 3.378335997647870959E-17, 1.000000000000000000, -0.000000000000000000 ) ) ;
#301 = CYLINDRICAL_SURFACE ( 'NONE', #246, 0.07809999999999997500 ) ;
#302 = EDGE_CURVE ( 'NONE', #53, #90, #307, .T. ) ;
#303 = FACE_OUTER_BOUND ( 'NONE', #30, .T. ) ;
#304 = VECTOR ( 'NONE', #295, 39.37007874015748854 ) ;
#305 = DIRECTION ( 'NONE',  ( 0.000000000000000000, 0.000000000000000000, -1.000000000000000000 ) ) ;
#306 = CARTESIAN_POINT ( 'NONE',  ( 0.07809999999999997500, 0.1875000000000001110, 1.052277762167363656E-17 ) ) ;
#307 = LINE ( 'NONE', #285, #51 ) ;
#308 = CARTESIAN_POINT ( 'NONE',  ( 0.000000000000000000, 0.1874999999999999722, 0.000000000000000000 ) ) ;
#309 = EDGE_LOOP ( 'NONE', ( #244, #145, #204, #33 ) ) ;
#310 = AXIS2_PLACEMENT_3D ( 'NONE', #162, #11, #182 ) ;
#311 = EDGE_LOOP ( 'NONE', ( #179, #101, #173, #222 ) ) ;
#312 = SURFACE_STYLE_FILL_AREA ( #200 ) ;
#313 = ORIENTED_EDGE ( 'NONE', *, *, #169, .T. ) ;
#314 = CARTESIAN_POINT ( 'NONE',  ( 0.000000000000000000, 0.1874999999999999722, 0.000000000000000000 ) ) ;
#315 = ADVANCED_FACE ( 'NONE', ( #189 ), #3, .T. ) ;
#316 =( CONVERSION_BASED_UNIT ( 'INCH', #105 ) LENGTH_UNIT ( ) NAMED_UNIT ( #100 ) );
#317 = EDGE_CURVE ( 'NONE', #87, #171, #354, .T. ) ;
#318 = CYLINDRICAL_SURFACE ( 'NONE', #75, 0.09375000000000004163 ) ;
#319 = DIRECTION ( 'NONE',  ( -0.000000000000000000, -1.000000000000000000, -0.000000000000000000 ) ) ;
#320 =( LENGTH_UNIT ( ) NAMED_UNIT ( * ) SI_UNIT ( $, .METRE. ) );
#321 = EDGE_CURVE ( 'NONE', #291, #90, #251, .T. ) ;
#322 =( LENGTH_UNIT ( ) NAMED_UNIT ( * ) SI_UNIT ( $, .METRE. ) );
#323 = DIRECTION ( 'NONE',  ( 3.378335997647870959E-17, 1.000000000000000000, -0.000000000000000000 ) ) ;
#324 = DIRECTION ( 'NONE',  ( 3.378335997647870959E-17, 1.000000000000000000, -0.000000000000000000 ) ) ;
#325 = AXIS2_PLACEMENT_3D ( 'NONE', #348, #324, #119 ) ;
#326 = DIRECTION ( 'NONE',  ( -1.000000000000000000, 0.000000000000000000, 0.000000000000000000 ) ) ;
#327 = DIRECTION ( 'NONE',  ( -0.000000000000000000, -1.000000000000000000, -0.000000000000000000 ) ) ;
#328 = PRODUCT_RELATED_PRODUCT_CATEGORY ( 'part', '', ( #248 ) ) ;
#329 = SURFACE_STYLE_USAGE ( .BOTH. , #115 ) ;
#330 = ORIENTED_EDGE ( 'NONE', *, *, #116, .F. ) ;
#331 =( NAMED_UNIT ( * ) PLANE_ANGLE_UNIT ( ) SI_UNIT ( $, .RADIAN. ) );
#332 = FILL_AREA_STYLE_COLOUR ( '', #195 ) ;
#333 = UNCERTAINTY_MEASURE_WITH_UNIT (LENGTH_MEASURE( 1.000000000000000082E-05 ), #293, 'distance_accuracy_value', 'NONE');
#334 = ORIENTED_EDGE ( 'NONE', *, *, #35, .F. ) ;
#335 = PRODUCT_DEFINITION_FORMATION_WITH_SPECIFIED_SOURCE ( 'ANY', '', #248, .NOT_KNOWN. ) ;
#336 = EDGE_LOOP ( 'NONE', ( #144, #149 ) ) ;
#337 = ORIENTED_EDGE ( 'NONE', *, *, #26, .T. ) ;
#338 =( CONVERSION_BASED_UNIT ( 'INCH', #257 ) LENGTH_UNIT ( ) NAMED_UNIT ( #46 ) );
#339 = STYLED_ITEM ( 'NONE', ( #150 ), #18 ) ;
#340 = COLOUR_RGB ( '',1.000000000000000000, 0.000000000000000000, 0.000000000000000000 ) ;
#341 = CIRCLE ( 'NONE', #237, 0.09375000000000001388 ) ;
#342 = SURFACE_STYLE_USAGE ( .BOTH. , #73 ) ;
#343 = DIRECTION ( 'NONE',  ( -0.000000000000000000, -1.000000000000000000, -0.000000000000000000 ) ) ;
#344 = SURFACE_SIDE_STYLE ('',( #136 ) ) ;
#345 = STYLED_ITEM ( 'NONE', ( #235 ), #71 ) ;
#346 = EDGE_CURVE ( 'NONE', #87, #197, #174, .T. ) ;
#347 =( NAMED_UNIT ( * ) PLANE_ANGLE_UNIT ( ) SI_UNIT ( $, .RADIAN. ) );
#348 = CARTESIAN_POINT ( 'NONE',  ( 6.123233995736766036E-17, 2.000000000000000000, 0.000000000000000000 ) ) ;
#349 =( NAMED_UNIT ( * ) PLANE_ANGLE_UNIT ( ) SI_UNIT ( $, .RADIAN. ) );
#350 = DIRECTION ( 'NONE',  ( -0.000000000000000000, -1.000000000000000000, -0.000000000000000000 ) ) ;
#351 = DIRECTION ( 'NONE',  ( -1.000000000000000000, 0.000000000000000000, 0.000000000000000000 ) ) ;
#352 = PLANE ( 'NONE',  #111 ) ;
#353 =( GEOMETRIC_REPRESENTATION_CONTEXT ( 3 ) GLOBAL_UNCERTAINTY_ASSIGNED_CONTEXT ( ( #333 ) ) GLOBAL_UNIT_ASSIGNED_CONTEXT ( ( #293, #347, #298 ) ) REPRESENTATION_CONTEXT ( 'NONE', 'WORKASPACE' ) );
#354 = LINE ( 'NONE', #276, #304 ) ;
#355 = AXIS2_PLACEMENT_3D ( 'NONE', #59, #358, #55 ) ;
#356 = CARTESIAN_POINT ( 'NONE',  ( 0.000000000000000000, 0.000000000000000000, 0.000000000000000000 ) ) ;
#357 = ORIENTED_EDGE ( 'NONE', *, *, #317, .T. ) ;
#358 = DIRECTION ( 'NONE',  ( 3.378335997647870959E-17, 1.000000000000000000, -0.000000000000000000 ) ) ;
#359 = ORIENTED_EDGE ( 'NONE', *, *, #317, .F. ) ;
ENDSEC;
END-ISO-10303-21;
