ISO-10303-21;
HEADER;
FILE_DESCRIPTION (( 'STEP AP214' ),
    '1' );
FILE_NAME ('24197.STEP',
    '2023-06-22T17:03:03',
    ( '' ),
    ( '' ),
    'SwSTEP 2.0',
    'SolidWorks 2023',
    '' );
FILE_SCHEMA (( 'AUTOMOTIVE_DESIGN' ));
ENDSEC;

DATA;
#1 = DIRECTION ( 'NONE',  ( -3.061616997868380553E-17, 1.000000000000000000, -0.000000000000000000 ) ) ;
#2 = SURFACE_SIDE_STYLE ('',( #84 ) ) ;
#3 = LINE ( 'NONE', #191, #100 ) ;
#4 = CARTESIAN_POINT ( 'NONE',  ( -6.123233995736759873E-17, 3.500000000000000000, 0.000000000000000000 ) ) ;
#5 = SHAPE_DEFINITION_REPRESENTATION ( #107, #240 ) ;
#6 = CARTESIAN_POINT ( 'NONE',  ( 0.000000000000000000, 1.500000000000000222, -0.1874999999999999722 ) ) ;
#7 = FILL_AREA_STYLE ('',( #47 ) ) ;
#8 = AXIS2_PLACEMENT_3D ( 'NONE', #21, #66, #161 ) ;
#9 = PRODUCT_DEFINITION_FORMATION_WITH_SPECIFIED_SOURCE ( 'ANY', '', #147, .NOT_KNOWN. ) ;
#10 = CARTESIAN_POINT ( 'NONE',  ( -0.1874999999999999722, 1.500000000000000222, 0.000000000000000000 ) ) ;
#11 = UNCERTAINTY_MEASURE_WITH_UNIT (LENGTH_MEASURE( 1.000000000000000082E-05 ), #213, 'distance_accuracy_value', 'NONE');
#12 = ORIENTED_EDGE ( 'NONE', *, *, #131, .F. ) ;
#13 =( GEOMETRIC_REPRESENTATION_CONTEXT ( 3 ) GLOBAL_UNCERTAINTY_ASSIGNED_CONTEXT ( ( #113 ) ) GLOBAL_UNIT_ASSIGNED_CONTEXT ( ( #179, #289, #238 ) ) REPRESENTATION_CONTEXT ( 'NONE', 'WORKASPACE' ) );
#14 = VERTEX_POINT ( 'NONE', #132 ) ;
#15 = CYLINDRICAL_SURFACE ( 'NONE', #134, 0.1874999999999999722 ) ;
#16 = EDGE_LOOP ( 'NONE', ( #87, #252, #57, #277 ) ) ;
#17 = EDGE_LOOP ( 'NONE', ( #149, #197, #300, #60 ) ) ;
#18 = VERTEX_POINT ( 'NONE', #59 ) ;
#19 = PRESENTATION_LAYER_ASSIGNMENT (  '', '', ( #286 ) ) ;
#20 = CARTESIAN_POINT ( 'NONE',  ( 0.000000000000000000, 0.000000000000000000, 0.000000000000000000 ) ) ;
#21 = CARTESIAN_POINT ( 'NONE',  ( -6.123233995736759873E-17, 3.500000000000000000, 0.000000000000000000 ) ) ;
#22 =( CONVERSION_BASED_UNIT ( 'INCH', #158 ) LENGTH_UNIT ( ) NAMED_UNIT ( #61 ) );
#23 = DIMENSIONAL_EXPONENTS ( 1.000000000000000000, 0.000000000000000000, 0.000000000000000000, 0.000000000000000000, 0.000000000000000000, 0.000000000000000000, 0.000000000000000000 ) ;
#24 =( LENGTH_UNIT ( ) NAMED_UNIT ( * ) SI_UNIT ( $, .METRE. ) );
#25 = VECTOR ( 'NONE', #99, 39.37007874015748143 ) ;
#26 =( CONVERSION_BASED_UNIT ( 'INCH', #196 ) LENGTH_UNIT ( ) NAMED_UNIT ( #67 ) );
#27 = MECHANICAL_DESIGN_GEOMETRIC_PRESENTATION_REPRESENTATION (  '', ( #274 ), #257 ) ;
#28 = AXIS2_PLACEMENT_3D ( 'NONE', #296, #244, #52 ) ;
#29 = PLANE ( 'NONE',  #163 ) ;
#30 = FILL_AREA_STYLE_COLOUR ( '', #297 ) ;
#31 = CARTESIAN_POINT ( 'NONE',  ( 0.1874999999999999445, 3.500000000000000000, 2.296212748401287726E-17 ) ) ;
#32 = CIRCLE ( 'NONE', #8, 0.1875000000000000555 ) ;
#33 = EDGE_CURVE ( 'NONE', #152, #133, #223, .T. ) ;
#34 = DIRECTION ( 'NONE',  ( -1.000000000000000000, 0.000000000000000000, 0.000000000000000000 ) ) ;
#35 = CIRCLE ( 'NONE', #207, 0.1874999999999999722 ) ;
#36 = ORIENTED_EDGE ( 'NONE', *, *, #254, .F. ) ;
#37 = EDGE_CURVE ( 'NONE', #133, #152, #156, .T. ) ;
#38 = CARTESIAN_POINT ( 'NONE',  ( 0.000000000000000000, 1.500000000000000222, 0.000000000000000000 ) ) ;
#39 = ORIENTED_EDGE ( 'NONE', *, *, #219, .T. ) ;
#40 = DIMENSIONAL_EXPONENTS ( 1.000000000000000000, 0.000000000000000000, 0.000000000000000000, 0.000000000000000000, 0.000000000000000000, 0.000000000000000000, 0.000000000000000000 ) ;
#41 = SURFACE_SIDE_STYLE ('',( #279 ) ) ;
#42 = LENGTH_MEASURE_WITH_UNIT ( LENGTH_MEASURE( 0.02539999999999999897 ), #293 );
#43 = APPLICATION_CONTEXT ( 'automotive_design' ) ;
#44 = CARTESIAN_POINT ( 'NONE',  ( 0.000000000000000000, 1.500000000000000222, 0.000000000000000000 ) ) ;
#45 = AXIS2_PLACEMENT_3D ( 'NONE', #38, #255, #276 ) ;
#46 = VECTOR ( 'NONE', #170, 39.37007874015748143 ) ;
#47 = FILL_AREA_STYLE_COLOUR ( '', #182 ) ;
#48 = SURFACE_SIDE_STYLE ('',( #74 ) ) ;
#49 = DIRECTION ( 'NONE',  ( 3.061616997868380553E-17, -1.000000000000000000, 0.000000000000000000 ) ) ;
#50 = MANIFOLD_SOLID_BREP ( 'Revolve - Cutting Edge', #70 ) ;
#51 = PRESENTATION_STYLE_ASSIGNMENT (( #165 ) ) ;
#52 = DIRECTION ( 'NONE',  ( -1.000000000000000000, 0.000000000000000000, 0.000000000000000000 ) ) ;
#53 = PRESENTATION_LAYER_ASSIGNMENT (  '', '', ( #81 ) ) ;
#54 = CARTESIAN_POINT ( 'NONE',  ( 0.000000000000000000, 0.000000000000000000, 0.000000000000000000 ) ) ;
#55 = DIRECTION ( 'NONE',  ( 1.000000000000000000, 3.061616997868380553E-17, 0.000000000000000000 ) ) ;
#56 =( NAMED_UNIT ( * ) PLANE_ANGLE_UNIT ( ) SI_UNIT ( $, .RADIAN. ) );
#57 = ORIENTED_EDGE ( 'NONE', *, *, #110, .T. ) ;
#58 = CARTESIAN_POINT ( 'NONE',  ( 0.000000000000000000, 0.000000000000000000, 0.000000000000000000 ) ) ;
#59 = CARTESIAN_POINT ( 'NONE',  ( -0.1875000000000001110, 3.500000000000000000, 0.000000000000000000 ) ) ;
#60 = ORIENTED_EDGE ( 'NONE', *, *, #110, .F. ) ;
#61 = DIMENSIONAL_EXPONENTS ( 1.000000000000000000, 0.000000000000000000, 0.000000000000000000, 0.000000000000000000, 0.000000000000000000, 0.000000000000000000, 0.000000000000000000 ) ;
#62 =( LENGTH_UNIT ( ) NAMED_UNIT ( * ) SI_UNIT ( $, .METRE. ) );
#63 = ORIENTED_EDGE ( 'NONE', *, *, #235, .T. ) ;
#64 = DIMENSIONAL_EXPONENTS ( 1.000000000000000000, 0.000000000000000000, 0.000000000000000000, 0.000000000000000000, 0.000000000000000000, 0.000000000000000000, 0.000000000000000000 ) ;
#65 = STYLED_ITEM ( 'NONE', ( #309 ), #263 ) ;
#66 = DIRECTION ( 'NONE',  ( -3.061616997868380553E-17, 1.000000000000000000, -0.000000000000000000 ) ) ;
#67 = DIMENSIONAL_EXPONENTS ( 1.000000000000000000, 0.000000000000000000, 0.000000000000000000, 0.000000000000000000, 0.000000000000000000, 0.000000000000000000, 0.000000000000000000 ) ;
#68 = EDGE_CURVE ( 'NONE', #14, #175, #168, .T. ) ;
#69 = FACE_OUTER_BOUND ( 'NONE', #177, .T. ) ;
#70 = CLOSED_SHELL ( 'NONE', ( #265, #178, #231, #88 ) ) ;
#71 =( GEOMETRIC_REPRESENTATION_CONTEXT ( 3 ) GLOBAL_UNCERTAINTY_ASSIGNED_CONTEXT ( ( #256 ) ) GLOBAL_UNIT_ASSIGNED_CONTEXT ( ( #192, #141, #264 ) ) REPRESENTATION_CONTEXT ( 'NONE', 'WORKASPACE' ) );
#72 =( GEOMETRIC_REPRESENTATION_CONTEXT ( 3 ) GLOBAL_UNCERTAINTY_ASSIGNED_CONTEXT ( ( #11 ) ) GLOBAL_UNIT_ASSIGNED_CONTEXT ( ( #213, #298, #269 ) ) REPRESENTATION_CONTEXT ( 'NONE', 'WORKASPACE' ) );
#73 = DIRECTION ( 'NONE',  ( 0.000000000000000000, 0.000000000000000000, -1.000000000000000000 ) ) ;
#74 = SURFACE_STYLE_FILL_AREA ( #7 ) ;
#75 = ADVANCED_FACE ( 'NONE', ( #93 ), #91, .F. ) ;
#76 = CYLINDRICAL_SURFACE ( 'NONE', #271, 0.1875000000000000278 ) ;
#77 = PRESENTATION_LAYER_ASSIGNMENT (  '', '', ( #251 ) ) ;
#78 = DIRECTION ( 'NONE',  ( 0.000000000000000000, 0.000000000000000000, -1.000000000000000000 ) ) ;
#79 = FACE_OUTER_BOUND ( 'NONE', #180, .T. ) ;
#80 = UNCERTAINTY_MEASURE_WITH_UNIT (LENGTH_MEASURE( 1.000000000000000082E-05 ), #160, 'distance_accuracy_value', 'NONE');
#81 = STYLED_ITEM ( 'NONE', ( #51 ), #265 ) ;
#82 = ORIENTED_EDGE ( 'NONE', *, *, #254, .T. ) ;
#83 = FILL_AREA_STYLE_COLOUR ( '', #151 ) ;
#84 = SURFACE_STYLE_FILL_AREA ( #198 ) ;
#85 = AXIS2_PLACEMENT_3D ( 'NONE', #44, #112, #155 ) ;
#86 = SURFACE_STYLE_USAGE ( .BOTH. , #41 ) ;
#87 = ORIENTED_EDGE ( 'NONE', *, *, #190, .F. ) ;
#88 = ADVANCED_FACE ( 'NONE', ( #69 ), #116, .T. ) ;
#89 = FILL_AREA_STYLE ('',( #203 ) ) ;
#90 = LENGTH_MEASURE_WITH_UNIT ( LENGTH_MEASURE( 0.02539999999999999897 ), #62 );
#91 = PLANE ( 'NONE',  #120 ) ;
#92 = SURFACE_STYLE_FILL_AREA ( #89 ) ;
#93 = FACE_OUTER_BOUND ( 'NONE', #154, .T. ) ;
#94 = COLOUR_RGB ( '',0.7921568627450980005, 0.8196078431372548767, 0.9333333333333333481 ) ;
#95 = CIRCLE ( 'NONE', #85, 0.1874999999999999722 ) ;
#96 = FACE_OUTER_BOUND ( 'NONE', #16, .T. ) ;
#97 = DIRECTION ( 'NONE',  ( -0.000000000000000000, -1.000000000000000000, -0.000000000000000000 ) ) ;
#98 = DIRECTION ( 'NONE',  ( 0.000000000000000000, 1.000000000000000000, 0.000000000000000000 ) ) ;
#99 = DIRECTION ( 'NONE',  ( -0.000000000000000000, -1.000000000000000000, -0.000000000000000000 ) ) ;
#100 = VECTOR ( 'NONE', #217, 39.37007874015748143 ) ;
#101 = DIRECTION ( 'NONE',  ( -0.000000000000000000, -1.000000000000000000, -0.000000000000000000 ) ) ;
#102 = DIRECTION ( 'NONE',  ( -3.061616997868380553E-17, 1.000000000000000000, -0.000000000000000000 ) ) ;
#103 = SURFACE_SIDE_STYLE ('',( #166 ) ) ;
#104 = VERTEX_POINT ( 'NONE', #167 ) ;
#105 = AXIS2_PLACEMENT_3D ( 'NONE', #123, #98, #273 ) ;
#106 = FILL_AREA_STYLE_COLOUR ( '', #94 ) ;
#107 = PRODUCT_DEFINITION_SHAPE ( 'NONE', 'NONE',  #137 ) ;
#108 = VERTEX_POINT ( 'NONE', #6 ) ;
#109 = CIRCLE ( 'NONE', #121, 0.1875000000000000278 ) ;
#110 = EDGE_CURVE ( 'NONE', #152, #18, #128, .T. ) ;
#111 = PRODUCT_DEFINITION_CONTEXT ( 'detailed design', #228, 'design' ) ;
#112 = DIRECTION ( 'NONE',  ( -0.000000000000000000, -1.000000000000000000, -0.000000000000000000 ) ) ;
#113 = UNCERTAINTY_MEASURE_WITH_UNIT (LENGTH_MEASURE( 1.000000000000000082E-05 ), #179, 'distance_accuracy_value', 'NONE');
#114 = PRESENTATION_LAYER_ASSIGNMENT (  '', '', ( #65 ) ) ;
#115 = DIRECTION ( 'NONE',  ( -0.000000000000000000, -1.000000000000000000, -0.000000000000000000 ) ) ;
#116 = PLANE ( 'NONE',  #230 ) ;
#117 = PRESENTATION_STYLE_ASSIGNMENT (( #86 ) ) ;
#118 = SURFACE_STYLE_USAGE ( .BOTH. , #239 ) ;
#119 = CARTESIAN_POINT ( 'NONE',  ( 0.000000000000000000, 0.000000000000000000, 0.000000000000000000 ) ) ;
#120 = AXIS2_PLACEMENT_3D ( 'NONE', #291, #162, #288 ) ;
#121 = AXIS2_PLACEMENT_3D ( 'NONE', #243, #129, #78 ) ;
#122 =( LENGTH_UNIT ( ) NAMED_UNIT ( * ) SI_UNIT ( $, .METRE. ) );
#123 = CARTESIAN_POINT ( 'NONE',  ( 0.000000000000000000, 1.500000000000000222, 0.000000000000000000 ) ) ;
#124 = LENGTH_MEASURE_WITH_UNIT ( LENGTH_MEASURE( 0.02539999999999999897 ), #216 );
#125 = PRESENTATION_STYLE_ASSIGNMENT (( #142 ) ) ;
#126 = DIRECTION ( 'NONE',  ( 0.000000000000000000, 0.000000000000000000, 1.000000000000000000 ) ) ;
#127 = ADVANCED_FACE ( 'NONE', ( #79 ), #29, .F. ) ;
#128 = LINE ( 'NONE', #268, #157 ) ;
#129 = DIRECTION ( 'NONE',  ( -0.000000000000000000, -1.000000000000000000, -0.000000000000000000 ) ) ;
#130 = ORIENTED_EDGE ( 'NONE', *, *, #33, .F. ) ;
#131 = EDGE_CURVE ( 'NONE', #175, #14, #109, .T. ) ;
#132 = CARTESIAN_POINT ( 'NONE',  ( 0.000000000000000000, 0.000000000000000000, -0.1875000000000000278 ) ) ;
#133 = VERTEX_POINT ( 'NONE', #218 ) ;
#134 = AXIS2_PLACEMENT_3D ( 'NONE', #282, #115, #284 ) ;
#135 = DIRECTION ( 'NONE',  ( -1.000000000000000000, 0.000000000000000000, 0.000000000000000000 ) ) ;
#136 =( NAMED_UNIT ( * ) SI_UNIT ( $, .STERADIAN. ) SOLID_ANGLE_UNIT ( ) );
#137 = PRODUCT_DEFINITION ( 'UNKNOWN', '', #9, #111 ) ;
#138 =( NAMED_UNIT ( * ) PLANE_ANGLE_UNIT ( ) SI_UNIT ( $, .RADIAN. ) );
#139 = SURFACE_STYLE_FILL_AREA ( #181 ) ;
#140 = FILL_AREA_STYLE_COLOUR ( '', #250 ) ;
#141 =( NAMED_UNIT ( * ) PLANE_ANGLE_UNIT ( ) SI_UNIT ( $, .RADIAN. ) );
#142 = SURFACE_STYLE_USAGE ( .BOTH. , #103 ) ;
#143 = AXIS2_PLACEMENT_3D ( 'NONE', #119, #126, #144 ) ;
#144 = DIRECTION ( 'NONE',  ( 1.000000000000000000, 0.000000000000000000, 0.000000000000000000 ) ) ;
#145 = CARTESIAN_POINT ( 'NONE',  ( 2.296212748401286801E-17, 1.500000000000000222, 0.1874999999999999722 ) ) ;
#146 = MECHANICAL_DESIGN_GEOMETRIC_PRESENTATION_REPRESENTATION (  '', ( #281 ), #285 ) ;
#147 = PRODUCT ( '24197', '24197', '', ( #272 ) ) ;
#148 = CARTESIAN_POINT ( 'NONE',  ( 0.000000000000000000, 1.500000000000000222, 0.000000000000000000 ) ) ;
#149 = ORIENTED_EDGE ( 'NONE', *, *, #33, .T. ) ;
#150 = PRESENTATION_LAYER_ASSIGNMENT (  '', '', ( #274 ) ) ;
#151 = COLOUR_RGB ( '',1.000000000000000000, 0.000000000000000000, 0.000000000000000000 ) ;
#152 = VERTEX_POINT ( 'NONE', #10 ) ;
#153 = LENGTH_MEASURE_WITH_UNIT ( LENGTH_MEASURE( 0.02539999999999999897 ), #210 );
#154 = EDGE_LOOP ( 'NONE', ( #130, #253 ) ) ;
#155 = DIRECTION ( 'NONE',  ( 0.000000000000000000, 0.000000000000000000, -1.000000000000000000 ) ) ;
#156 = CIRCLE ( 'NONE', #186, 0.1874999999999999722 ) ;
#157 = VECTOR ( 'NONE', #102, 39.37007874015748143 ) ;
#158 = LENGTH_MEASURE_WITH_UNIT ( LENGTH_MEASURE( 0.02539999999999999897 ), #24 );
#159 = FACE_OUTER_BOUND ( 'NONE', #305, .T. ) ;
#160 =( CONVERSION_BASED_UNIT ( 'INCH', #42 ) LENGTH_UNIT ( ) NAMED_UNIT ( #64 ) );
#161 = DIRECTION ( 'NONE',  ( -1.000000000000000000, 0.000000000000000000, 0.000000000000000000 ) ) ;
#162 = DIRECTION ( 'NONE',  ( -3.061616997868380553E-17, 1.000000000000000000, 0.000000000000000000 ) ) ;
#163 = AXIS2_PLACEMENT_3D ( 'NONE', #195, #49, #55 ) ;
#164 = EDGE_CURVE ( 'NONE', #18, #104, #258, .T. ) ;
#165 = SURFACE_STYLE_USAGE ( .BOTH. , #48 ) ;
#166 = SURFACE_STYLE_FILL_AREA ( #266 ) ;
#167 = CARTESIAN_POINT ( 'NONE',  ( 0.1874999999999999722, 3.500000000000000000, 2.296212748401287726E-17 ) ) ;
#168 = CIRCLE ( 'NONE', #205, 0.1875000000000000278 ) ;
#169 = PRESENTATION_LAYER_ASSIGNMENT (  '', '', ( #281 ) ) ;
#170 = DIRECTION ( 'NONE',  ( -3.061616997868380553E-17, 1.000000000000000000, -0.000000000000000000 ) ) ;
#171 = CYLINDRICAL_SURFACE ( 'NONE', #193, 0.1874999999999999722 ) ;
#172 = CARTESIAN_POINT ( 'NONE',  ( 2.296212748401287109E-17, 0.000000000000000000, 0.1875000000000000278 ) ) ;
#173 = MECHANICAL_DESIGN_GEOMETRIC_PRESENTATION_REPRESENTATION (  '', ( #65 ), #13 ) ;
#174 = ORIENTED_EDGE ( 'NONE', *, *, #219, .F. ) ;
#175 = VERTEX_POINT ( 'NONE', #172 ) ;
#176 = FILL_AREA_STYLE ('',( #83 ) ) ;
#177 = EDGE_LOOP ( 'NONE', ( #229, #222 ) ) ;
#178 = ADVANCED_FACE ( 'NONE', ( #214 ), #245, .T. ) ;
#179 =( CONVERSION_BASED_UNIT ( 'INCH', #90 ) LENGTH_UNIT ( ) NAMED_UNIT ( #23 ) );
#180 = EDGE_LOOP ( 'NONE', ( #201, #63 ) ) ;
#181 = FILL_AREA_STYLE ('',( #140 ) ) ;
#182 = COLOUR_RGB ( '',1.000000000000000000, 0.000000000000000000, 0.000000000000000000 ) ;
#183 =( NAMED_UNIT ( * ) PLANE_ANGLE_UNIT ( ) SI_UNIT ( $, .RADIAN. ) );
#184 =( CONVERSION_BASED_UNIT ( 'INCH', #153 ) LENGTH_UNIT ( ) NAMED_UNIT ( #307 ) );
#185 = PRODUCT_RELATED_PRODUCT_CATEGORY ( 'part', '', ( #147 ) ) ;
#186 = AXIS2_PLACEMENT_3D ( 'NONE', #148, #247, #34 ) ;
#187 = AXIS2_PLACEMENT_3D ( 'NONE', #261, #1, #135 ) ;
#188 = CARTESIAN_POINT ( 'NONE',  ( 0.000000000000000000, 1.500000000000000222, 0.000000000000000000 ) ) ;
#189 = DIRECTION ( 'NONE',  ( 0.000000000000000000, 0.000000000000000000, -1.000000000000000000 ) ) ;
#190 = EDGE_CURVE ( 'NONE', #133, #104, #270, .T. ) ;
#191 = CARTESIAN_POINT ( 'NONE',  ( 2.296212748401286801E-17, 0.000000000000000000, 0.1874999999999999722 ) ) ;
#192 =( CONVERSION_BASED_UNIT ( 'INCH', #124 ) LENGTH_UNIT ( ) NAMED_UNIT ( #287 ) );
#193 = AXIS2_PLACEMENT_3D ( 'NONE', #54, #97, #73 ) ;
#194 = DIRECTION ( 'NONE',  ( 0.000000000000000000, 0.000000000000000000, -1.000000000000000000 ) ) ;
#195 = CARTESIAN_POINT ( 'NONE',  ( 0.1874999999999999722, 3.500000000000000000, 0.000000000000000000 ) ) ;
#196 = LENGTH_MEASURE_WITH_UNIT ( LENGTH_MEASURE( 0.02539999999999999897 ), #215 );
#197 = ORIENTED_EDGE ( 'NONE', *, *, #190, .T. ) ;
#198 = FILL_AREA_STYLE ('',( #106 ) ) ;
#199 = ORIENTED_EDGE ( 'NONE', *, *, #68, .F. ) ;
#200 = COLOUR_RGB ( '',0.7921568627450980005, 0.8196078431372548767, 0.9333333333333333481 ) ;
#201 = ORIENTED_EDGE ( 'NONE', *, *, #164, .T. ) ;
#202 = UNCERTAINTY_MEASURE_WITH_UNIT (LENGTH_MEASURE( 1.000000000000000082E-05 ), #22, 'distance_accuracy_value', 'NONE');
#203 = FILL_AREA_STYLE_COLOUR ( '', #200 ) ;
#204 =( NAMED_UNIT ( * ) PLANE_ANGLE_UNIT ( ) SI_UNIT ( $, .RADIAN. ) );
#205 = AXIS2_PLACEMENT_3D ( 'NONE', #58, #232, #308 ) ;
#206 = SURFACE_STYLE_USAGE ( .BOTH. , #233 ) ;
#207 = AXIS2_PLACEMENT_3D ( 'NONE', #188, #101, #194 ) ;
#208 = PRESENTATION_STYLE_ASSIGNMENT (( #118 ) ) ;
#209 = FACE_OUTER_BOUND ( 'NONE', #17, .T. ) ;
#210 =( LENGTH_UNIT ( ) NAMED_UNIT ( * ) SI_UNIT ( $, .METRE. ) );
#211 = APPLICATION_PROTOCOL_DEFINITION ( 'draft international standard', 'automotive_design', 1998, #43 ) ;
#212 =( NAMED_UNIT ( * ) SI_UNIT ( $, .STERADIAN. ) SOLID_ANGLE_UNIT ( ) );
#213 =( CONVERSION_BASED_UNIT ( 'INCH', #292 ) LENGTH_UNIT ( ) NAMED_UNIT ( #40 ) );
#214 = FACE_OUTER_BOUND ( 'NONE', #283, .T. ) ;
#215 =( LENGTH_UNIT ( ) NAMED_UNIT ( * ) SI_UNIT ( $, .METRE. ) );
#216 =( LENGTH_UNIT ( ) NAMED_UNIT ( * ) SI_UNIT ( $, .METRE. ) );
#217 = DIRECTION ( 'NONE',  ( -0.000000000000000000, -1.000000000000000000, -0.000000000000000000 ) ) ;
#218 = CARTESIAN_POINT ( 'NONE',  ( 0.1874999999999999722, 1.500000000000000222, 2.296212748401287726E-17 ) ) ;
#219 = EDGE_CURVE ( 'NONE', #221, #175, #3, .T. ) ;
#220 = DIRECTION ( 'NONE',  ( -1.000000000000000000, 0.000000000000000000, 0.000000000000000000 ) ) ;
#221 = VERTEX_POINT ( 'NONE', #145 ) ;
#222 = ORIENTED_EDGE ( 'NONE', *, *, #131, .T. ) ;
#223 = CIRCLE ( 'NONE', #45, 0.1874999999999999722 ) ;
#224 = MECHANICAL_DESIGN_GEOMETRIC_PRESENTATION_REPRESENTATION (  '', ( #81 ), #71 ) ;
#225 = ADVANCED_FACE ( 'NONE', ( #96 ), #76, .T. ) ;
#226 = EDGE_LOOP ( 'NONE', ( #174, #82, #302, #12 ) ) ;
#227 = ORIENTED_EDGE ( 'NONE', *, *, #294, .F. ) ;
#228 = APPLICATION_CONTEXT ( 'automotive_design' ) ;
#229 = ORIENTED_EDGE ( 'NONE', *, *, #68, .T. ) ;
#230 = AXIS2_PLACEMENT_3D ( 'NONE', #20, #234, #189 ) ;
#231 = ADVANCED_FACE ( 'NONE', ( #249 ), #15, .T. ) ;
#232 = DIRECTION ( 'NONE',  ( -0.000000000000000000, -1.000000000000000000, -0.000000000000000000 ) ) ;
#233 = SURFACE_SIDE_STYLE ('',( #92 ) ) ;
#234 = DIRECTION ( 'NONE',  ( 0.000000000000000000, -1.000000000000000000, -0.000000000000000000 ) ) ;
#235 = EDGE_CURVE ( 'NONE', #104, #18, #32, .T. ) ;
#236 =( GEOMETRIC_REPRESENTATION_CONTEXT ( 3 ) GLOBAL_UNCERTAINTY_ASSIGNED_CONTEXT ( ( #80 ) ) GLOBAL_UNIT_ASSIGNED_CONTEXT ( ( #160, #183, #262 ) ) REPRESENTATION_CONTEXT ( 'NONE', 'WORKASPACE' ) );
#237 = PRESENTATION_STYLE_ASSIGNMENT (( #290 ) ) ;
#238 =( NAMED_UNIT ( * ) SI_UNIT ( $, .STERADIAN. ) SOLID_ANGLE_UNIT ( ) );
#239 = SURFACE_SIDE_STYLE ('',( #139 ) ) ;
#240 = ADVANCED_BREP_SHAPE_REPRESENTATION ( '24197', ( #50, #263, #143 ), #72 ) ;
#241 = CLOSED_SHELL ( 'NONE', ( #248, #75, #225, #127 ) ) ;
#242 = APPLICATION_PROTOCOL_DEFINITION ( 'draft international standard', 'automotive_design', 1998, #228 ) ;
#243 = CARTESIAN_POINT ( 'NONE',  ( 0.000000000000000000, 0.000000000000000000, 0.000000000000000000 ) ) ;
#244 = DIRECTION ( 'NONE',  ( -3.061616997868380553E-17, 1.000000000000000000, -0.000000000000000000 ) ) ;
#245 = PLANE ( 'NONE',  #105 ) ;
#246 =( GEOMETRIC_REPRESENTATION_CONTEXT ( 3 ) GLOBAL_UNCERTAINTY_ASSIGNED_CONTEXT ( ( #306 ) ) GLOBAL_UNIT_ASSIGNED_CONTEXT ( ( #26, #56, #212 ) ) REPRESENTATION_CONTEXT ( 'NONE', 'WORKASPACE' ) );
#247 = DIRECTION ( 'NONE',  ( -3.061616997868380553E-17, 1.000000000000000000, -0.000000000000000000 ) ) ;
#248 = ADVANCED_FACE ( 'NONE', ( #209 ), #260, .T. ) ;
#249 = FACE_OUTER_BOUND ( 'NONE', #226, .T. ) ;
#250 = COLOUR_RGB ( '',1.000000000000000000, 0.000000000000000000, 0.000000000000000000 ) ;
#251 = STYLED_ITEM ( 'NONE', ( #125 ), #178 ) ;
#252 = ORIENTED_EDGE ( 'NONE', *, *, #37, .T. ) ;
#253 = ORIENTED_EDGE ( 'NONE', *, *, #37, .F. ) ;
#254 = EDGE_CURVE ( 'NONE', #221, #108, #95, .T. ) ;
#255 = DIRECTION ( 'NONE',  ( -3.061616997868380553E-17, 1.000000000000000000, -0.000000000000000000 ) ) ;
#256 = UNCERTAINTY_MEASURE_WITH_UNIT (LENGTH_MEASURE( 1.000000000000000082E-05 ), #192, 'distance_accuracy_value', 'NONE');
#257 =( GEOMETRIC_REPRESENTATION_CONTEXT ( 3 ) GLOBAL_UNCERTAINTY_ASSIGNED_CONTEXT ( ( #202 ) ) GLOBAL_UNIT_ASSIGNED_CONTEXT ( ( #22, #204, #136 ) ) REPRESENTATION_CONTEXT ( 'NONE', 'WORKASPACE' ) );
#258 = CIRCLE ( 'NONE', #28, 0.1875000000000000555 ) ;
#259 =( NAMED_UNIT ( * ) SI_UNIT ( $, .STERADIAN. ) SOLID_ANGLE_UNIT ( ) );
#260 = CYLINDRICAL_SURFACE ( 'NONE', #187, 0.1875000000000000278 ) ;
#261 = CARTESIAN_POINT ( 'NONE',  ( -6.123233995736759873E-17, 3.500000000000000000, 0.000000000000000000 ) ) ;
#262 =( NAMED_UNIT ( * ) SI_UNIT ( $, .STERADIAN. ) SOLID_ANGLE_UNIT ( ) );
#263 = MANIFOLD_SOLID_BREP ( 'Revolve - Tool Body (Straight Shanked)', #241 ) ;
#264 =( NAMED_UNIT ( * ) SI_UNIT ( $, .STERADIAN. ) SOLID_ANGLE_UNIT ( ) );
#265 = ADVANCED_FACE ( 'NONE', ( #159 ), #171, .T. ) ;
#266 = FILL_AREA_STYLE ('',( #30 ) ) ;
#267 = LINE ( 'NONE', #295, #25 ) ;
#268 = CARTESIAN_POINT ( 'NONE',  ( -0.1875000000000000833, 3.500000000000000000, 0.000000000000000000 ) ) ;
#269 =( NAMED_UNIT ( * ) SI_UNIT ( $, .STERADIAN. ) SOLID_ANGLE_UNIT ( ) );
#270 = LINE ( 'NONE', #31, #46 ) ;
#271 = AXIS2_PLACEMENT_3D ( 'NONE', #4, #299, #220 ) ;
#272 = PRODUCT_CONTEXT ( 'NONE', #43, 'mechanical' ) ;
#273 = DIRECTION ( 'NONE',  ( 0.000000000000000000, -0.000000000000000000, 1.000000000000000000 ) ) ;
#274 = STYLED_ITEM ( 'NONE', ( #237 ), #50 ) ;
#275 = MECHANICAL_DESIGN_GEOMETRIC_PRESENTATION_REPRESENTATION (  '', ( #251 ), #246 ) ;
#276 = DIRECTION ( 'NONE',  ( -1.000000000000000000, 0.000000000000000000, 0.000000000000000000 ) ) ;
#277 = ORIENTED_EDGE ( 'NONE', *, *, #235, .F. ) ;
#278 = UNCERTAINTY_MEASURE_WITH_UNIT (LENGTH_MEASURE( 1.000000000000000082E-05 ), #184, 'distance_accuracy_value', 'NONE');
#279 = SURFACE_STYLE_FILL_AREA ( #176 ) ;
#280 = ORIENTED_EDGE ( 'NONE', *, *, #304, .F. ) ;
#281 = STYLED_ITEM ( 'NONE', ( #117 ), #231 ) ;
#282 = CARTESIAN_POINT ( 'NONE',  ( 0.000000000000000000, 0.000000000000000000, 0.000000000000000000 ) ) ;
#283 = EDGE_LOOP ( 'NONE', ( #227, #36 ) ) ;
#284 = DIRECTION ( 'NONE',  ( 0.000000000000000000, 0.000000000000000000, -1.000000000000000000 ) ) ;
#285 =( GEOMETRIC_REPRESENTATION_CONTEXT ( 3 ) GLOBAL_UNCERTAINTY_ASSIGNED_CONTEXT ( ( #278 ) ) GLOBAL_UNIT_ASSIGNED_CONTEXT ( ( #184, #138, #259 ) ) REPRESENTATION_CONTEXT ( 'NONE', 'WORKASPACE' ) );
#286 = STYLED_ITEM ( 'NONE', ( #208 ), #88 ) ;
#287 = DIMENSIONAL_EXPONENTS ( 1.000000000000000000, 0.000000000000000000, 0.000000000000000000, 0.000000000000000000, 0.000000000000000000, 0.000000000000000000, 0.000000000000000000 ) ;
#288 = DIRECTION ( 'NONE',  ( -1.000000000000000000, -3.061616997868380553E-17, 0.000000000000000000 ) ) ;
#289 =( NAMED_UNIT ( * ) PLANE_ANGLE_UNIT ( ) SI_UNIT ( $, .RADIAN. ) );
#290 = SURFACE_STYLE_USAGE ( .BOTH. , #2 ) ;
#291 = CARTESIAN_POINT ( 'NONE',  ( 8.787654976534308023E-35, 1.500000000000000222, 0.000000000000000000 ) ) ;
#292 = LENGTH_MEASURE_WITH_UNIT ( LENGTH_MEASURE( 0.02539999999999999897 ), #122 );
#293 =( LENGTH_UNIT ( ) NAMED_UNIT ( * ) SI_UNIT ( $, .METRE. ) );
#294 = EDGE_CURVE ( 'NONE', #108, #221, #35, .T. ) ;
#295 = CARTESIAN_POINT ( 'NONE',  ( 0.000000000000000000, 0.000000000000000000, -0.1874999999999999722 ) ) ;
#296 = CARTESIAN_POINT ( 'NONE',  ( -6.123233995736759873E-17, 3.500000000000000000, 0.000000000000000000 ) ) ;
#297 = COLOUR_RGB ( '',1.000000000000000000, 0.000000000000000000, 0.000000000000000000 ) ;
#298 =( NAMED_UNIT ( * ) PLANE_ANGLE_UNIT ( ) SI_UNIT ( $, .RADIAN. ) );
#299 = DIRECTION ( 'NONE',  ( -3.061616997868380553E-17, 1.000000000000000000, -0.000000000000000000 ) ) ;
#300 = ORIENTED_EDGE ( 'NONE', *, *, #164, .F. ) ;
#301 = MECHANICAL_DESIGN_GEOMETRIC_PRESENTATION_REPRESENTATION (  '', ( #286 ), #236 ) ;
#302 = ORIENTED_EDGE ( 'NONE', *, *, #304, .T. ) ;
#303 = ORIENTED_EDGE ( 'NONE', *, *, #294, .T. ) ;
#304 = EDGE_CURVE ( 'NONE', #108, #14, #267, .T. ) ;
#305 = EDGE_LOOP ( 'NONE', ( #303, #39, #199, #280 ) ) ;
#306 = UNCERTAINTY_MEASURE_WITH_UNIT (LENGTH_MEASURE( 1.000000000000000082E-05 ), #26, 'distance_accuracy_value', 'NONE');
#307 = DIMENSIONAL_EXPONENTS ( 1.000000000000000000, 0.000000000000000000, 0.000000000000000000, 0.000000000000000000, 0.000000000000000000, 0.000000000000000000, 0.000000000000000000 ) ;
#308 = DIRECTION ( 'NONE',  ( 0.000000000000000000, 0.000000000000000000, -1.000000000000000000 ) ) ;
#309 = PRESENTATION_STYLE_ASSIGNMENT (( #206 ) ) ;
ENDSEC;
END-ISO-10303-21;
