ISO-10303-21;
HEADER;
FILE_DESCRIPTION (( 'STEP AP214' ),
    '1' );
FILE_NAME ('83291.STEP',
    '2023-06-30T22:58:21',
    ( '' ),
    ( '' ),
    'SwSTEP 2.0',
    'SolidWorks 2023',
    '' );
FILE_SCHEMA (( 'AUTOMOTIVE_DESIGN' ));
ENDSEC;

DATA;
#1 =( NAMED_UNIT ( * ) PLANE_ANGLE_UNIT ( ) SI_UNIT ( $, .RADIAN. ) );
#2 = FACE_OUTER_BOUND ( 'NONE', #13, .T. ) ;
#3 = STYLED_ITEM ( 'NONE', ( #9 ), #353 ) ;
#4 =( NAMED_UNIT ( * ) PLANE_ANGLE_UNIT ( ) SI_UNIT ( $, .RADIAN. ) );
#5 = LENGTH_MEASURE_WITH_UNIT ( LENGTH_MEASURE( 0.02539999999999999897 ), #122 );
#6 = ORIENTED_EDGE ( 'NONE', *, *, #291, .F. ) ;
#7 = FILL_AREA_STYLE ('',( #336 ) ) ;
#8 = DIRECTION ( 'NONE',  ( 0.000000000000000000, 0.000000000000000000, 1.000000000000000000 ) ) ;
#9 = PRESENTATION_STYLE_ASSIGNMENT (( #165 ) ) ;
#10 = CARTESIAN_POINT ( 'NONE',  ( 2.296212748401286801E-17, 0.000000000000000000, 0.1874999999999999722 ) ) ;
#11 = FILL_AREA_STYLE ('',( #191 ) ) ;
#12 = PRESENTATION_LAYER_ASSIGNMENT (  '', '', ( #198 ) ) ;
#13 = EDGE_LOOP ( 'NONE', ( #211, #108, #6, #173 ) ) ;
#14 = LENGTH_MEASURE_WITH_UNIT ( LENGTH_MEASURE( 0.02539999999999999897 ), #276 );
#15 = CARTESIAN_POINT ( 'NONE',  ( 2.296212748401287109E-17, 0.1875000000000000555, 0.1875000000000000278 ) ) ;
#16 = SURFACE_STYLE_USAGE ( .BOTH. , #189 ) ;
#17 = CARTESIAN_POINT ( 'NONE',  ( 0.000000000000000000, 0.5000000000000000000, -0.1874999999999999722 ) ) ;
#18 = VERTEX_POINT ( 'NONE', #292 ) ;
#19 = DIRECTION ( 'NONE',  ( 1.000000000000000000, 0.000000000000000000, 0.000000000000000000 ) ) ;
#20 = EDGE_CURVE ( 'NONE', #243, #320, #261, .T. ) ;
#21 = STYLED_ITEM ( 'NONE', ( #268 ), #224 ) ;
#22 = AXIS2_PLACEMENT_3D ( 'NONE', #230, #148, #260 ) ;
#23 = CARTESIAN_POINT ( 'NONE',  ( 0.1874999999999999722, 0.5000000000000001110, 2.296212748401284952E-17 ) ) ;
#24 = FILL_AREA_STYLE_COLOUR ( '', #318 ) ;
#25 = UNCERTAINTY_MEASURE_WITH_UNIT (LENGTH_MEASURE( 1.000000000000000082E-05 ), #190, 'distance_accuracy_value', 'NONE');
#26 = CARTESIAN_POINT ( 'NONE',  ( 3.067472995370340001E-16, 0.5000000000000001110, 0.000000000000000000 ) ) ;
#27 = SURFACE_SIDE_STYLE ('',( #177 ) ) ;
#28 = AXIS2_PLACEMENT_3D ( 'NONE', #240, #348, #314 ) ;
#29 = MECHANICAL_DESIGN_GEOMETRIC_PRESENTATION_REPRESENTATION (  '', ( #198 ), #99 ) ;
#30 = MECHANICAL_DESIGN_GEOMETRIC_PRESENTATION_REPRESENTATION (  '', ( #3 ), #326 ) ;
#31 = CARTESIAN_POINT ( 'NONE',  ( 0.1874999999999999722, 2.000000000000000000, 2.296212748401284952E-17 ) ) ;
#32 = SURFACE_STYLE_FILL_AREA ( #7 ) ;
#33 = DIRECTION ( 'NONE',  ( 0.000000000000000000, 0.000000000000000000, -1.000000000000000000 ) ) ;
#34 = DIRECTION ( 'NONE',  ( -0.000000000000000000, -1.000000000000000000, -0.000000000000000000 ) ) ;
#35 = DIMENSIONAL_EXPONENTS ( 1.000000000000000000, 0.000000000000000000, 0.000000000000000000, 0.000000000000000000, 0.000000000000000000, 0.000000000000000000, 0.000000000000000000 ) ;
#36 = CARTESIAN_POINT ( 'NONE',  ( -0.1875000000000000555, 0.1875000000000000555, 2.296212748401288034E-17 ) ) ;
#37 = UNCERTAINTY_MEASURE_WITH_UNIT (LENGTH_MEASURE( 1.000000000000000082E-05 ), #246, 'distance_accuracy_value', 'NONE');
#38 = LENGTH_MEASURE_WITH_UNIT ( LENGTH_MEASURE( 0.02539999999999999897 ), #97 );
#39 = EDGE_CURVE ( 'NONE', #18, #282, #142, .T. ) ;
#40 =( NAMED_UNIT ( * ) SI_UNIT ( $, .STERADIAN. ) SOLID_ANGLE_UNIT ( ) );
#41 = ORIENTED_EDGE ( 'NONE', *, *, #117, .F. ) ;
#42 = AXIS2_PLACEMENT_3D ( 'NONE', #26, #229, #337 ) ;
#43 = FILL_AREA_STYLE ('',( #199 ) ) ;
#44 = ORIENTED_EDGE ( 'NONE', *, *, #153, .F. ) ;
#45 = FACE_OUTER_BOUND ( 'NONE', #127, .T. ) ;
#46 = EDGE_LOOP ( 'NONE', ( #151, #200, #91, #316, #44 ) ) ;
#47 = DIRECTION ( 'NONE',  ( -1.000000000000000000, 0.000000000000000000, 0.000000000000000000 ) ) ;
#48 = SURFACE_STYLE_FILL_AREA ( #218 ) ;
#49 = CLOSED_SHELL ( 'NONE', ( #263, #353, #275, #95, #224 ) ) ;
#50 = PRESENTATION_LAYER_ASSIGNMENT (  '', '', ( #93 ) ) ;
#51 =( NAMED_UNIT ( * ) PLANE_ANGLE_UNIT ( ) SI_UNIT ( $, .RADIAN. ) );
#52 =( GEOMETRIC_REPRESENTATION_CONTEXT ( 3 ) GLOBAL_UNCERTAINTY_ASSIGNED_CONTEXT ( ( #186 ) ) GLOBAL_UNIT_ASSIGNED_CONTEXT ( ( #257, #1, #121 ) ) REPRESENTATION_CONTEXT ( 'NONE', 'WORKASPACE' ) );
#53 = FACE_OUTER_BOUND ( 'NONE', #63, .T. ) ;
#54 = DIRECTION ( 'NONE',  ( -0.000000000000000000, -1.000000000000000000, -0.000000000000000000 ) ) ;
#55 = CARTESIAN_POINT ( 'NONE',  ( 0.000000000000000000, 0.000000000000000000, 0.000000000000000000 ) ) ;
#56 =( NAMED_UNIT ( * ) SI_UNIT ( $, .STERADIAN. ) SOLID_ANGLE_UNIT ( ) );
#57 = DIRECTION ( 'NONE',  ( -1.000000000000000000, 0.000000000000000000, 0.000000000000000000 ) ) ;
#58 = AXIS2_PLACEMENT_3D ( 'NONE', #304, #171, #103 ) ;
#59 = SURFACE_STYLE_USAGE ( .BOTH. , #27 ) ;
#60 = AXIS2_PLACEMENT_3D ( 'NONE', #113, #287, #373 ) ;
#61 = PRESENTATION_LAYER_ASSIGNMENT (  '', '', ( #170 ) ) ;
#62 =( CONVERSION_BASED_UNIT ( 'INCH', #213 ) LENGTH_UNIT ( ) NAMED_UNIT ( #235 ) );
#63 = EDGE_LOOP ( 'NONE', ( #100, #253, #226, #181 ) ) ;
#64 = AXIS2_PLACEMENT_3D ( 'NONE', #222, #167, #329 ) ;
#65 = AXIS2_PLACEMENT_3D ( 'NONE', #223, #114, #77 ) ;
#66 = ADVANCED_FACE ( 'NONE', ( #267 ), #125, .F. ) ;
#67 = CARTESIAN_POINT ( 'NONE',  ( -2.296212748401287726E-17, 0.1875000000000000278, 0.000000000000000000 ) ) ;
#68 = DIRECTION ( 'NONE',  ( 0.000000000000000000, 0.000000000000000000, 1.000000000000000000 ) ) ;
#69 = CLOSED_SHELL ( 'NONE', ( #330, #209, #195, #66 ) ) ;
#70 = AXIS2_PLACEMENT_3D ( 'NONE', #225, #76, #249 ) ;
#71 = PRESENTATION_LAYER_ASSIGNMENT (  '', '', ( #3 ) ) ;
#72 =( NAMED_UNIT ( * ) SI_UNIT ( $, .STERADIAN. ) SOLID_ANGLE_UNIT ( ) );
#73 = SURFACE_SIDE_STYLE ('',( #139 ) ) ;
#74 = LENGTH_MEASURE_WITH_UNIT ( LENGTH_MEASURE( 0.02539999999999999897 ), #301 );
#75 = ORIENTED_EDGE ( 'NONE', *, *, #98, .T. ) ;
#76 = DIRECTION ( 'NONE',  ( -1.228550797481990867E-16, 1.000000000000000000, -0.000000000000000000 ) ) ;
#77 = DIRECTION ( 'NONE',  ( 0.000000000000000000, 0.000000000000000000, -1.000000000000000000 ) ) ;
#78 = ORIENTED_EDGE ( 'NONE', *, *, #252, .T. ) ;
#79 = PLANE ( 'NONE',  #58 ) ;
#80 = MECHANICAL_DESIGN_GEOMETRIC_PRESENTATION_REPRESENTATION (  '', ( #93 ), #346 ) ;
#81 = CARTESIAN_POINT ( 'NONE',  ( 0.1875000000000000278, 0.1875000000000000555, 0.000000000000000000 ) ) ;
#82 = PRESENTATION_STYLE_ASSIGNMENT (( #59 ) ) ;
#83 = AXIS2_PLACEMENT_3D ( 'NONE', #133, #68, #101 ) ;
#84 = AXIS2_PLACEMENT_3D ( 'NONE', #55, #283, #19 ) ;
#85 = SURFACE_STYLE_USAGE ( .BOTH. , #73 ) ;
#86 = CARTESIAN_POINT ( 'NONE',  ( -1.148106374200643555E-17, -3.414809992080329023E-17, 0.000000000000000000 ) ) ;
#87 = DIMENSIONAL_EXPONENTS ( 1.000000000000000000, 0.000000000000000000, 0.000000000000000000, 0.000000000000000000, 0.000000000000000000, 0.000000000000000000, 0.000000000000000000 ) ;
#88 = UNCERTAINTY_MEASURE_WITH_UNIT (LENGTH_MEASURE( 1.000000000000000082E-05 ), #359, 'distance_accuracy_value', 'NONE');
#89 = PRODUCT_DEFINITION_SHAPE ( 'NONE', 'NONE',  #342 ) ;
#90 = DIRECTION ( 'NONE',  ( -1.000000000000000000, 0.000000000000000000, 0.000000000000000000 ) ) ;
#91 = ORIENTED_EDGE ( 'NONE', *, *, #164, .F. ) ;
#92 = EDGE_LOOP ( 'NONE', ( #205, #272 ) ) ;
#93 = STYLED_ITEM ( 'NONE', ( #349 ), #219 ) ;
#94 = CARTESIAN_POINT ( 'NONE',  ( 0.000000000000000000, 0.1875000000000000555, 0.000000000000000000 ) ) ;
#95 = ADVANCED_FACE ( 'NONE', ( #104 ), #112, .T. ) ;
#96 = CARTESIAN_POINT ( 'NONE',  ( 0.000000000000000000, 0.5000000000000000000, 0.000000000000000000 ) ) ;
#97 =( LENGTH_UNIT ( ) NAMED_UNIT ( * ) SI_UNIT ( $, .METRE. ) );
#98 = EDGE_CURVE ( 'NONE', #332, #293, #371, .T. ) ;
#99 =( GEOMETRIC_REPRESENTATION_CONTEXT ( 3 ) GLOBAL_UNCERTAINTY_ASSIGNED_CONTEXT ( ( #343 ) ) GLOBAL_UNIT_ASSIGNED_CONTEXT ( ( #62, #317, #294 ) ) REPRESENTATION_CONTEXT ( 'NONE', 'WORKASPACE' ) );
#100 = ORIENTED_EDGE ( 'NONE', *, *, #20, .F. ) ;
#101 = DIRECTION ( 'NONE',  ( 1.000000000000000000, 0.000000000000000000, 0.000000000000000000 ) ) ;
#102 = EDGE_LOOP ( 'NONE', ( #75, #368 ) ) ;
#103 = DIRECTION ( 'NONE',  ( -1.000000000000000000, -1.228550797481990867E-16, 0.000000000000000000 ) ) ;
#104 = FACE_OUTER_BOUND ( 'NONE', #352, .T. ) ;
#105 = CIRCLE ( 'NONE', #350, 0.1875000000000000278 ) ;
#106 =( NAMED_UNIT ( * ) SI_UNIT ( $, .STERADIAN. ) SOLID_ANGLE_UNIT ( ) );
#107 = DIRECTION ( 'NONE',  ( 0.000000000000000000, 0.000000000000000000, -1.000000000000000000 ) ) ;
#108 = ORIENTED_EDGE ( 'NONE', *, *, #20, .T. ) ;
#109 = CARTESIAN_POINT ( 'NONE',  ( 0.000000000000000000, 0.1875000000000000555, 0.000000000000000000 ) ) ;
#110 = DIRECTION ( 'NONE',  ( -0.000000000000000000, -1.000000000000000000, -0.000000000000000000 ) ) ;
#111 = CIRCLE ( 'NONE', #311, 0.1875000000000000555 ) ;
#112 = CYLINDRICAL_SURFACE ( 'NONE', #158, 0.1874999999999999722 ) ;
#113 = CARTESIAN_POINT ( 'NONE',  ( 0.000000000000000000, 0.5000000000000000000, 0.000000000000000000 ) ) ;
#114 = DIRECTION ( 'NONE',  ( -0.000000000000000000, -1.000000000000000000, -0.000000000000000000 ) ) ;
#115 = LENGTH_MEASURE_WITH_UNIT ( LENGTH_MEASURE( 0.02539999999999999897 ), #204 );
#116 = PRESENTATION_STYLE_ASSIGNMENT (( #288 ) ) ;
#117 = EDGE_CURVE ( 'NONE', #215, #217, #250, .T. ) ;
#118 = AXIS2_PLACEMENT_3D ( 'NONE', #67, #8, #197 ) ;
#119 = PRODUCT ( '83291', '83291', '', ( #194 ) ) ;
#120 = DIMENSIONAL_EXPONENTS ( 1.000000000000000000, 0.000000000000000000, 0.000000000000000000, 0.000000000000000000, 0.000000000000000000, 0.000000000000000000, 0.000000000000000000 ) ;
#121 =( NAMED_UNIT ( * ) SI_UNIT ( $, .STERADIAN. ) SOLID_ANGLE_UNIT ( ) );
#122 =( LENGTH_UNIT ( ) NAMED_UNIT ( * ) SI_UNIT ( $, .METRE. ) );
#123 = MECHANICAL_DESIGN_GEOMETRIC_PRESENTATION_REPRESENTATION (  '', ( #132 ), #221 ) ;
#124 = PRESENTATION_LAYER_ASSIGNMENT (  '', '', ( #169 ) ) ;
#125 = PLANE ( 'NONE',  #28 ) ;
#126 = FILL_AREA_STYLE ('',( #162 ) ) ;
#127 = EDGE_LOOP ( 'NONE', ( #259, #355, #78, #236 ) ) ;
#128 = SURFACE_SIDE_STYLE ('',( #269 ) ) ;
#129 = PRESENTATION_STYLE_ASSIGNMENT (( #265 ) ) ;
#130 = APPLICATION_CONTEXT ( 'automotive_design' ) ;
#131 = SPHERICAL_SURFACE ( 'NONE', #118, 0.1875000000000000555 ) ;
#132 = STYLED_ITEM ( 'NONE', ( #116 ), #95 ) ;
#133 = CARTESIAN_POINT ( 'NONE',  ( -2.296212748401287726E-17, 0.1875000000000000278, 0.000000000000000000 ) ) ;
#134 = DIRECTION ( 'NONE',  ( -0.000000000000000000, -1.000000000000000000, -0.000000000000000000 ) ) ;
#135 =( NAMED_UNIT ( * ) PLANE_ANGLE_UNIT ( ) SI_UNIT ( $, .RADIAN. ) );
#136 = LENGTH_MEASURE_WITH_UNIT ( LENGTH_MEASURE( 0.02539999999999999897 ), #206 );
#137 = COLOUR_RGB ( '',1.000000000000000000, 0.000000000000000000, 0.000000000000000000 ) ;
#138 = FACE_OUTER_BOUND ( 'NONE', #92, .T. ) ;
#139 = SURFACE_STYLE_FILL_AREA ( #300 ) ;
#140 = FACE_OUTER_BOUND ( 'NONE', #46, .T. ) ;
#141 = LENGTH_MEASURE_WITH_UNIT ( LENGTH_MEASURE( 0.02539999999999999897 ), #254 );
#142 = CIRCLE ( 'NONE', #196, 0.1875000000000000278 ) ;
#143 = CIRCLE ( 'NONE', #188, 0.1874999999999998335 ) ;
#144 = CARTESIAN_POINT ( 'NONE',  ( -2.296212748401287726E-17, 0.1875000000000000278, 0.000000000000000000 ) ) ;
#145 = FACE_OUTER_BOUND ( 'NONE', #284, .T. ) ;
#146 = ORIENTED_EDGE ( 'NONE', *, *, #252, .F. ) ;
#147 = EDGE_CURVE ( 'NONE', #328, #358, #333, .T. ) ;
#148 = DIRECTION ( 'NONE',  ( -1.228550797481990867E-16, 1.000000000000000000, -0.000000000000000000 ) ) ;
#149 = UNCERTAINTY_MEASURE_WITH_UNIT (LENGTH_MEASURE( 1.000000000000000082E-05 ), #234, 'distance_accuracy_value', 'NONE');
#150 = AXIS2_PLACEMENT_3D ( 'NONE', #345, #184, #154 ) ;
#151 = ORIENTED_EDGE ( 'NONE', *, *, #266, .T. ) ;
#152 =( GEOMETRIC_REPRESENTATION_CONTEXT ( 3 ) GLOBAL_UNCERTAINTY_ASSIGNED_CONTEXT ( ( #149 ) ) GLOBAL_UNIT_ASSIGNED_CONTEXT ( ( #234, #340, #56 ) ) REPRESENTATION_CONTEXT ( 'NONE', 'WORKASPACE' ) );
#153 = EDGE_CURVE ( 'NONE', #351, #18, #220, .T. ) ;
#154 = DIRECTION ( 'NONE',  ( 1.000000000000000000, 0.000000000000000000, -1.224646799147353207E-16 ) ) ;
#155 = DIRECTION ( 'NONE',  ( -1.228550797481990867E-16, 1.000000000000000000, -0.000000000000000000 ) ) ;
#156 = DIRECTION ( 'NONE',  ( 0.000000000000000000, 0.000000000000000000, -1.000000000000000000 ) ) ;
#157 = LINE ( 'NONE', #270, #295 ) ;
#158 = AXIS2_PLACEMENT_3D ( 'NONE', #273, #303, #166 ) ;
#159 = ORIENTED_EDGE ( 'NONE', *, *, #228, .F. ) ;
#160 = EDGE_CURVE ( 'NONE', #243, #18, #180, .T. ) ;
#161 = SURFACE_SIDE_STYLE ('',( #315 ) ) ;
#162 = FILL_AREA_STYLE_COLOUR ( '', #137 ) ;
#163 = CIRCLE ( 'NONE', #42, 0.1874999999999996669 ) ;
#164 = EDGE_CURVE ( 'NONE', #282, #217, #279, .T. ) ;
#165 = SURFACE_STYLE_USAGE ( .BOTH. , #277 ) ;
#166 = DIRECTION ( 'NONE',  ( 0.000000000000000000, 0.000000000000000000, -1.000000000000000000 ) ) ;
#167 = DIRECTION ( 'NONE',  ( -1.228550797481990867E-16, 1.000000000000000000, -0.000000000000000000 ) ) ;
#168 = DIRECTION ( 'NONE',  ( 0.000000000000000000, 0.000000000000000000, -1.000000000000000000 ) ) ;
#169 = STYLED_ITEM ( 'NONE', ( #82 ), #275 ) ;
#170 = STYLED_ITEM ( 'NONE', ( #299 ), #338 ) ;
#171 = DIRECTION ( 'NONE',  ( -1.228550797481990867E-16, 1.000000000000000000, 0.000000000000000000 ) ) ;
#172 =( NAMED_UNIT ( * ) SI_UNIT ( $, .STERADIAN. ) SOLID_ANGLE_UNIT ( ) );
#173 = ORIENTED_EDGE ( 'NONE', *, *, #164, .T. ) ;
#174 = ORIENTED_EDGE ( 'NONE', *, *, #339, .T. ) ;
#175 = CARTESIAN_POINT ( 'NONE',  ( 0.1874999999999999167, 2.000000000000000000, 2.296212748401284644E-17 ) ) ;
#176 = AXIS2_PLACEMENT_3D ( 'NONE', #327, #54, #331 ) ;
#177 = SURFACE_STYLE_FILL_AREA ( #231 ) ;
#178 = DIMENSIONAL_EXPONENTS ( 1.000000000000000000, 0.000000000000000000, 0.000000000000000000, 0.000000000000000000, 0.000000000000000000, 0.000000000000000000, 0.000000000000000000 ) ;
#179 = DIRECTION ( 'NONE',  ( -1.228550797481990867E-16, 1.000000000000000000, -0.000000000000000000 ) ) ;
#180 = CIRCLE ( 'NONE', #285, 0.1875000000000000278 ) ;
#181 = ORIENTED_EDGE ( 'NONE', *, *, #291, .T. ) ;
#182 = PRESENTATION_LAYER_ASSIGNMENT (  '', '', ( #21 ) ) ;
#183 = DIRECTION ( 'NONE',  ( -0.000000000000000000, -1.000000000000000000, -0.000000000000000000 ) ) ;
#184 = DIRECTION ( 'NONE',  ( 1.224646799147353207E-16, -0.000000000000000000, 1.000000000000000000 ) ) ;
#185 = FACE_OUTER_BOUND ( 'NONE', #216, .T. ) ;
#186 = UNCERTAINTY_MEASURE_WITH_UNIT (LENGTH_MEASURE( 1.000000000000000082E-05 ), #257, 'distance_accuracy_value', 'NONE');
#187 = DIRECTION ( 'NONE',  ( -0.000000000000000000, -1.000000000000000000, -0.000000000000000000 ) ) ;
#188 = AXIS2_PLACEMENT_3D ( 'NONE', #369, #179, #57 ) ;
#189 = SURFACE_SIDE_STYLE ('',( #48 ) ) ;
#190 =( CONVERSION_BASED_UNIT ( 'INCH', #74 ) LENGTH_UNIT ( ) NAMED_UNIT ( #290 ) );
#191 = FILL_AREA_STYLE_COLOUR ( '', #357 ) ;
#192 = CARTESIAN_POINT ( 'NONE',  ( 3.067472995370340001E-16, 0.5000000000000001110, 0.000000000000000000 ) ) ;
#193 = CARTESIAN_POINT ( 'NONE',  ( 0.000000000000000000, 0.000000000000000000, -0.1874999999999999722 ) ) ;
#194 = PRODUCT_CONTEXT ( 'NONE', #130, 'mechanical' ) ;
#195 = ADVANCED_FACE ( 'NONE', ( #45 ), #278, .T. ) ;
#196 = AXIS2_PLACEMENT_3D ( 'NONE', #94, #34, #156 ) ;
#197 = DIRECTION ( 'NONE',  ( 1.000000000000000000, 0.000000000000000000, 0.000000000000000000 ) ) ;
#198 = STYLED_ITEM ( 'NONE', ( #129 ), #263 ) ;
#199 = FILL_AREA_STYLE_COLOUR ( '', #305 ) ;
#200 = ORIENTED_EDGE ( 'NONE', *, *, #117, .T. ) ;
#201 = DIRECTION ( 'NONE',  ( 0.000000000000000000, 0.000000000000000000, -1.000000000000000000 ) ) ;
#202 = ORIENTED_EDGE ( 'NONE', *, *, #266, .F. ) ;
#203 = MECHANICAL_DESIGN_GEOMETRIC_PRESENTATION_REPRESENTATION (  '', ( #21 ), #251 ) ;
#204 =( LENGTH_UNIT ( ) NAMED_UNIT ( * ) SI_UNIT ( $, .METRE. ) );
#205 = ORIENTED_EDGE ( 'NONE', *, *, #310, .F. ) ;
#206 =( LENGTH_UNIT ( ) NAMED_UNIT ( * ) SI_UNIT ( $, .METRE. ) );
#207 = CIRCLE ( 'NONE', #238, 0.1874999999999999722 ) ;
#208 = ORIENTED_EDGE ( 'NONE', *, *, #153, .T. ) ;
#209 = ADVANCED_FACE ( 'NONE', ( #138 ), #79, .F. ) ;
#210 = AXIS2_PLACEMENT_3D ( 'NONE', #356, #363, #168 ) ;
#211 = ORIENTED_EDGE ( 'NONE', *, *, #228, .T. ) ;
#212 =( GEOMETRIC_REPRESENTATION_CONTEXT ( 3 ) GLOBAL_UNCERTAINTY_ASSIGNED_CONTEXT ( ( #237 ) ) GLOBAL_UNIT_ASSIGNED_CONTEXT ( ( #306, #51, #172 ) ) REPRESENTATION_CONTEXT ( 'NONE', 'WORKASPACE' ) );
#213 = LENGTH_MEASURE_WITH_UNIT ( LENGTH_MEASURE( 0.02539999999999999897 ), #347 );
#214 =( CONVERSION_BASED_UNIT ( 'INCH', #38 ) LENGTH_UNIT ( ) NAMED_UNIT ( #120 ) );
#215 = VERTEX_POINT ( 'NONE', #280 ) ;
#216 = EDGE_LOOP ( 'NONE', ( #202, #321 ) ) ;
#217 = VERTEX_POINT ( 'NONE', #15 ) ;
#218 = FILL_AREA_STYLE ('',( #335 ) ) ;
#219 = MANIFOLD_SOLID_BREP ( 'Revolve - Cutting Edge', #49 ) ;
#220 = LINE ( 'NONE', #193, #367 ) ;
#221 =( GEOMETRIC_REPRESENTATION_CONTEXT ( 3 ) GLOBAL_UNCERTAINTY_ASSIGNED_CONTEXT ( ( #88 ) ) GLOBAL_UNIT_ASSIGNED_CONTEXT ( ( #359, #4, #72 ) ) REPRESENTATION_CONTEXT ( 'NONE', 'WORKASPACE' ) );
#222 = CARTESIAN_POINT ( 'NONE',  ( 1.224646799147353700E-16, 2.000000000000000000, 0.000000000000000000 ) ) ;
#223 = CARTESIAN_POINT ( 'NONE',  ( 0.000000000000000000, 0.000000000000000000, 0.000000000000000000 ) ) ;
#224 = ADVANCED_FACE ( 'NONE', ( #53 ), #244, .T. ) ;
#225 = CARTESIAN_POINT ( 'NONE',  ( 1.224646799147353700E-16, 2.000000000000000000, 0.000000000000000000 ) ) ;
#226 = ORIENTED_EDGE ( 'NONE', *, *, #39, .T. ) ;
#227 = SHAPE_DEFINITION_REPRESENTATION ( #89, #302 ) ;
#228 = EDGE_CURVE ( 'NONE', #217, #243, #105, .T. ) ;
#229 = DIRECTION ( 'NONE',  ( -1.228550797481990867E-16, 1.000000000000000000, -0.000000000000000000 ) ) ;
#230 = CARTESIAN_POINT ( 'NONE',  ( 1.224646799147353700E-16, 2.000000000000000000, 0.000000000000000000 ) ) ;
#231 = FILL_AREA_STYLE ('',( #24 ) ) ;
#232 = PRODUCT_RELATED_PRODUCT_CATEGORY ( 'part', '', ( #119 ) ) ;
#233 = PRODUCT_DEFINITION_CONTEXT ( 'detailed design', #308, 'design' ) ;
#234 =( CONVERSION_BASED_UNIT ( 'INCH', #115 ) LENGTH_UNIT ( ) NAMED_UNIT ( #264 ) );
#235 = DIMENSIONAL_EXPONENTS ( 1.000000000000000000, 0.000000000000000000, 0.000000000000000000, 0.000000000000000000, 0.000000000000000000, 0.000000000000000000, 0.000000000000000000 ) ;
#236 = ORIENTED_EDGE ( 'NONE', *, *, #319, .F. ) ;
#237 = UNCERTAINTY_MEASURE_WITH_UNIT (LENGTH_MEASURE( 1.000000000000000082E-05 ), #306, 'distance_accuracy_value', 'NONE');
#238 = AXIS2_PLACEMENT_3D ( 'NONE', #96, #110, #281 ) ;
#239 = CIRCLE ( 'NONE', #176, 0.1874999999999999722 ) ;
#240 = CARTESIAN_POINT ( 'NONE',  ( 0.1874999999999999722, 2.000000000000000000, 0.000000000000000000 ) ) ;
#241 = SURFACE_STYLE_USAGE ( .BOTH. , #128 ) ;
#242 = SURFACE_SIDE_STYLE ('',( #32 ) ) ;
#243 = VERTEX_POINT ( 'NONE', #36 ) ;
#244 = SPHERICAL_SURFACE ( 'NONE', #83, 0.1875000000000000555 ) ;
#245 = COLOUR_RGB ( '',1.000000000000000000, 0.000000000000000000, 0.000000000000000000 ) ;
#246 =( CONVERSION_BASED_UNIT ( 'INCH', #5 ) LENGTH_UNIT ( ) NAMED_UNIT ( #178 ) );
#247 = ORIENTED_EDGE ( 'NONE', *, *, #160, .F. ) ;
#248 = SURFACE_STYLE_FILL_AREA ( #43 ) ;
#249 = DIRECTION ( 'NONE',  ( -1.000000000000000000, 0.000000000000000000, 0.000000000000000000 ) ) ;
#250 = LINE ( 'NONE', #10, #289 ) ;
#251 =( GEOMETRIC_REPRESENTATION_CONTEXT ( 3 ) GLOBAL_UNCERTAINTY_ASSIGNED_CONTEXT ( ( #37 ) ) GLOBAL_UNIT_ASSIGNED_CONTEXT ( ( #246, #322, #313 ) ) REPRESENTATION_CONTEXT ( 'NONE', 'WORKASPACE' ) );
#252 = EDGE_CURVE ( 'NONE', #358, #332, #157, .T. ) ;
#253 = ORIENTED_EDGE ( 'NONE', *, *, #160, .T. ) ;
#254 =( LENGTH_UNIT ( ) NAMED_UNIT ( * ) SI_UNIT ( $, .METRE. ) );
#255 = APPLICATION_PROTOCOL_DEFINITION ( 'draft international standard', 'automotive_design', 1998, #130 ) ;
#256 = PRESENTATION_LAYER_ASSIGNMENT (  '', '', ( #132 ) ) ;
#257 =( CONVERSION_BASED_UNIT ( 'INCH', #141 ) LENGTH_UNIT ( ) NAMED_UNIT ( #309 ) );
#258 = CYLINDRICAL_SURFACE ( 'NONE', #22, 0.1874999999999997780 ) ;
#259 = ORIENTED_EDGE ( 'NONE', *, *, #324, .F. ) ;
#260 = DIRECTION ( 'NONE',  ( -1.000000000000000000, 0.000000000000000000, 0.000000000000000000 ) ) ;
#261 = CIRCLE ( 'NONE', #150, 0.1875000000000000555 ) ;
#262 = COLOUR_RGB ( '',1.000000000000000000, 0.000000000000000000, 0.000000000000000000 ) ;
#263 = ADVANCED_FACE ( 'NONE', ( #2 ), #131, .T. ) ;
#264 = DIMENSIONAL_EXPONENTS ( 1.000000000000000000, 0.000000000000000000, 0.000000000000000000, 0.000000000000000000, 0.000000000000000000, 0.000000000000000000, 0.000000000000000000 ) ;
#265 = SURFACE_STYLE_USAGE ( .BOTH. , #161 ) ;
#266 = EDGE_CURVE ( 'NONE', #351, #215, #207, .T. ) ;
#267 = FACE_OUTER_BOUND ( 'NONE', #102, .T. ) ;
#268 = PRESENTATION_STYLE_ASSIGNMENT (( #85 ) ) ;
#269 = SURFACE_STYLE_FILL_AREA ( #11 ) ;
#270 = CARTESIAN_POINT ( 'NONE',  ( -0.1874999999999996392, 2.000000000000000000, 0.000000000000000000 ) ) ;
#271 = AXIS2_PLACEMENT_3D ( 'NONE', #192, #274, #47 ) ;
#272 = ORIENTED_EDGE ( 'NONE', *, *, #147, .F. ) ;
#273 = CARTESIAN_POINT ( 'NONE',  ( 0.000000000000000000, 0.000000000000000000, 0.000000000000000000 ) ) ;
#274 = DIRECTION ( 'NONE',  ( -1.228550797481990867E-16, 1.000000000000000000, -0.000000000000000000 ) ) ;
#275 = ADVANCED_FACE ( 'NONE', ( #185 ), #370, .T. ) ;
#276 =( LENGTH_UNIT ( ) NAMED_UNIT ( * ) SI_UNIT ( $, .METRE. ) );
#277 = SURFACE_SIDE_STYLE ('',( #248 ) ) ;
#278 = CYLINDRICAL_SURFACE ( 'NONE', #64, 0.1874999999999997780 ) ;
#279 = CIRCLE ( 'NONE', #210, 0.1875000000000000278 ) ;
#280 = CARTESIAN_POINT ( 'NONE',  ( 2.296212748401286801E-17, 0.5000000000000000000, 0.1874999999999999722 ) ) ;
#281 = DIRECTION ( 'NONE',  ( 0.000000000000000000, 0.000000000000000000, -1.000000000000000000 ) ) ;
#282 = VERTEX_POINT ( 'NONE', #81 ) ;
#283 = DIRECTION ( 'NONE',  ( 0.000000000000000000, 0.000000000000000000, 1.000000000000000000 ) ) ;
#284 = EDGE_LOOP ( 'NONE', ( #297, #365, #344, #146 ) ) ;
#285 = AXIS2_PLACEMENT_3D ( 'NONE', #109, #187, #107 ) ;
#286 = DIRECTION ( 'NONE',  ( -1.228550797481990867E-16, 1.000000000000000000, -0.000000000000000000 ) ) ;
#287 = DIRECTION ( 'NONE',  ( 0.000000000000000000, 1.000000000000000000, 0.000000000000000000 ) ) ;
#288 = SURFACE_STYLE_USAGE ( .BOTH. , #242 ) ;
#289 = VECTOR ( 'NONE', #298, 39.37007874015748143 ) ;
#290 = DIMENSIONAL_EXPONENTS ( 1.000000000000000000, 0.000000000000000000, 0.000000000000000000, 0.000000000000000000, 0.000000000000000000, 0.000000000000000000, 0.000000000000000000 ) ;
#291 = EDGE_CURVE ( 'NONE', #282, #320, #111, .T. ) ;
#292 = CARTESIAN_POINT ( 'NONE',  ( 0.000000000000000000, 0.1875000000000000555, -0.1875000000000000278 ) ) ;
#293 = VERTEX_POINT ( 'NONE', #31 ) ;
#294 =( NAMED_UNIT ( * ) SI_UNIT ( $, .STERADIAN. ) SOLID_ANGLE_UNIT ( ) );
#295 = VECTOR ( 'NONE', #155, 39.37007874015748143 ) ;
#296 = MECHANICAL_DESIGN_GEOMETRIC_PRESENTATION_REPRESENTATION (  '', ( #169 ), #152 ) ;
#297 = ORIENTED_EDGE ( 'NONE', *, *, #310, .T. ) ;
#298 = DIRECTION ( 'NONE',  ( -0.000000000000000000, -1.000000000000000000, -0.000000000000000000 ) ) ;
#299 = PRESENTATION_STYLE_ASSIGNMENT (( #16 ) ) ;
#300 = FILL_AREA_STYLE ('',( #325 ) ) ;
#301 =( LENGTH_UNIT ( ) NAMED_UNIT ( * ) SI_UNIT ( $, .METRE. ) );
#302 = ADVANCED_BREP_SHAPE_REPRESENTATION ( '83291', ( #219, #338, #84 ), #52 ) ;
#303 = DIRECTION ( 'NONE',  ( -0.000000000000000000, -1.000000000000000000, -0.000000000000000000 ) ) ;
#304 = CARTESIAN_POINT ( 'NONE',  ( 3.067472995370340001E-16, 0.5000000000000000000, 0.000000000000000000 ) ) ;
#305 = COLOUR_RGB ( '',1.000000000000000000, 0.000000000000000000, 0.000000000000000000 ) ;
#306 =( CONVERSION_BASED_UNIT ( 'INCH', #14 ) LENGTH_UNIT ( ) NAMED_UNIT ( #35 ) );
#307 = LINE ( 'NONE', #175, #372 ) ;
#308 = APPLICATION_CONTEXT ( 'automotive_design' ) ;
#309 = DIMENSIONAL_EXPONENTS ( 1.000000000000000000, 0.000000000000000000, 0.000000000000000000, 0.000000000000000000, 0.000000000000000000, 0.000000000000000000, 0.000000000000000000 ) ;
#310 = EDGE_CURVE ( 'NONE', #358, #328, #163, .T. ) ;
#311 = AXIS2_PLACEMENT_3D ( 'NONE', #144, #201, #90 ) ;
#312 = COLOUR_RGB ( '',0.7921568627450980005, 0.8196078431372548767, 0.9333333333333333481 ) ;
#313 =( NAMED_UNIT ( * ) SI_UNIT ( $, .STERADIAN. ) SOLID_ANGLE_UNIT ( ) );
#314 = DIRECTION ( 'NONE',  ( 1.000000000000000000, 1.228550797481990867E-16, 0.000000000000000000 ) ) ;
#315 = SURFACE_STYLE_FILL_AREA ( #126 ) ;
#316 = ORIENTED_EDGE ( 'NONE', *, *, #39, .F. ) ;
#317 =( NAMED_UNIT ( * ) PLANE_ANGLE_UNIT ( ) SI_UNIT ( $, .RADIAN. ) );
#318 = COLOUR_RGB ( '',1.000000000000000000, 0.000000000000000000, 0.000000000000000000 ) ;
#319 = EDGE_CURVE ( 'NONE', #293, #332, #143, .T. ) ;
#320 = VERTEX_POINT ( 'NONE', #86 ) ;
#321 = ORIENTED_EDGE ( 'NONE', *, *, #339, .F. ) ;
#322 =( NAMED_UNIT ( * ) PLANE_ANGLE_UNIT ( ) SI_UNIT ( $, .RADIAN. ) );
#323 = UNCERTAINTY_MEASURE_WITH_UNIT (LENGTH_MEASURE( 1.000000000000000082E-05 ), #214, 'distance_accuracy_value', 'NONE');
#324 = EDGE_CURVE ( 'NONE', #328, #293, #307, .T. ) ;
#325 = FILL_AREA_STYLE_COLOUR ( '', #262 ) ;
#326 =( GEOMETRIC_REPRESENTATION_CONTEXT ( 3 ) GLOBAL_UNCERTAINTY_ASSIGNED_CONTEXT ( ( #25 ) ) GLOBAL_UNIT_ASSIGNED_CONTEXT ( ( #190, #135, #106 ) ) REPRESENTATION_CONTEXT ( 'NONE', 'WORKASPACE' ) );
#327 = CARTESIAN_POINT ( 'NONE',  ( 0.000000000000000000, 0.5000000000000000000, 0.000000000000000000 ) ) ;
#328 = VERTEX_POINT ( 'NONE', #23 ) ;
#329 = DIRECTION ( 'NONE',  ( -1.000000000000000000, 0.000000000000000000, 0.000000000000000000 ) ) ;
#330 = ADVANCED_FACE ( 'NONE', ( #145 ), #258, .T. ) ;
#331 = DIRECTION ( 'NONE',  ( 0.000000000000000000, 0.000000000000000000, -1.000000000000000000 ) ) ;
#332 = VERTEX_POINT ( 'NONE', #354 ) ;
#333 = CIRCLE ( 'NONE', #271, 0.1874999999999996669 ) ;
#334 = PRODUCT_DEFINITION_FORMATION_WITH_SPECIFIED_SOURCE ( 'ANY', '', #119, .NOT_KNOWN. ) ;
#335 = FILL_AREA_STYLE_COLOUR ( '', #312 ) ;
#336 = FILL_AREA_STYLE_COLOUR ( '', #245 ) ;
#337 = DIRECTION ( 'NONE',  ( -1.000000000000000000, 0.000000000000000000, 0.000000000000000000 ) ) ;
#338 = MANIFOLD_SOLID_BREP ( 'Revolve - Tool Body (Straight Shanked)', #69 ) ;
#339 = EDGE_CURVE ( 'NONE', #215, #351, #239, .T. ) ;
#340 =( NAMED_UNIT ( * ) PLANE_ANGLE_UNIT ( ) SI_UNIT ( $, .RADIAN. ) );
#341 =( NAMED_UNIT ( * ) PLANE_ANGLE_UNIT ( ) SI_UNIT ( $, .RADIAN. ) );
#342 = PRODUCT_DEFINITION ( 'UNKNOWN', '', #334, #233 ) ;
#343 = UNCERTAINTY_MEASURE_WITH_UNIT (LENGTH_MEASURE( 1.000000000000000082E-05 ), #62, 'distance_accuracy_value', 'NONE');
#344 = ORIENTED_EDGE ( 'NONE', *, *, #98, .F. ) ;
#345 = CARTESIAN_POINT ( 'NONE',  ( -2.296212748401287726E-17, 0.1875000000000000278, 0.000000000000000000 ) ) ;
#346 =( GEOMETRIC_REPRESENTATION_CONTEXT ( 3 ) GLOBAL_UNCERTAINTY_ASSIGNED_CONTEXT ( ( #323 ) ) GLOBAL_UNIT_ASSIGNED_CONTEXT ( ( #214, #341, #40 ) ) REPRESENTATION_CONTEXT ( 'NONE', 'WORKASPACE' ) );
#347 =( LENGTH_UNIT ( ) NAMED_UNIT ( * ) SI_UNIT ( $, .METRE. ) );
#348 = DIRECTION ( 'NONE',  ( 1.228550797481990867E-16, -1.000000000000000000, 0.000000000000000000 ) ) ;
#349 = PRESENTATION_STYLE_ASSIGNMENT (( #241 ) ) ;
#350 = AXIS2_PLACEMENT_3D ( 'NONE', #362, #183, #33 ) ;
#351 = VERTEX_POINT ( 'NONE', #17 ) ;
#352 = EDGE_LOOP ( 'NONE', ( #41, #174, #208, #247, #159 ) ) ;
#353 = ADVANCED_FACE ( 'NONE', ( #140 ), #361, .T. ) ;
#354 = CARTESIAN_POINT ( 'NONE',  ( -0.1874999999999996947, 2.000000000000000000, 0.000000000000000000 ) ) ;
#355 = ORIENTED_EDGE ( 'NONE', *, *, #147, .T. ) ;
#356 = CARTESIAN_POINT ( 'NONE',  ( 0.000000000000000000, 0.1875000000000000555, 0.000000000000000000 ) ) ;
#357 = COLOUR_RGB ( '',0.7921568627450980005, 0.8196078431372548767, 0.9333333333333333481 ) ;
#358 = VERTEX_POINT ( 'NONE', #364 ) ;
#359 =( CONVERSION_BASED_UNIT ( 'INCH', #136 ) LENGTH_UNIT ( ) NAMED_UNIT ( #87 ) );
#360 = MECHANICAL_DESIGN_GEOMETRIC_PRESENTATION_REPRESENTATION (  '', ( #170 ), #212 ) ;
#361 = CYLINDRICAL_SURFACE ( 'NONE', #65, 0.1874999999999999722 ) ;
#362 = CARTESIAN_POINT ( 'NONE',  ( 0.000000000000000000, 0.1875000000000000555, 0.000000000000000000 ) ) ;
#363 = DIRECTION ( 'NONE',  ( -0.000000000000000000, -1.000000000000000000, -0.000000000000000000 ) ) ;
#364 = CARTESIAN_POINT ( 'NONE',  ( -0.1874999999999993616, 0.5000000000000001110, 0.000000000000000000 ) ) ;
#365 = ORIENTED_EDGE ( 'NONE', *, *, #324, .T. ) ;
#366 = APPLICATION_PROTOCOL_DEFINITION ( 'draft international standard', 'automotive_design', 1998, #308 ) ;
#367 = VECTOR ( 'NONE', #134, 39.37007874015748143 ) ;
#368 = ORIENTED_EDGE ( 'NONE', *, *, #319, .T. ) ;
#369 = CARTESIAN_POINT ( 'NONE',  ( 1.224646799147353700E-16, 2.000000000000000000, 0.000000000000000000 ) ) ;
#370 = PLANE ( 'NONE',  #60 ) ;
#371 = CIRCLE ( 'NONE', #70, 0.1874999999999998335 ) ;
#372 = VECTOR ( 'NONE', #286, 39.37007874015748143 ) ;
#373 = DIRECTION ( 'NONE',  ( 0.000000000000000000, -0.000000000000000000, 1.000000000000000000 ) ) ;
ENDSEC;
END-ISO-10303-21;
