ISO-10303-21;
HEADER;
FILE_DESCRIPTION (( 'STEP AP214' ),
    '1' );
FILE_NAME ('01527.STEP',
    '2023-06-22T14:35:59',
    ( '' ),
    ( '' ),
    'SwSTEP 2.0',
    'SolidWorks 2023',
    '' );
FILE_SCHEMA (( 'AUTOMOTIVE_DESIGN' ));
ENDSEC;

DATA;
#1 = SURFACE_SIDE_STYLE ('',( #214 ) ) ;
#2 = DIRECTION ( 'NONE',  ( -4.259641040512536405E-17, 1.000000000000000000, -0.000000000000000000 ) ) ;
#3 = FILL_AREA_STYLE ('',( #186 ) ) ;
#4 = ORIENTED_EDGE ( 'NONE', *, *, #106, .T. ) ;
#5 =( GEOMETRIC_REPRESENTATION_CONTEXT ( 3 ) GLOBAL_UNCERTAINTY_ASSIGNED_CONTEXT ( ( #304 ) ) GLOBAL_UNIT_ASSIGNED_CONTEXT ( ( #70, #15, #22 ) ) REPRESENTATION_CONTEXT ( 'NONE', 'WORKASPACE' ) );
#6 = ADVANCED_FACE ( 'NONE', ( #302 ), #16, .T. ) ;
#7 = DIRECTION ( 'NONE',  ( -4.259641040512536405E-17, 1.000000000000000000, 0.000000000000000000 ) ) ;
#8 = CARTESIAN_POINT ( 'NONE',  ( 0.2499999999999999167, 6.000000000000000888, 3.061616997868383634E-17 ) ) ;
#9 = ORIENTED_EDGE ( 'NONE', *, *, #174, .F. ) ;
#10 = ORIENTED_EDGE ( 'NONE', *, *, #35, .T. ) ;
#11 = STYLED_ITEM ( 'NONE', ( #25 ), #136 ) ;
#12 = LENGTH_MEASURE_WITH_UNIT ( LENGTH_MEASURE( 0.02539999999999999897 ), #137 );
#13 = UNCERTAINTY_MEASURE_WITH_UNIT (LENGTH_MEASURE( 1.000000000000000082E-05 ), #278, 'distance_accuracy_value', 'NONE');
#14 = ORIENTED_EDGE ( 'NONE', *, *, #35, .F. ) ;
#15 =( NAMED_UNIT ( * ) PLANE_ANGLE_UNIT ( ) SI_UNIT ( $, .RADIAN. ) );
#16 = CYLINDRICAL_SURFACE ( 'NONE', #189, 0.2500000000000000555 ) ;
#17 = DIMENSIONAL_EXPONENTS ( 1.000000000000000000, 0.000000000000000000, 0.000000000000000000, 0.000000000000000000, 0.000000000000000000, 0.000000000000000000, 0.000000000000000000 ) ;
#18 = DIRECTION ( 'NONE',  ( 0.000000000000000000, 0.000000000000000000, 1.000000000000000000 ) ) ;
#19 = VECTOR ( 'NONE', #118, 39.37007874015748143 ) ;
#20 = DIRECTION ( 'NONE',  ( -1.000000000000000000, 0.000000000000000000, 0.000000000000000000 ) ) ;
#21 = AXIS2_PLACEMENT_3D ( 'NONE', #159, #24, #48 ) ;
#22 =( NAMED_UNIT ( * ) SI_UNIT ( $, .STERADIAN. ) SOLID_ANGLE_UNIT ( ) );
#23 = DIRECTION ( 'NONE',  ( 0.000000000000000000, -0.000000000000000000, 1.000000000000000000 ) ) ;
#24 = DIRECTION ( 'NONE',  ( -0.000000000000000000, -1.000000000000000000, -0.000000000000000000 ) ) ;
#25 = PRESENTATION_STYLE_ASSIGNMENT (( #233 ) ) ;
#26 = MECHANICAL_DESIGN_GEOMETRIC_PRESENTATION_REPRESENTATION (  '', ( #262 ), #86 ) ;
#27 = PRESENTATION_LAYER_ASSIGNMENT (  '', '', ( #11 ) ) ;
#28 = DIRECTION ( 'NONE',  ( -0.000000000000000000, -1.000000000000000000, -0.000000000000000000 ) ) ;
#29 = ORIENTED_EDGE ( 'NONE', *, *, #79, .F. ) ;
#30 = SURFACE_STYLE_FILL_AREA ( #74 ) ;
#31 = CARTESIAN_POINT ( 'NONE',  ( -0.2500000000000000000, 3.125000000000000000, 0.000000000000000000 ) ) ;
#32 = AXIS2_PLACEMENT_3D ( 'NONE', #181, #156, #111 ) ;
#33 = STYLED_ITEM ( 'NONE', ( #121 ), #135 ) ;
#34 = CARTESIAN_POINT ( 'NONE',  ( 0.2500000000000000000, 6.000000000000000888, 0.000000000000000000 ) ) ;
#35 = EDGE_CURVE ( 'NONE', #133, #88, #50, .T. ) ;
#36 = APPLICATION_CONTEXT ( 'automotive_design' ) ;
#37 = DIRECTION ( 'NONE',  ( -4.259641040512536405E-17, 1.000000000000000000, -0.000000000000000000 ) ) ;
#38 = PRESENTATION_STYLE_ASSIGNMENT (( #60 ) ) ;
#39 = AXIS2_PLACEMENT_3D ( 'NONE', #267, #109, #87 ) ;
#40 = CYLINDRICAL_SURFACE ( 'NONE', #120, 0.2500000000000000555 ) ;
#41 = ORIENTED_EDGE ( 'NONE', *, *, #296, .T. ) ;
#42 = DIRECTION ( 'NONE',  ( -0.000000000000000000, -1.000000000000000000, -0.000000000000000000 ) ) ;
#43 = ORIENTED_EDGE ( 'NONE', *, *, #272, .T. ) ;
#44 = ADVANCED_BREP_SHAPE_REPRESENTATION ( '01527', ( #135, #136, #153 ), #5 ) ;
#45 = EDGE_LOOP ( 'NONE', ( #243, #293 ) ) ;
#46 = PLANE ( 'NONE',  #229 ) ;
#47 = EDGE_CURVE ( 'NONE', #133, #207, #63, .T. ) ;
#48 = DIRECTION ( 'NONE',  ( 0.000000000000000000, 0.000000000000000000, -1.000000000000000000 ) ) ;
#49 = APPLICATION_PROTOCOL_DEFINITION ( 'draft international standard', 'automotive_design', 1998, #187 ) ;
#50 = LINE ( 'NONE', #253, #19 ) ;
#51 = AXIS2_PLACEMENT_3D ( 'NONE', #81, #103, #172 ) ;
#52 = DIRECTION ( 'NONE',  ( 0.000000000000000000, 0.000000000000000000, -1.000000000000000000 ) ) ;
#53 =( NAMED_UNIT ( * ) PLANE_ANGLE_UNIT ( ) SI_UNIT ( $, .RADIAN. ) );
#54 = PRODUCT_DEFINITION_FORMATION_WITH_SPECIFIED_SOURCE ( 'ANY', '', #89, .NOT_KNOWN. ) ;
#55 = MECHANICAL_DESIGN_GEOMETRIC_PRESENTATION_REPRESENTATION (  '', ( #276 ), #309 ) ;
#56 =( NAMED_UNIT ( * ) SI_UNIT ( $, .STERADIAN. ) SOLID_ANGLE_UNIT ( ) );
#57 = CARTESIAN_POINT ( 'NONE',  ( 0.000000000000000000, 0.000000000000000000, 0.000000000000000000 ) ) ;
#58 = AXIS2_PLACEMENT_3D ( 'NONE', #249, #252, #23 ) ;
#59 = CARTESIAN_POINT ( 'NONE',  ( 3.061616997868383018E-17, 0.000000000000000000, 0.2500000000000000000 ) ) ;
#60 = SURFACE_STYLE_USAGE ( .BOTH. , #152 ) ;
#61 =( CONVERSION_BASED_UNIT ( 'INCH', #195 ) LENGTH_UNIT ( ) NAMED_UNIT ( #110 ) );
#62 = ORIENTED_EDGE ( 'NONE', *, *, #47, .T. ) ;
#63 = CIRCLE ( 'NONE', #119, 0.2500000000000000000 ) ;
#64 = DIRECTION ( 'NONE',  ( -1.000000000000000000, -4.259641040512536405E-17, 0.000000000000000000 ) ) ;
#65 = ORIENTED_EDGE ( 'NONE', *, *, #215, .F. ) ;
#66 = UNCERTAINTY_MEASURE_WITH_UNIT (LENGTH_MEASURE( 1.000000000000000082E-05 ), #177, 'distance_accuracy_value', 'NONE');
#67 = SURFACE_STYLE_FILL_AREA ( #203 ) ;
#68 = CARTESIAN_POINT ( 'NONE',  ( 0.000000000000000000, 0.000000000000000000, 0.000000000000000000 ) ) ;
#69 = PRESENTATION_LAYER_ASSIGNMENT (  '', '', ( #178 ) ) ;
#70 =( CONVERSION_BASED_UNIT ( 'INCH', #12 ) LENGTH_UNIT ( ) NAMED_UNIT ( #115 ) );
#71 = PRESENTATION_STYLE_ASSIGNMENT (( #303 ) ) ;
#72 = MECHANICAL_DESIGN_GEOMETRIC_PRESENTATION_REPRESENTATION (  '', ( #33 ), #129 ) ;
#73 = ADVANCED_FACE ( 'NONE', ( #117 ), #142, .T. ) ;
#74 = FILL_AREA_STYLE ('',( #147 ) ) ;
#75 = DIRECTION ( 'NONE',  ( -4.259641040512536405E-17, 1.000000000000000000, -0.000000000000000000 ) ) ;
#76 = CLOSED_SHELL ( 'NONE', ( #230, #171, #6, #125 ) ) ;
#77 = MECHANICAL_DESIGN_GEOMETRIC_PRESENTATION_REPRESENTATION (  '', ( #11 ), #196 ) ;
#78 = DIRECTION ( 'NONE',  ( 0.000000000000000000, -1.000000000000000000, -0.000000000000000000 ) ) ;
#79 = EDGE_CURVE ( 'NONE', #220, #107, #134, .T. ) ;
#80 = DIRECTION ( 'NONE',  ( -1.000000000000000000, 0.000000000000000000, 0.000000000000000000 ) ) ;
#81 = CARTESIAN_POINT ( 'NONE',  ( 0.000000000000000000, 3.125000000000000000, 0.000000000000000000 ) ) ;
#82 = ORIENTED_EDGE ( 'NONE', *, *, #106, .F. ) ;
#83 = SURFACE_SIDE_STYLE ('',( #244 ) ) ;
#84 = VERTEX_POINT ( 'NONE', #254 ) ;
#85 = ADVANCED_FACE ( 'NONE', ( #208 ), #46, .T. ) ;
#86 =( GEOMETRIC_REPRESENTATION_CONTEXT ( 3 ) GLOBAL_UNCERTAINTY_ASSIGNED_CONTEXT ( ( #211 ) ) GLOBAL_UNIT_ASSIGNED_CONTEXT ( ( #251, #94, #112 ) ) REPRESENTATION_CONTEXT ( 'NONE', 'WORKASPACE' ) );
#87 = DIRECTION ( 'NONE',  ( -1.000000000000000000, 0.000000000000000000, 0.000000000000000000 ) ) ;
#88 = VERTEX_POINT ( 'NONE', #284 ) ;
#89 = PRODUCT ( '01527', '01527', '', ( #140 ) ) ;
#90 = LENGTH_MEASURE_WITH_UNIT ( LENGTH_MEASURE( 0.02539999999999999897 ), #113 );
#91 = CIRCLE ( 'NONE', #51, 0.2500000000000000000 ) ;
#92 =( LENGTH_UNIT ( ) NAMED_UNIT ( * ) SI_UNIT ( $, .METRE. ) );
#93 = FILL_AREA_STYLE_COLOUR ( '', #242 ) ;
#94 =( NAMED_UNIT ( * ) PLANE_ANGLE_UNIT ( ) SI_UNIT ( $, .RADIAN. ) );
#95 = DIRECTION ( 'NONE',  ( -4.259641040512536405E-17, 1.000000000000000000, -0.000000000000000000 ) ) ;
#96 = AXIS2_PLACEMENT_3D ( 'NONE', #132, #7, #64 ) ;
#97 = CARTESIAN_POINT ( 'NONE',  ( 0.000000000000000000, 3.125000000000000000, 0.000000000000000000 ) ) ;
#98 =( NAMED_UNIT ( * ) SI_UNIT ( $, .STERADIAN. ) SOLID_ANGLE_UNIT ( ) );
#99 = ORIENTED_EDGE ( 'NONE', *, *, #47, .F. ) ;
#100 = FILL_AREA_STYLE ('',( #260 ) ) ;
#101 = CIRCLE ( 'NONE', #145, 0.2500000000000000000 ) ;
#102 = DIRECTION ( 'NONE',  ( 0.000000000000000000, 0.000000000000000000, -1.000000000000000000 ) ) ;
#103 = DIRECTION ( 'NONE',  ( -0.000000000000000000, -1.000000000000000000, -0.000000000000000000 ) ) ;
#104 = CIRCLE ( 'NONE', #194, 0.2500000000000000000 ) ;
#105 = EDGE_LOOP ( 'NONE', ( #307, #266 ) ) ;
#106 = EDGE_CURVE ( 'NONE', #207, #133, #101, .T. ) ;
#107 = VERTEX_POINT ( 'NONE', #305 ) ;
#108 = CYLINDRICAL_SURFACE ( 'NONE', #261, 0.2500000000000000000 ) ;
#109 = DIRECTION ( 'NONE',  ( -4.259641040512536405E-17, 1.000000000000000000, -0.000000000000000000 ) ) ;
#110 = DIMENSIONAL_EXPONENTS ( 1.000000000000000000, 0.000000000000000000, 0.000000000000000000, 0.000000000000000000, 0.000000000000000000, 0.000000000000000000, 0.000000000000000000 ) ;
#111 = DIRECTION ( 'NONE',  ( 0.000000000000000000, 0.000000000000000000, -1.000000000000000000 ) ) ;
#112 =( NAMED_UNIT ( * ) SI_UNIT ( $, .STERADIAN. ) SOLID_ANGLE_UNIT ( ) );
#113 =( LENGTH_UNIT ( ) NAMED_UNIT ( * ) SI_UNIT ( $, .METRE. ) );
#114 = DIRECTION ( 'NONE',  ( -4.259641040512536405E-17, 1.000000000000000000, -0.000000000000000000 ) ) ;
#115 = DIMENSIONAL_EXPONENTS ( 1.000000000000000000, 0.000000000000000000, 0.000000000000000000, 0.000000000000000000, 0.000000000000000000, 0.000000000000000000, 0.000000000000000000 ) ;
#116 =( GEOMETRIC_REPRESENTATION_CONTEXT ( 3 ) GLOBAL_UNCERTAINTY_ASSIGNED_CONTEXT ( ( #66 ) ) GLOBAL_UNIT_ASSIGNED_CONTEXT ( ( #177, #144, #56 ) ) REPRESENTATION_CONTEXT ( 'NONE', 'WORKASPACE' ) );
#117 = FACE_OUTER_BOUND ( 'NONE', #45, .T. ) ;
#118 = DIRECTION ( 'NONE',  ( -4.259641040512536405E-17, 1.000000000000000000, -0.000000000000000000 ) ) ;
#119 = AXIS2_PLACEMENT_3D ( 'NONE', #231, #114, #20 ) ;
#120 = AXIS2_PLACEMENT_3D ( 'NONE', #131, #37, #127 ) ;
#121 = PRESENTATION_STYLE_ASSIGNMENT (( #164 ) ) ;
#122 = ORIENTED_EDGE ( 'NONE', *, *, #130, .F. ) ;
#123 = UNCERTAINTY_MEASURE_WITH_UNIT (LENGTH_MEASURE( 1.000000000000000082E-05 ), #287, 'distance_accuracy_value', 'NONE');
#124 = CARTESIAN_POINT ( 'NONE',  ( 0.000000000000000000, 0.000000000000000000, -0.2500000000000000000 ) ) ;
#125 = ADVANCED_FACE ( 'NONE', ( #238 ), #149, .F. ) ;
#126 = STYLED_ITEM ( 'NONE', ( #280 ), #85 ) ;
#127 = DIRECTION ( 'NONE',  ( -1.000000000000000000, 0.000000000000000000, 0.000000000000000000 ) ) ;
#128 =( NAMED_UNIT ( * ) SI_UNIT ( $, .STERADIAN. ) SOLID_ANGLE_UNIT ( ) );
#129 =( GEOMETRIC_REPRESENTATION_CONTEXT ( 3 ) GLOBAL_UNCERTAINTY_ASSIGNED_CONTEXT ( ( #123 ) ) GLOBAL_UNIT_ASSIGNED_CONTEXT ( ( #287, #53, #98 ) ) REPRESENTATION_CONTEXT ( 'NONE', 'WORKASPACE' ) );
#130 = EDGE_CURVE ( 'NONE', #270, #107, #306, .T. ) ;
#131 = CARTESIAN_POINT ( 'NONE',  ( -1.224646799147354440E-16, 6.000000000000000888, 0.000000000000000000 ) ) ;
#132 = CARTESIAN_POINT ( 'NONE',  ( 2.268067724252340606E-34, 3.125000000000000000, 0.000000000000000000 ) ) ;
#133 = VERTEX_POINT ( 'NONE', #31 ) ;
#134 = CIRCLE ( 'NONE', #21, 0.2500000000000000000 ) ;
#135 = MANIFOLD_SOLID_BREP ( 'Revolve - Cutting Edge', #204 ) ;
#136 = MANIFOLD_SOLID_BREP ( 'Revolve - Tool Body (Straight Shanked)', #76 ) ;
#137 =( LENGTH_UNIT ( ) NAMED_UNIT ( * ) SI_UNIT ( $, .METRE. ) );
#138 = SURFACE_SIDE_STYLE ('',( #228 ) ) ;
#139 = FILL_AREA_STYLE ('',( #184 ) ) ;
#140 = PRODUCT_CONTEXT ( 'NONE', #187, 'mechanical' ) ;
#141 =( GEOMETRIC_REPRESENTATION_CONTEXT ( 3 ) GLOBAL_UNCERTAINTY_ASSIGNED_CONTEXT ( ( #148 ) ) GLOBAL_UNIT_ASSIGNED_CONTEXT ( ( #61, #295, #128 ) ) REPRESENTATION_CONTEXT ( 'NONE', 'WORKASPACE' ) );
#142 = PLANE ( 'NONE',  #58 ) ;
#143 = ADVANCED_FACE ( 'NONE', ( #288 ), #264, .T. ) ;
#144 =( NAMED_UNIT ( * ) PLANE_ANGLE_UNIT ( ) SI_UNIT ( $, .RADIAN. ) );
#145 = AXIS2_PLACEMENT_3D ( 'NONE', #97, #75, #259 ) ;
#146 = EDGE_LOOP ( 'NONE', ( #173, #224 ) ) ;
#147 = FILL_AREA_STYLE_COLOUR ( '', #200 ) ;
#148 = UNCERTAINTY_MEASURE_WITH_UNIT (LENGTH_MEASURE( 1.000000000000000082E-05 ), #61, 'distance_accuracy_value', 'NONE');
#149 = PLANE ( 'NONE',  #209 ) ;
#150 = COLOUR_RGB ( '',0.7921568627450980005, 0.8196078431372548767, 0.9333333333333333481 ) ;
#151 =( LENGTH_UNIT ( ) NAMED_UNIT ( * ) SI_UNIT ( $, .METRE. ) );
#152 = SURFACE_SIDE_STYLE ('',( #265 ) ) ;
#153 = AXIS2_PLACEMENT_3D ( 'NONE', #179, #18, #277 ) ;
#154 = PLANE ( 'NONE',  #96 ) ;
#155 = CARTESIAN_POINT ( 'NONE',  ( 0.2500000000000000555, 3.125000000000000000, 3.061616997868384251E-17 ) ) ;
#156 = DIRECTION ( 'NONE',  ( -0.000000000000000000, -1.000000000000000000, -0.000000000000000000 ) ) ;
#157 = CARTESIAN_POINT ( 'NONE',  ( -1.224646799147354440E-16, 6.000000000000000888, 0.000000000000000000 ) ) ;
#158 = PRODUCT_DEFINITION_SHAPE ( 'NONE', 'NONE',  #256 ) ;
#159 = CARTESIAN_POINT ( 'NONE',  ( 0.000000000000000000, 0.000000000000000000, 0.000000000000000000 ) ) ;
#160 = PRESENTATION_LAYER_ASSIGNMENT (  '', '', ( #126 ) ) ;
#161 =( LENGTH_UNIT ( ) NAMED_UNIT ( * ) SI_UNIT ( $, .METRE. ) );
#162 = SURFACE_SIDE_STYLE ('',( #30 ) ) ;
#163 = COLOUR_RGB ( '',1.000000000000000000, 0.000000000000000000, 0.000000000000000000 ) ;
#164 = SURFACE_STYLE_USAGE ( .BOTH. , #1 ) ;
#165 = DIRECTION ( 'NONE',  ( 1.000000000000000000, 4.259641040512536405E-17, 0.000000000000000000 ) ) ;
#166 = CIRCLE ( 'NONE', #32, 0.2500000000000000000 ) ;
#167 = PRESENTATION_STYLE_ASSIGNMENT (( #246 ) ) ;
#168 = COLOUR_RGB ( '',1.000000000000000000, 0.000000000000000000, 0.000000000000000000 ) ;
#169 = FACE_OUTER_BOUND ( 'NONE', #188, .T. ) ;
#170 = ORIENTED_EDGE ( 'NONE', *, *, #232, .F. ) ;
#171 = ADVANCED_FACE ( 'NONE', ( #217 ), #154, .F. ) ;
#172 = DIRECTION ( 'NONE',  ( 0.000000000000000000, 0.000000000000000000, -1.000000000000000000 ) ) ;
#173 = ORIENTED_EDGE ( 'NONE', *, *, #290, .T. ) ;
#174 = EDGE_CURVE ( 'NONE', #88, #198, #234, .T. ) ;
#175 = DIMENSIONAL_EXPONENTS ( 1.000000000000000000, 0.000000000000000000, 0.000000000000000000, 0.000000000000000000, 0.000000000000000000, 0.000000000000000000, 0.000000000000000000 ) ;
#176 = LENGTH_MEASURE_WITH_UNIT ( LENGTH_MEASURE( 0.02539999999999999897 ), #92 );
#177 =( CONVERSION_BASED_UNIT ( 'INCH', #90 ) LENGTH_UNIT ( ) NAMED_UNIT ( #202 ) );
#178 = STYLED_ITEM ( 'NONE', ( #167 ), #143 ) ;
#179 = CARTESIAN_POINT ( 'NONE',  ( 0.000000000000000000, 0.000000000000000000, 0.000000000000000000 ) ) ;
#180 = DIRECTION ( 'NONE',  ( -1.000000000000000000, 0.000000000000000000, 0.000000000000000000 ) ) ;
#181 = CARTESIAN_POINT ( 'NONE',  ( 0.000000000000000000, 3.125000000000000000, 0.000000000000000000 ) ) ;
#182 = LENGTH_MEASURE_WITH_UNIT ( LENGTH_MEASURE( 0.02539999999999999897 ), #161 );
#183 = DIMENSIONAL_EXPONENTS ( 1.000000000000000000, 0.000000000000000000, 0.000000000000000000, 0.000000000000000000, 0.000000000000000000, 0.000000000000000000, 0.000000000000000000 ) ;
#184 = FILL_AREA_STYLE_COLOUR ( '', #168 ) ;
#185 = COLOUR_RGB ( '',1.000000000000000000, 0.000000000000000000, 0.000000000000000000 ) ;
#186 = FILL_AREA_STYLE_COLOUR ( '', #185 ) ;
#187 = APPLICATION_CONTEXT ( 'automotive_design' ) ;
#188 = EDGE_LOOP ( 'NONE', ( #222, #41, #245, #122 ) ) ;
#189 = AXIS2_PLACEMENT_3D ( 'NONE', #157, #95, #180 ) ;
#190 = PRODUCT_DEFINITION_CONTEXT ( 'detailed design', #36, 'design' ) ;
#191 = MECHANICAL_DESIGN_GEOMETRIC_PRESENTATION_REPRESENTATION (  '', ( #126 ), #116 ) ;
#192 = LENGTH_MEASURE_WITH_UNIT ( LENGTH_MEASURE( 0.02539999999999999897 ), #285 );
#193 = CARTESIAN_POINT ( 'NONE',  ( -1.224646799147354440E-16, 6.000000000000000888, 0.000000000000000000 ) ) ;
#194 = AXIS2_PLACEMENT_3D ( 'NONE', #68, #257, #52 ) ;
#195 = LENGTH_MEASURE_WITH_UNIT ( LENGTH_MEASURE( 0.02539999999999999897 ), #151 );
#196 =( GEOMETRIC_REPRESENTATION_CONTEXT ( 3 ) GLOBAL_UNCERTAINTY_ASSIGNED_CONTEXT ( ( #263 ) ) GLOBAL_UNIT_ASSIGNED_CONTEXT ( ( #308, #235, #268 ) ) REPRESENTATION_CONTEXT ( 'NONE', 'WORKASPACE' ) );
#197 = EDGE_LOOP ( 'NONE', ( #227, #43, #286, #29 ) ) ;
#198 = VERTEX_POINT ( 'NONE', #199 ) ;
#199 = CARTESIAN_POINT ( 'NONE',  ( 0.2500000000000000555, 6.000000000000000888, 3.061616997868384251E-17 ) ) ;
#200 = COLOUR_RGB ( '',0.7921568627450980005, 0.8196078431372548767, 0.9333333333333333481 ) ;
#201 = EDGE_CURVE ( 'NONE', #270, #84, #91, .T. ) ;
#202 = DIMENSIONAL_EXPONENTS ( 1.000000000000000000, 0.000000000000000000, 0.000000000000000000, 0.000000000000000000, 0.000000000000000000, 0.000000000000000000, 0.000000000000000000 ) ;
#203 = FILL_AREA_STYLE ('',( #93 ) ) ;
#204 = CLOSED_SHELL ( 'NONE', ( #237, #73, #143, #85 ) ) ;
#205 = PRESENTATION_LAYER_ASSIGNMENT (  '', '', ( #262 ) ) ;
#206 = APPLICATION_PROTOCOL_DEFINITION ( 'draft international standard', 'automotive_design', 1998, #36 ) ;
#207 = VERTEX_POINT ( 'NONE', #155 ) ;
#208 = FACE_OUTER_BOUND ( 'NONE', #146, .T. ) ;
#209 = AXIS2_PLACEMENT_3D ( 'NONE', #34, #239, #165 ) ;
#210 =( LENGTH_UNIT ( ) NAMED_UNIT ( * ) SI_UNIT ( $, .METRE. ) );
#211 = UNCERTAINTY_MEASURE_WITH_UNIT (LENGTH_MEASURE( 1.000000000000000082E-05 ), #251, 'distance_accuracy_value', 'NONE');
#212 = LENGTH_MEASURE_WITH_UNIT ( LENGTH_MEASURE( 0.02539999999999999897 ), #210 );
#213 = CIRCLE ( 'NONE', #299, 0.2500000000000001110 ) ;
#214 = SURFACE_STYLE_FILL_AREA ( #100 ) ;
#215 = EDGE_CURVE ( 'NONE', #198, #88, #213, .T. ) ;
#216 = DIRECTION ( 'NONE',  ( -4.259641040512536405E-17, 1.000000000000000000, -0.000000000000000000 ) ) ;
#217 = FACE_OUTER_BOUND ( 'NONE', #291, .T. ) ;
#218 = AXIS2_PLACEMENT_3D ( 'NONE', #271, #42, #221 ) ;
#219 = LINE ( 'NONE', #8, #250 ) ;
#220 = VERTEX_POINT ( 'NONE', #59 ) ;
#221 = DIRECTION ( 'NONE',  ( 0.000000000000000000, 0.000000000000000000, -1.000000000000000000 ) ) ;
#222 = ORIENTED_EDGE ( 'NONE', *, *, #201, .T. ) ;
#223 = LINE ( 'NONE', #247, #248 ) ;
#224 = ORIENTED_EDGE ( 'NONE', *, *, #79, .T. ) ;
#225 = MECHANICAL_DESIGN_GEOMETRIC_PRESENTATION_REPRESENTATION (  '', ( #178 ), #141 ) ;
#226 = DIMENSIONAL_EXPONENTS ( 1.000000000000000000, 0.000000000000000000, 0.000000000000000000, 0.000000000000000000, 0.000000000000000000, 0.000000000000000000, 0.000000000000000000 ) ;
#227 = ORIENTED_EDGE ( 'NONE', *, *, #296, .F. ) ;
#228 = SURFACE_STYLE_FILL_AREA ( #139 ) ;
#229 = AXIS2_PLACEMENT_3D ( 'NONE', #57, #78, #102 ) ;
#230 = ADVANCED_FACE ( 'NONE', ( #240 ), #40, .T. ) ;
#231 = CARTESIAN_POINT ( 'NONE',  ( 0.000000000000000000, 3.125000000000000000, 0.000000000000000000 ) ) ;
#232 = EDGE_CURVE ( 'NONE', #207, #198, #219, .T. ) ;
#233 = SURFACE_STYLE_USAGE ( .BOTH. , #162 ) ;
#234 = CIRCLE ( 'NONE', #39, 0.2500000000000001110 ) ;
#235 =( NAMED_UNIT ( * ) PLANE_ANGLE_UNIT ( ) SI_UNIT ( $, .RADIAN. ) );
#236 = EDGE_LOOP ( 'NONE', ( #62, #289, #9, #14 ) ) ;
#237 = ADVANCED_FACE ( 'NONE', ( #169 ), #108, .T. ) ;
#238 = FACE_OUTER_BOUND ( 'NONE', #105, .T. ) ;
#239 = DIRECTION ( 'NONE',  ( 4.259641040512536405E-17, -1.000000000000000000, 0.000000000000000000 ) ) ;
#240 = FACE_OUTER_BOUND ( 'NONE', #236, .T. ) ;
#241 = FILL_AREA_STYLE_COLOUR ( '', #163 ) ;
#242 = COLOUR_RGB ( '',1.000000000000000000, 0.000000000000000000, 0.000000000000000000 ) ;
#243 = ORIENTED_EDGE ( 'NONE', *, *, #201, .F. ) ;
#244 = SURFACE_STYLE_FILL_AREA ( #3 ) ;
#245 = ORIENTED_EDGE ( 'NONE', *, *, #290, .F. ) ;
#246 = SURFACE_STYLE_USAGE ( .BOTH. , #83 ) ;
#247 = CARTESIAN_POINT ( 'NONE',  ( 3.061616997868383018E-17, 0.000000000000000000, 0.2500000000000000000 ) ) ;
#248 = VECTOR ( 'NONE', #279, 39.37007874015748143 ) ;
#249 = CARTESIAN_POINT ( 'NONE',  ( 0.000000000000000000, 3.125000000000000000, 0.000000000000000000 ) ) ;
#250 = VECTOR ( 'NONE', #216, 39.37007874015748143 ) ;
#251 =( CONVERSION_BASED_UNIT ( 'INCH', #176 ) LENGTH_UNIT ( ) NAMED_UNIT ( #226 ) );
#252 = DIRECTION ( 'NONE',  ( 0.000000000000000000, 1.000000000000000000, 0.000000000000000000 ) ) ;
#253 = CARTESIAN_POINT ( 'NONE',  ( -0.2500000000000002220, 6.000000000000000888, 0.000000000000000000 ) ) ;
#254 = CARTESIAN_POINT ( 'NONE',  ( 3.061616997868383018E-17, 3.125000000000000000, 0.2500000000000000000 ) ) ;
#255 = PRESENTATION_LAYER_ASSIGNMENT (  '', '', ( #33 ) ) ;
#256 = PRODUCT_DEFINITION ( 'UNKNOWN', '', #54, #190 ) ;
#257 = DIRECTION ( 'NONE',  ( -0.000000000000000000, -1.000000000000000000, -0.000000000000000000 ) ) ;
#258 =( NAMED_UNIT ( * ) PLANE_ANGLE_UNIT ( ) SI_UNIT ( $, .RADIAN. ) );
#259 = DIRECTION ( 'NONE',  ( -1.000000000000000000, 0.000000000000000000, 0.000000000000000000 ) ) ;
#260 = FILL_AREA_STYLE_COLOUR ( '', #150 ) ;
#261 = AXIS2_PLACEMENT_3D ( 'NONE', #297, #301, #273 ) ;
#262 = STYLED_ITEM ( 'NONE', ( #38 ), #237 ) ;
#263 = UNCERTAINTY_MEASURE_WITH_UNIT (LENGTH_MEASURE( 1.000000000000000082E-05 ), #308, 'distance_accuracy_value', 'NONE');
#264 = CYLINDRICAL_SURFACE ( 'NONE', #218, 0.2500000000000000000 ) ;
#265 = SURFACE_STYLE_FILL_AREA ( #292 ) ;
#266 = ORIENTED_EDGE ( 'NONE', *, *, #215, .T. ) ;
#267 = CARTESIAN_POINT ( 'NONE',  ( -1.224646799147354440E-16, 6.000000000000000888, 0.000000000000000000 ) ) ;
#268 =( NAMED_UNIT ( * ) SI_UNIT ( $, .STERADIAN. ) SOLID_ANGLE_UNIT ( ) );
#269 = VECTOR ( 'NONE', #28, 39.37007874015748143 ) ;
#270 = VERTEX_POINT ( 'NONE', #282 ) ;
#271 = CARTESIAN_POINT ( 'NONE',  ( 0.000000000000000000, 0.000000000000000000, 0.000000000000000000 ) ) ;
#272 = EDGE_CURVE ( 'NONE', #84, #270, #166, .T. ) ;
#273 = DIRECTION ( 'NONE',  ( 0.000000000000000000, 0.000000000000000000, -1.000000000000000000 ) ) ;
#274 =( NAMED_UNIT ( * ) SI_UNIT ( $, .STERADIAN. ) SOLID_ANGLE_UNIT ( ) );
#275 = SHAPE_DEFINITION_REPRESENTATION ( #158, #44 ) ;
#276 = STYLED_ITEM ( 'NONE', ( #71 ), #73 ) ;
#277 = DIRECTION ( 'NONE',  ( 1.000000000000000000, 0.000000000000000000, 0.000000000000000000 ) ) ;
#278 =( CONVERSION_BASED_UNIT ( 'INCH', #182 ) LENGTH_UNIT ( ) NAMED_UNIT ( #175 ) );
#279 = DIRECTION ( 'NONE',  ( -0.000000000000000000, -1.000000000000000000, -0.000000000000000000 ) ) ;
#280 = PRESENTATION_STYLE_ASSIGNMENT (( #300 ) ) ;
#281 = PRODUCT_RELATED_PRODUCT_CATEGORY ( 'part', '', ( #89 ) ) ;
#282 = CARTESIAN_POINT ( 'NONE',  ( 0.000000000000000000, 3.125000000000000000, -0.2500000000000000000 ) ) ;
#283 = SURFACE_SIDE_STYLE ('',( #67 ) ) ;
#284 = CARTESIAN_POINT ( 'NONE',  ( -0.2500000000000002776, 6.000000000000000888, 0.000000000000000000 ) ) ;
#285 =( LENGTH_UNIT ( ) NAMED_UNIT ( * ) SI_UNIT ( $, .METRE. ) );
#286 = ORIENTED_EDGE ( 'NONE', *, *, #130, .T. ) ;
#287 =( CONVERSION_BASED_UNIT ( 'INCH', #192 ) LENGTH_UNIT ( ) NAMED_UNIT ( #17 ) );
#288 = FACE_OUTER_BOUND ( 'NONE', #197, .T. ) ;
#289 = ORIENTED_EDGE ( 'NONE', *, *, #232, .T. ) ;
#290 = EDGE_CURVE ( 'NONE', #107, #220, #104, .T. ) ;
#291 = EDGE_LOOP ( 'NONE', ( #99, #82 ) ) ;
#292 = FILL_AREA_STYLE ('',( #241 ) ) ;
#293 = ORIENTED_EDGE ( 'NONE', *, *, #272, .F. ) ;
#294 = PRESENTATION_LAYER_ASSIGNMENT (  '', '', ( #276 ) ) ;
#295 =( NAMED_UNIT ( * ) PLANE_ANGLE_UNIT ( ) SI_UNIT ( $, .RADIAN. ) );
#296 = EDGE_CURVE ( 'NONE', #84, #220, #223, .T. ) ;
#297 = CARTESIAN_POINT ( 'NONE',  ( 0.000000000000000000, 0.000000000000000000, 0.000000000000000000 ) ) ;
#298 = EDGE_LOOP ( 'NONE', ( #170, #4, #10, #65 ) ) ;
#299 = AXIS2_PLACEMENT_3D ( 'NONE', #193, #2, #80 ) ;
#300 = SURFACE_STYLE_USAGE ( .BOTH. , #138 ) ;
#301 = DIRECTION ( 'NONE',  ( -0.000000000000000000, -1.000000000000000000, -0.000000000000000000 ) ) ;
#302 = FACE_OUTER_BOUND ( 'NONE', #298, .T. ) ;
#303 = SURFACE_STYLE_USAGE ( .BOTH. , #283 ) ;
#304 = UNCERTAINTY_MEASURE_WITH_UNIT (LENGTH_MEASURE( 1.000000000000000082E-05 ), #70, 'distance_accuracy_value', 'NONE');
#305 = CARTESIAN_POINT ( 'NONE',  ( 0.000000000000000000, 0.000000000000000000, -0.2500000000000000000 ) ) ;
#306 = LINE ( 'NONE', #124, #269 ) ;
#307 = ORIENTED_EDGE ( 'NONE', *, *, #174, .T. ) ;
#308 =( CONVERSION_BASED_UNIT ( 'INCH', #212 ) LENGTH_UNIT ( ) NAMED_UNIT ( #183 ) );
#309 =( GEOMETRIC_REPRESENTATION_CONTEXT ( 3 ) GLOBAL_UNCERTAINTY_ASSIGNED_CONTEXT ( ( #13 ) ) GLOBAL_UNIT_ASSIGNED_CONTEXT ( ( #278, #258, #274 ) ) REPRESENTATION_CONTEXT ( 'NONE', 'WORKASPACE' ) );
ENDSEC;
END-ISO-10303-21;
