ISO-10303-21;
HEADER;
FILE_DESCRIPTION (( 'STEP AP214' ),
    '1' );
FILE_NAME ('83778.STEP',
    '2023-07-05T19:25:13',
    ( '' ),
    ( '' ),
    'SwSTEP 2.0',
    'SolidWorks 2023',
    '' );
FILE_SCHEMA (( 'AUTOMOTIVE_DESIGN' ));
ENDSEC;

DATA;
#1 = FILL_AREA_STYLE_COLOUR ( '', #151 ) ;
#2 = VERTEX_POINT ( 'NONE', #306 ) ;
#3 = DIRECTION ( 'NONE',  ( -0.000000000000000000, -1.000000000000000000, -0.000000000000000000 ) ) ;
#4 = ORIENTED_EDGE ( 'NONE', *, *, #232, .T. ) ;
#5 = DIRECTION ( 'NONE',  ( -1.245234447608929030E-16, 1.000000000000000000, -0.000000000000000000 ) ) ;
#6 = AXIS2_PLACEMENT_3D ( 'NONE', #287, #106, #325 ) ;
#7 = DIRECTION ( 'NONE',  ( 0.000000000000000000, 0.000000000000000000, -1.000000000000000000 ) ) ;
#8 = SURFACE_SIDE_STYLE ('',( #169 ) ) ;
#9 = CARTESIAN_POINT ( 'NONE',  ( 0.000000000000000000, 1.000000000000000000, 0.000000000000000000 ) ) ;
#10 = DIRECTION ( 'NONE',  ( 0.000000000000000000, 1.000000000000000000, 0.000000000000000000 ) ) ;
#11 = EDGE_CURVE ( 'NONE', #186, #137, #164, .T. ) ;
#12 = CIRCLE ( 'NONE', #239, 0.2500000000000000000 ) ;
#13 = COLOUR_RGB ( '',1.000000000000000000, 0.000000000000000000, 0.000000000000000000 ) ;
#14 = CARTESIAN_POINT ( 'NONE',  ( 0.000000000000000000, 1.000000000000000000, 0.000000000000000000 ) ) ;
#15 = AXIS2_PLACEMENT_3D ( 'NONE', #327, #284, #104 ) ;
#16 = FACE_OUTER_BOUND ( 'NONE', #86, .T. ) ;
#17 =( CONVERSION_BASED_UNIT ( 'INCH', #336 ) LENGTH_UNIT ( ) NAMED_UNIT ( #242 ) );
#18 = DIRECTION ( 'NONE',  ( 0.000000000000000000, 0.000000000000000000, -1.000000000000000000 ) ) ;
#19 = SURFACE_SIDE_STYLE ('',( #148 ) ) ;
#20 = DIMENSIONAL_EXPONENTS ( 1.000000000000000000, 0.000000000000000000, 0.000000000000000000, 0.000000000000000000, 0.000000000000000000, 0.000000000000000000, 0.000000000000000000 ) ;
#21 = AXIS2_PLACEMENT_3D ( 'NONE', #251, #167, #114 ) ;
#22 = AXIS2_PLACEMENT_3D ( 'NONE', #297, #136, #278 ) ;
#23 = CARTESIAN_POINT ( 'NONE',  ( 0.000000000000000000, 0.000000000000000000, -0.2500000000000000000 ) ) ;
#24 = EDGE_CURVE ( 'NONE', #211, #2, #95, .T. ) ;
#25 = DIRECTION ( 'NONE',  ( 1.000000000000000000, 0.000000000000000000, 0.000000000000000000 ) ) ;
#26 = CARTESIAN_POINT ( 'NONE',  ( 0.000000000000000000, 39.37007874015748143, 0.000000000000000000 ) ) ;
#27 = FILL_AREA_STYLE_COLOUR ( '', #100 ) ;
#28 = CONICAL_SURFACE ( 'NONE', #309, 68.19097667594041923, 1.047197551196600074 ) ;
#29 = FILL_AREA_STYLE_COLOUR ( '', #250 ) ;
#30 = APPLICATION_CONTEXT ( 'automotive_design' ) ;
#31 = ORIENTED_EDGE ( 'NONE', *, *, #149, .T. ) ;
#32 = FACE_OUTER_BOUND ( 'NONE', #290, .T. ) ;
#33 = VERTEX_POINT ( 'NONE', #277 ) ;
#34 = LENGTH_MEASURE_WITH_UNIT ( LENGTH_MEASURE( 0.02539999999999999897 ), #264 );
#35 = ORIENTED_EDGE ( 'NONE', *, *, #24, .F. ) ;
#36 = STYLED_ITEM ( 'NONE', ( #235 ), #199 ) ;
#37 = ORIENTED_EDGE ( 'NONE', *, *, #274, .T. ) ;
#38 = SURFACE_STYLE_USAGE ( .BOTH. , #171 ) ;
#39 = DIRECTION ( 'NONE',  ( 1.060575238724908024E-16, 0.4999999999999979461, -0.8660254037844397068 ) ) ;
#40 = FILL_AREA_STYLE ('',( #70 ) ) ;
#41 = MECHANICAL_DESIGN_GEOMETRIC_PRESENTATION_REPRESENTATION (  '', ( #173 ), #255 ) ;
#42 =( NAMED_UNIT ( * ) PLANE_ANGLE_UNIT ( ) SI_UNIT ( $, .RADIAN. ) );
#43 = CIRCLE ( 'NONE', #21, 0.2499999999999999722 ) ;
#44 = FACE_OUTER_BOUND ( 'NONE', #263, .T. ) ;
#45 = DIRECTION ( 'NONE',  ( -1.245234447608929030E-16, 1.000000000000000000, -0.000000000000000000 ) ) ;
#46 = ADVANCED_FACE ( 'NONE', ( #44 ), #28, .T. ) ;
#47 = FILL_AREA_STYLE ('',( #77 ) ) ;
#48 = AXIS2_PLACEMENT_3D ( 'NONE', #110, #134, #193 ) ;
#49 =( NAMED_UNIT ( * ) SI_UNIT ( $, .STERADIAN. ) SOLID_ANGLE_UNIT ( ) );
#50 = MECHANICAL_DESIGN_GEOMETRIC_PRESENTATION_REPRESENTATION (  '', ( #331 ), #157 ) ;
#51 =( CONVERSION_BASED_UNIT ( 'INCH', #308 ) LENGTH_UNIT ( ) NAMED_UNIT ( #285 ) );
#52 = FACE_OUTER_BOUND ( 'NONE', #109, .T. ) ;
#53 = EDGE_CURVE ( 'NONE', #260, #288, #43, .T. ) ;
#54 = DIRECTION ( 'NONE',  ( 1.245234447608929030E-16, -1.000000000000000000, 0.000000000000000000 ) ) ;
#55 = STYLED_ITEM ( 'NONE', ( #301 ), #73 ) ;
#56 = CYLINDRICAL_SURFACE ( 'NONE', #210, 0.2500000000000000000 ) ;
#57 = DIMENSIONAL_EXPONENTS ( 1.000000000000000000, 0.000000000000000000, 0.000000000000000000, 0.000000000000000000, 0.000000000000000000, 0.000000000000000000, 0.000000000000000000 ) ;
#58 = UNCERTAINTY_MEASURE_WITH_UNIT (LENGTH_MEASURE( 1.000000000000000082E-05 ), #170, 'distance_accuracy_value', 'NONE');
#59 = SURFACE_STYLE_FILL_AREA ( #185 ) ;
#60 = ORIENTED_EDGE ( 'NONE', *, *, #299, .T. ) ;
#61 = DIRECTION ( 'NONE',  ( -0.000000000000000000, -1.000000000000000000, -0.000000000000000000 ) ) ;
#62 = ORIENTED_EDGE ( 'NONE', *, *, #98, .T. ) ;
#63 = PRESENTATION_STYLE_ASSIGNMENT (( #209 ) ) ;
#64 = EDGE_CURVE ( 'NONE', #346, #186, #298, .T. ) ;
#65 = SURFACE_STYLE_USAGE ( .BOTH. , #292 ) ;
#66 = AXIS2_PLACEMENT_3D ( 'NONE', #305, #271, #138 ) ;
#67 = COLOUR_RGB ( '',1.000000000000000000, 0.000000000000000000, 0.000000000000000000 ) ;
#68 = DIRECTION ( 'NONE',  ( -0.000000000000000000, -1.000000000000000000, -0.000000000000000000 ) ) ;
#69 = DIRECTION ( 'NONE',  ( -0.000000000000000000, -1.000000000000000000, -0.000000000000000000 ) ) ;
#70 = FILL_AREA_STYLE_COLOUR ( '', #276 ) ;
#71 = LENGTH_MEASURE_WITH_UNIT ( LENGTH_MEASURE( 0.02539999999999999897 ), #302 );
#72 = ORIENTED_EDGE ( 'NONE', *, *, #11, .F. ) ;
#73 = MANIFOLD_SOLID_BREP ( 'Revolve - Tool Body (Straight Shanked)', #152 ) ;
#74 = AXIS2_PLACEMENT_3D ( 'NONE', #26, #80, #119 ) ;
#75 = ADVANCED_FACE ( 'NONE', ( #310 ), #56, .T. ) ;
#76 = CARTESIAN_POINT ( 'NONE',  ( -0.2499999999999996114, 1.000000000000000000, 0.000000000000000000 ) ) ;
#77 = FILL_AREA_STYLE_COLOUR ( '', #13 ) ;
#78 = APPLICATION_CONTEXT ( 'automotive_design' ) ;
#79 = VECTOR ( 'NONE', #337, 39.37007874015748143 ) ;
#80 = DIRECTION ( 'NONE',  ( 0.000000000000000000, 1.000000000000000000, 0.000000000000000000 ) ) ;
#81 = SURFACE_STYLE_FILL_AREA ( #200 ) ;
#82 = PRODUCT_DEFINITION_FORMATION_WITH_SPECIFIED_SOURCE ( 'ANY', '', #323, .NOT_KNOWN. ) ;
#83 = CARTESIAN_POINT ( 'NONE',  ( 0.000000000000000000, 0.000000000000000000, 0.000000000000000000 ) ) ;
#84 = CYLINDRICAL_SURFACE ( 'NONE', #6, 0.2499999999999999167 ) ;
#85 = ADVANCED_FACE ( 'NONE', ( #16 ), #335, .T. ) ;
#86 = EDGE_LOOP ( 'NONE', ( #326, #131, #207 ) ) ;
#87 = UNCERTAINTY_MEASURE_WITH_UNIT (LENGTH_MEASURE( 1.000000000000000082E-05 ), #189, 'distance_accuracy_value', 'NONE');
#88 = CIRCLE ( 'NONE', #66, 0.2499999999999998335 ) ;
#89 =( NAMED_UNIT ( * ) PLANE_ANGLE_UNIT ( ) SI_UNIT ( $, .RADIAN. ) );
#90 = ORIENTED_EDGE ( 'NONE', *, *, #232, .F. ) ;
#91 = ADVANCED_FACE ( 'NONE', ( #52 ), #228, .F. ) ;
#92 = PLANE ( 'NONE',  #48 ) ;
#93 =( NAMED_UNIT ( * ) SI_UNIT ( $, .STERADIAN. ) SOLID_ANGLE_UNIT ( ) );
#94 =( LENGTH_UNIT ( ) NAMED_UNIT ( * ) SI_UNIT ( $, .METRE. ) );
#95 = CIRCLE ( 'NONE', #194, 0.2500000000000000000 ) ;
#96 = PLANE ( 'NONE',  #22 ) ;
#97 = LENGTH_MEASURE_WITH_UNIT ( LENGTH_MEASURE( 0.02539999999999999897 ), #94 );
#98 = EDGE_CURVE ( 'NONE', #211, #288, #124, .T. ) ;
#99 = CARTESIAN_POINT ( 'NONE',  ( 1.878145495644181332E-16, 1.000000000000000000, 0.000000000000000000 ) ) ;
#100 = COLOUR_RGB ( '',1.000000000000000000, 0.000000000000000000, 0.000000000000000000 ) ;
#101 = SURFACE_STYLE_FILL_AREA ( #330 ) ;
#102 = FACE_OUTER_BOUND ( 'NONE', #247, .T. ) ;
#103 = PRESENTATION_LAYER_ASSIGNMENT (  '', '', ( #254 ) ) ;
#104 = DIRECTION ( 'NONE',  ( 0.000000000000000000, 0.000000000000000000, -1.000000000000000000 ) ) ;
#105 =( CONVERSION_BASED_UNIT ( 'INCH', #34 ) LENGTH_UNIT ( ) NAMED_UNIT ( #318 ) );
#106 = DIRECTION ( 'NONE',  ( -1.245234447608929030E-16, 1.000000000000000000, -0.000000000000000000 ) ) ;
#107 =( GEOMETRIC_REPRESENTATION_CONTEXT ( 3 ) GLOBAL_UNCERTAINTY_ASSIGNED_CONTEXT ( ( #340 ) ) GLOBAL_UNIT_ASSIGNED_CONTEXT ( ( #105, #181, #182 ) ) REPRESENTATION_CONTEXT ( 'NONE', 'WORKASPACE' ) );
#108 = FACE_OUTER_BOUND ( 'NONE', #322, .T. ) ;
#109 = EDGE_LOOP ( 'NONE', ( #265, #237 ) ) ;
#110 = CARTESIAN_POINT ( 'NONE',  ( 0.000000000000000000, 1.000000000000000000, 0.000000000000000000 ) ) ;
#111 = ORIENTED_EDGE ( 'NONE', *, *, #64, .F. ) ;
#112 = PRESENTATION_STYLE_ASSIGNMENT (( #213 ) ) ;
#113 = CARTESIAN_POINT ( 'NONE',  ( 0.000000000000000000, 1.000000000000000000, -0.2500000000000000000 ) ) ;
#114 = DIRECTION ( 'NONE',  ( 0.000000000000000000, 0.000000000000000000, -1.000000000000000000 ) ) ;
#115 = DIRECTION ( 'NONE',  ( 0.000000000000000000, 0.000000000000000000, -1.000000000000000000 ) ) ;
#116 = ADVANCED_FACE ( 'NONE', ( #108 ), #212, .T. ) ;
#117 = LINE ( 'NONE', #142, #176 ) ;
#118 =( GEOMETRIC_REPRESENTATION_CONTEXT ( 3 ) GLOBAL_UNCERTAINTY_ASSIGNED_CONTEXT ( ( #87 ) ) GLOBAL_UNIT_ASSIGNED_CONTEXT ( ( #189, #275, #273 ) ) REPRESENTATION_CONTEXT ( 'NONE', 'WORKASPACE' ) );
#119 = DIRECTION ( 'NONE',  ( 0.000000000000000000, 0.000000000000000000, 1.000000000000000000 ) ) ;
#120 = LENGTH_MEASURE_WITH_UNIT ( LENGTH_MEASURE( 0.02539999999999999897 ), #121 );
#121 =( LENGTH_UNIT ( ) NAMED_UNIT ( * ) SI_UNIT ( $, .METRE. ) );
#122 = APPLICATION_PROTOCOL_DEFINITION ( 'draft international standard', 'automotive_design', 1998, #78 ) ;
#123 = DIMENSIONAL_EXPONENTS ( 1.000000000000000000, 0.000000000000000000, 0.000000000000000000, 0.000000000000000000, 0.000000000000000000, 0.000000000000000000, 0.000000000000000000 ) ;
#124 = LINE ( 'NONE', #23, #79 ) ;
#125 = ADVANCED_FACE ( 'NONE', ( #289 ), #84, .T. ) ;
#126 = CARTESIAN_POINT ( 'NONE',  ( 0.2500000000000000000, 3.000000000000000444, 3.061616997868383018E-17 ) ) ;
#127 = ORIENTED_EDGE ( 'NONE', *, *, #291, .T. ) ;
#128 = VECTOR ( 'NONE', #272, 39.37007874015748143 ) ;
#129 = SURFACE_STYLE_FILL_AREA ( #188 ) ;
#130 = VERTEX_POINT ( 'NONE', #204 ) ;
#131 = ORIENTED_EDGE ( 'NONE', *, *, #146, .T. ) ;
#132 = SURFACE_SIDE_STYLE ('',( #59 ) ) ;
#133 = EDGE_LOOP ( 'NONE', ( #161, #183 ) ) ;
#134 = DIRECTION ( 'NONE',  ( 0.000000000000000000, 1.000000000000000000, 0.000000000000000000 ) ) ;
#135 = ORIENTED_EDGE ( 'NONE', *, *, #291, .F. ) ;
#136 = DIRECTION ( 'NONE',  ( -1.245234447608929030E-16, 1.000000000000000000, 0.000000000000000000 ) ) ;
#137 = VERTEX_POINT ( 'NONE', #126 ) ;
#138 = DIRECTION ( 'NONE',  ( -1.000000000000000000, 0.000000000000000000, 0.000000000000000000 ) ) ;
#139 = CIRCLE ( 'NONE', #145, 0.2499999999999998335 ) ;
#140 = MECHANICAL_DESIGN_GEOMETRIC_PRESENTATION_REPRESENTATION (  '', ( #172 ), #324 ) ;
#141 = PRESENTATION_STYLE_ASSIGNMENT (( #38 ) ) ;
#142 = CARTESIAN_POINT ( 'NONE',  ( 0.000000000000000000, 0.000000000000000000, 0.000000000000000000 ) ) ;
#143 =( CONVERSION_BASED_UNIT ( 'INCH', #303 ) LENGTH_UNIT ( ) NAMED_UNIT ( #123 ) );
#144 = CARTESIAN_POINT ( 'NONE',  ( 0.000000000000000000, 39.37007874015748143, 0.000000000000000000 ) ) ;
#145 = AXIS2_PLACEMENT_3D ( 'NONE', #99, #45, #245 ) ;
#146 = EDGE_CURVE ( 'NONE', #33, #260, #262, .T. ) ;
#147 = MECHANICAL_DESIGN_GEOMETRIC_PRESENTATION_REPRESENTATION (  '', ( #254 ), #118 ) ;
#148 = SURFACE_STYLE_FILL_AREA ( #198 ) ;
#149 = EDGE_CURVE ( 'NONE', #2, #260, #234, .T. ) ;
#150 = CARTESIAN_POINT ( 'NONE',  ( 0.2500000000000000000, 3.000000000000000444, 0.000000000000000000 ) ) ;
#151 = COLOUR_RGB ( '',0.7921568627450980005, 0.8196078431372548767, 0.9333333333333333481 ) ;
#152 = CLOSED_SHELL ( 'NONE', ( #197, #208, #125, #91 ) ) ;
#153 = AXIS2_PLACEMENT_3D ( 'NONE', #333, #166, #196 ) ;
#154 =( NAMED_UNIT ( * ) SI_UNIT ( $, .STERADIAN. ) SOLID_ANGLE_UNIT ( ) );
#155 = CARTESIAN_POINT ( 'NONE',  ( 0.000000000000000000, 0.000000000000000000, 0.000000000000000000 ) ) ;
#156 = ORIENTED_EDGE ( 'NONE', *, *, #24, .T. ) ;
#157 =( GEOMETRIC_REPRESENTATION_CONTEXT ( 3 ) GLOBAL_UNCERTAINTY_ASSIGNED_CONTEXT ( ( #202 ) ) GLOBAL_UNIT_ASSIGNED_CONTEXT ( ( #201, #231, #49 ) ) REPRESENTATION_CONTEXT ( 'NONE', 'WORKASPACE' ) );
#158 = UNCERTAINTY_MEASURE_WITH_UNIT (LENGTH_MEASURE( 1.000000000000000082E-05 ), #143, 'distance_accuracy_value', 'NONE');
#159 = CARTESIAN_POINT ( 'NONE',  ( 0.000000000000000000, 0.000000000000000000, 0.000000000000000000 ) ) ;
#160 = DIRECTION ( 'NONE',  ( -1.000000000000000000, 0.000000000000000000, 0.000000000000000000 ) ) ;
#161 = ORIENTED_EDGE ( 'NONE', *, *, #274, .F. ) ;
#162 = CARTESIAN_POINT ( 'NONE',  ( -0.2500000000000001110, 3.000000000000000444, 0.000000000000000000 ) ) ;
#163 =( LENGTH_UNIT ( ) NAMED_UNIT ( * ) SI_UNIT ( $, .METRE. ) );
#164 = CIRCLE ( 'NONE', #349, 0.2500000000000000555 ) ;
#165 = MECHANICAL_DESIGN_GEOMETRIC_PRESENTATION_REPRESENTATION (  '', ( #36 ), #329 ) ;
#166 = DIRECTION ( 'NONE',  ( -1.245234447608929030E-16, 1.000000000000000000, -0.000000000000000000 ) ) ;
#167 = DIRECTION ( 'NONE',  ( -0.000000000000000000, -1.000000000000000000, -0.000000000000000000 ) ) ;
#168 = CARTESIAN_POINT ( 'NONE',  ( 3.061616997868382402E-17, 0.1443375672974056556, 0.2499999999999999722 ) ) ;
#169 = SURFACE_STYLE_FILL_AREA ( #40 ) ;
#170 =( CONVERSION_BASED_UNIT ( 'INCH', #71 ) LENGTH_UNIT ( ) NAMED_UNIT ( #230 ) );
#171 = SURFACE_SIDE_STYLE ('',( #224 ) ) ;
#172 = STYLED_ITEM ( 'NONE', ( #225 ), #85 ) ;
#173 = STYLED_ITEM ( 'NONE', ( #112 ), #281 ) ;
#174 = DIRECTION ( 'NONE',  ( 0.000000000000000000, 0.000000000000000000, -1.000000000000000000 ) ) ;
#175 = CARTESIAN_POINT ( 'NONE',  ( -6.123233995736770966E-17, 3.000000000000000444, 0.000000000000000000 ) ) ;
#176 = VECTOR ( 'NONE', #39, 39.37007874015748854 ) ;
#177 = AXIS2_PLACEMENT_3D ( 'NONE', #150, #54, #256 ) ;
#178 = SURFACE_SIDE_STYLE ('',( #81 ) ) ;
#179 = AXIS2_PLACEMENT_3D ( 'NONE', #267, #320, #160 ) ;
#180 = DIRECTION ( 'NONE',  ( -0.000000000000000000, -1.000000000000000000, -0.000000000000000000 ) ) ;
#181 =( NAMED_UNIT ( * ) PLANE_ANGLE_UNIT ( ) SI_UNIT ( $, .RADIAN. ) );
#182 =( NAMED_UNIT ( * ) SI_UNIT ( $, .STERADIAN. ) SOLID_ANGLE_UNIT ( ) );
#183 = ORIENTED_EDGE ( 'NONE', *, *, #343, .F. ) ;
#184 = PRESENTATION_LAYER_ASSIGNMENT (  '', '', ( #173 ) ) ;
#185 = FILL_AREA_STYLE ('',( #27 ) ) ;
#186 = VERTEX_POINT ( 'NONE', #162 ) ;
#187 = PRODUCT_RELATED_PRODUCT_CATEGORY ( 'part', '', ( #323 ) ) ;
#188 = FILL_AREA_STYLE ('',( #29 ) ) ;
#189 =( CONVERSION_BASED_UNIT ( 'INCH', #97 ) LENGTH_UNIT ( ) NAMED_UNIT ( #20 ) );
#190 = PRESENTATION_LAYER_ASSIGNMENT (  '', '', ( #331 ) ) ;
#191 =( LENGTH_UNIT ( ) NAMED_UNIT ( * ) SI_UNIT ( $, .METRE. ) );
#192 = CARTESIAN_POINT ( 'NONE',  ( -0.2500000000000000000, 3.000000000000000444, 0.000000000000000000 ) ) ;
#193 = DIRECTION ( 'NONE',  ( 0.000000000000000000, -0.000000000000000000, 1.000000000000000000 ) ) ;
#194 = AXIS2_PLACEMENT_3D ( 'NONE', #14, #69, #174 ) ;
#195 = PRESENTATION_LAYER_ASSIGNMENT (  '', '', ( #55 ) ) ;
#196 = DIRECTION ( 'NONE',  ( -1.000000000000000000, 0.000000000000000000, 0.000000000000000000 ) ) ;
#197 = ADVANCED_FACE ( 'NONE', ( #102 ), #240, .T. ) ;
#198 = FILL_AREA_STYLE ('',( #249 ) ) ;
#199 = ADVANCED_FACE ( 'NONE', ( #32 ), #92, .T. ) ;
#200 = FILL_AREA_STYLE ('',( #312 ) ) ;
#201 =( CONVERSION_BASED_UNIT ( 'INCH', #120 ) LENGTH_UNIT ( ) NAMED_UNIT ( #258 ) );
#202 = UNCERTAINTY_MEASURE_WITH_UNIT (LENGTH_MEASURE( 1.000000000000000082E-05 ), #201, 'distance_accuracy_value', 'NONE');
#203 = APPLICATION_PROTOCOL_DEFINITION ( 'draft international standard', 'automotive_design', 1998, #30 ) ;
#204 = CARTESIAN_POINT ( 'NONE',  ( 0.2500000000000000555, 1.000000000000000000, 3.061616997868383634E-17 ) ) ;
#205 = ORIENTED_EDGE ( 'NONE', *, *, #53, .F. ) ;
#206 =( NAMED_UNIT ( * ) SI_UNIT ( $, .STERADIAN. ) SOLID_ANGLE_UNIT ( ) );
#207 = ORIENTED_EDGE ( 'NONE', *, *, #53, .T. ) ;
#208 = ADVANCED_FACE ( 'NONE', ( #332 ), #96, .F. ) ;
#209 = SURFACE_STYLE_USAGE ( .BOTH. , #132 ) ;
#210 = AXIS2_PLACEMENT_3D ( 'NONE', #83, #180, #18 ) ;
#211 = VERTEX_POINT ( 'NONE', #113 ) ;
#212 = CYLINDRICAL_SURFACE ( 'NONE', #15, 0.2500000000000000000 ) ;
#213 = SURFACE_STYLE_USAGE ( .BOTH. , #221 ) ;
#214 = ORIENTED_EDGE ( 'NONE', *, *, #238, .T. ) ;
#215 = CARTESIAN_POINT ( 'NONE',  ( 0.000000000000000000, 0.1443375672974056556, -0.2499999999999999722 ) ) ;
#216 = MECHANICAL_DESIGN_GEOMETRIC_PRESENTATION_REPRESENTATION (  '', ( #55 ), #295 ) ;
#217 = LINE ( 'NONE', #300, #222 ) ;
#218 = SURFACE_STYLE_USAGE ( .BOTH. , #8 ) ;
#219 = CARTESIAN_POINT ( 'NONE',  ( 0.000000000000000000, 0.1443375672974056556, 0.000000000000000000 ) ) ;
#220 =( LENGTH_UNIT ( ) NAMED_UNIT ( * ) SI_UNIT ( $, .METRE. ) );
#221 = SURFACE_SIDE_STYLE ('',( #101 ) ) ;
#222 = VECTOR ( 'NONE', #5, 39.37007874015748143 ) ;
#223 = PRESENTATION_LAYER_ASSIGNMENT (  '', '', ( #172 ) ) ;
#224 = SURFACE_STYLE_FILL_AREA ( #47 ) ;
#225 = PRESENTATION_STYLE_ASSIGNMENT (( #339 ) ) ;
#226 =( NAMED_UNIT ( * ) PLANE_ANGLE_UNIT ( ) SI_UNIT ( $, .RADIAN. ) );
#227 = STYLED_ITEM ( 'NONE', ( #63 ), #116 ) ;
#228 = PLANE ( 'NONE',  #177 ) ;
#229 = UNCERTAINTY_MEASURE_WITH_UNIT (LENGTH_MEASURE( 1.000000000000000082E-05 ), #17, 'distance_accuracy_value', 'NONE');
#230 = DIMENSIONAL_EXPONENTS ( 1.000000000000000000, 0.000000000000000000, 0.000000000000000000, 0.000000000000000000, 0.000000000000000000, 0.000000000000000000, 0.000000000000000000 ) ;
#231 =( NAMED_UNIT ( * ) PLANE_ANGLE_UNIT ( ) SI_UNIT ( $, .RADIAN. ) );
#232 = EDGE_CURVE ( 'NONE', #130, #137, #217, .T. ) ;
#233 = PRODUCT_CONTEXT ( 'NONE', #78, 'mechanical' ) ;
#234 = LINE ( 'NONE', #236, #241 ) ;
#235 = PRESENTATION_STYLE_ASSIGNMENT (( #65 ) ) ;
#236 = CARTESIAN_POINT ( 'NONE',  ( 3.061616997868383018E-17, 0.000000000000000000, 0.2500000000000000000 ) ) ;
#237 = ORIENTED_EDGE ( 'NONE', *, *, #311, .T. ) ;
#238 = EDGE_CURVE ( 'NONE', #2, #211, #12, .T. ) ;
#239 = AXIS2_PLACEMENT_3D ( 'NONE', #9, #3, #7 ) ;
#240 = CYLINDRICAL_SURFACE ( 'NONE', #179, 0.2499999999999999167 ) ;
#241 = VECTOR ( 'NONE', #61, 39.37007874015748143 ) ;
#242 = DIMENSIONAL_EXPONENTS ( 1.000000000000000000, 0.000000000000000000, 0.000000000000000000, 0.000000000000000000, 0.000000000000000000, 0.000000000000000000, 0.000000000000000000 ) ;
#243 = ORIENTED_EDGE ( 'NONE', *, *, #343, .T. ) ;
#244 = CIRCLE ( 'NONE', #153, 0.2500000000000000555 ) ;
#245 = DIRECTION ( 'NONE',  ( -1.000000000000000000, 0.000000000000000000, 0.000000000000000000 ) ) ;
#246 = ORIENTED_EDGE ( 'NONE', *, *, #311, .F. ) ;
#247 = EDGE_LOOP ( 'NONE', ( #37, #4, #72, #111 ) ) ;
#248 = ADVANCED_BREP_SHAPE_REPRESENTATION ( '83778', ( #281, #73, #348 ), #344 ) ;
#249 = FILL_AREA_STYLE_COLOUR ( '', #67 ) ;
#250 = COLOUR_RGB ( '',1.000000000000000000, 0.000000000000000000, 0.000000000000000000 ) ;
#251 = CARTESIAN_POINT ( 'NONE',  ( 0.000000000000000000, 0.1443375672974056556, 0.000000000000000000 ) ) ;
#252 = DIRECTION ( 'NONE',  ( -1.245234447608929030E-16, 1.000000000000000000, -0.000000000000000000 ) ) ;
#253 = DIRECTION ( 'NONE',  ( 0.000000000000000000, 0.000000000000000000, 1.000000000000000000 ) ) ;
#254 = STYLED_ITEM ( 'NONE', ( #141 ), #46 ) ;
#255 =( GEOMETRIC_REPRESENTATION_CONTEXT ( 3 ) GLOBAL_UNCERTAINTY_ASSIGNED_CONTEXT ( ( #58 ) ) GLOBAL_UNIT_ASSIGNED_CONTEXT ( ( #170, #42, #294 ) ) REPRESENTATION_CONTEXT ( 'NONE', 'WORKASPACE' ) );
#256 = DIRECTION ( 'NONE',  ( 1.000000000000000000, 1.245234447608929030E-16, 0.000000000000000000 ) ) ;
#257 = DIRECTION ( 'NONE',  ( 0.000000000000000000, 0.000000000000000000, 1.000000000000000000 ) ) ;
#258 = DIMENSIONAL_EXPONENTS ( 1.000000000000000000, 0.000000000000000000, 0.000000000000000000, 0.000000000000000000, 0.000000000000000000, 0.000000000000000000, 0.000000000000000000 ) ;
#259 = DIRECTION ( 'NONE',  ( 0.000000000000000000, 0.4999999999999979461, 0.8660254037844397068 ) ) ;
#260 = VERTEX_POINT ( 'NONE', #168 ) ;
#261 = MECHANICAL_DESIGN_GEOMETRIC_PRESENTATION_REPRESENTATION (  '', ( #227 ), #107 ) ;
#262 = LINE ( 'NONE', #155, #350 ) ;
#263 = EDGE_LOOP ( 'NONE', ( #345, #60, #127 ) ) ;
#264 =( LENGTH_UNIT ( ) NAMED_UNIT ( * ) SI_UNIT ( $, .METRE. ) );
#265 = ORIENTED_EDGE ( 'NONE', *, *, #11, .T. ) ;
#266 = PRODUCT_DEFINITION_SHAPE ( 'NONE', 'NONE',  #341 ) ;
#267 = CARTESIAN_POINT ( 'NONE',  ( -6.123233995736772199E-17, 3.000000000000000444, 0.000000000000000000 ) ) ;
#268 = ORIENTED_EDGE ( 'NONE', *, *, #64, .T. ) ;
#269 =( CONVERSION_BASED_UNIT ( 'INCH', #347 ) LENGTH_UNIT ( ) NAMED_UNIT ( #57 ) );
#270 = PRESENTATION_LAYER_ASSIGNMENT (  '', '', ( #36 ) ) ;
#271 = DIRECTION ( 'NONE',  ( -1.245234447608929030E-16, 1.000000000000000000, -0.000000000000000000 ) ) ;
#272 = DIRECTION ( 'NONE',  ( -1.245234447608929030E-16, 1.000000000000000000, -0.000000000000000000 ) ) ;
#273 =( NAMED_UNIT ( * ) SI_UNIT ( $, .STERADIAN. ) SOLID_ANGLE_UNIT ( ) );
#274 = EDGE_CURVE ( 'NONE', #346, #130, #139, .T. ) ;
#275 =( NAMED_UNIT ( * ) PLANE_ANGLE_UNIT ( ) SI_UNIT ( $, .RADIAN. ) );
#276 = COLOUR_RGB ( '',0.7921568627450980005, 0.8196078431372548767, 0.9333333333333333481 ) ;
#277 = CARTESIAN_POINT ( 'NONE',  ( 0.000000000000000000, 0.000000000000000000, 0.000000000000000000 ) ) ;
#278 = DIRECTION ( 'NONE',  ( -1.000000000000000000, -1.245234447608929030E-16, 0.000000000000000000 ) ) ;
#279 =( NAMED_UNIT ( * ) SI_UNIT ( $, .STERADIAN. ) SOLID_ANGLE_UNIT ( ) );
#280 =( LENGTH_UNIT ( ) NAMED_UNIT ( * ) SI_UNIT ( $, .METRE. ) );
#281 = MANIFOLD_SOLID_BREP ( 'Revolve - Cutting Edge', #314 ) ;
#282 = PRESENTATION_LAYER_ASSIGNMENT (  '', '', ( #227 ) ) ;
#283 = ORIENTED_EDGE ( 'NONE', *, *, #149, .F. ) ;
#284 = DIRECTION ( 'NONE',  ( -0.000000000000000000, -1.000000000000000000, -0.000000000000000000 ) ) ;
#285 = DIMENSIONAL_EXPONENTS ( 1.000000000000000000, 0.000000000000000000, 0.000000000000000000, 0.000000000000000000, 0.000000000000000000, 0.000000000000000000, 0.000000000000000000 ) ;
#286 = EDGE_LOOP ( 'NONE', ( #90, #243, #268, #246 ) ) ;
#287 = CARTESIAN_POINT ( 'NONE',  ( -6.123233995736772199E-17, 3.000000000000000444, 0.000000000000000000 ) ) ;
#288 = VERTEX_POINT ( 'NONE', #215 ) ;
#289 = FACE_OUTER_BOUND ( 'NONE', #286, .T. ) ;
#290 = EDGE_LOOP ( 'NONE', ( #35, #328 ) ) ;
#291 = EDGE_CURVE ( 'NONE', #288, #260, #293, .T. ) ;
#292 = SURFACE_SIDE_STYLE ('',( #129 ) ) ;
#293 = CIRCLE ( 'NONE', #304, 0.2499999999999999722 ) ;
#294 =( NAMED_UNIT ( * ) SI_UNIT ( $, .STERADIAN. ) SOLID_ANGLE_UNIT ( ) );
#295 =( GEOMETRIC_REPRESENTATION_CONTEXT ( 3 ) GLOBAL_UNCERTAINTY_ASSIGNED_CONTEXT ( ( #158 ) ) GLOBAL_UNIT_ASSIGNED_CONTEXT ( ( #143, #334, #279 ) ) REPRESENTATION_CONTEXT ( 'NONE', 'WORKASPACE' ) );
#296 = DIRECTION ( 'NONE',  ( -1.000000000000000000, 0.000000000000000000, 0.000000000000000000 ) ) ;
#297 = CARTESIAN_POINT ( 'NONE',  ( 1.878145495644180839E-16, 1.000000000000000000, 0.000000000000000000 ) ) ;
#298 = LINE ( 'NONE', #192, #128 ) ;
#299 = EDGE_CURVE ( 'NONE', #33, #288, #117, .T. ) ;
#300 = CARTESIAN_POINT ( 'NONE',  ( 0.2499999999999998612, 3.000000000000000444, 3.061616997868382402E-17 ) ) ;
#301 = PRESENTATION_STYLE_ASSIGNMENT (( #218 ) ) ;
#302 =( LENGTH_UNIT ( ) NAMED_UNIT ( * ) SI_UNIT ( $, .METRE. ) );
#303 = LENGTH_MEASURE_WITH_UNIT ( LENGTH_MEASURE( 0.02539999999999999897 ), #220 );
#304 = AXIS2_PLACEMENT_3D ( 'NONE', #219, #68, #115 ) ;
#305 = CARTESIAN_POINT ( 'NONE',  ( 1.878145495644181332E-16, 1.000000000000000000, 0.000000000000000000 ) ) ;
#306 = CARTESIAN_POINT ( 'NONE',  ( 3.061616997868383018E-17, 1.000000000000000000, 0.2500000000000000000 ) ) ;
#307 = PRESENTATION_STYLE_ASSIGNMENT (( #342 ) ) ;
#308 = LENGTH_MEASURE_WITH_UNIT ( LENGTH_MEASURE( 0.02539999999999999897 ), #280 );
#309 = AXIS2_PLACEMENT_3D ( 'NONE', #144, #10, #253 ) ;
#310 = FACE_OUTER_BOUND ( 'NONE', #351, .T. ) ;
#311 = EDGE_CURVE ( 'NONE', #137, #186, #244, .T. ) ;
#312 = FILL_AREA_STYLE_COLOUR ( '', #315 ) ;
#313 = PRODUCT_DEFINITION_CONTEXT ( 'detailed design', #30, 'design' ) ;
#314 = CLOSED_SHELL ( 'NONE', ( #46, #75, #199, #116, #85 ) ) ;
#315 = COLOUR_RGB ( '',1.000000000000000000, 0.000000000000000000, 0.000000000000000000 ) ;
#316 = SHAPE_DEFINITION_REPRESENTATION ( #266, #248 ) ;
#317 =( NAMED_UNIT ( * ) PLANE_ANGLE_UNIT ( ) SI_UNIT ( $, .RADIAN. ) );
#318 = DIMENSIONAL_EXPONENTS ( 1.000000000000000000, 0.000000000000000000, 0.000000000000000000, 0.000000000000000000, 0.000000000000000000, 0.000000000000000000, 0.000000000000000000 ) ;
#319 = UNCERTAINTY_MEASURE_WITH_UNIT (LENGTH_MEASURE( 1.000000000000000082E-05 ), #269, 'distance_accuracy_value', 'NONE');
#320 = DIRECTION ( 'NONE',  ( -1.245234447608929030E-16, 1.000000000000000000, -0.000000000000000000 ) ) ;
#321 = ORIENTED_EDGE ( 'NONE', *, *, #98, .F. ) ;
#322 = EDGE_LOOP ( 'NONE', ( #283, #214, #62, #205 ) ) ;
#323 = PRODUCT ( '83778', '83778', '', ( #233 ) ) ;
#324 =( GEOMETRIC_REPRESENTATION_CONTEXT ( 3 ) GLOBAL_UNCERTAINTY_ASSIGNED_CONTEXT ( ( #338 ) ) GLOBAL_UNIT_ASSIGNED_CONTEXT ( ( #51, #226, #154 ) ) REPRESENTATION_CONTEXT ( 'NONE', 'WORKASPACE' ) );
#325 = DIRECTION ( 'NONE',  ( -1.000000000000000000, 0.000000000000000000, 0.000000000000000000 ) ) ;
#326 = ORIENTED_EDGE ( 'NONE', *, *, #299, .F. ) ;
#327 = CARTESIAN_POINT ( 'NONE',  ( 0.000000000000000000, 0.000000000000000000, 0.000000000000000000 ) ) ;
#328 = ORIENTED_EDGE ( 'NONE', *, *, #238, .F. ) ;
#329 =( GEOMETRIC_REPRESENTATION_CONTEXT ( 3 ) GLOBAL_UNCERTAINTY_ASSIGNED_CONTEXT ( ( #319 ) ) GLOBAL_UNIT_ASSIGNED_CONTEXT ( ( #269, #317, #93 ) ) REPRESENTATION_CONTEXT ( 'NONE', 'WORKASPACE' ) );
#330 = FILL_AREA_STYLE ('',( #1 ) ) ;
#331 = STYLED_ITEM ( 'NONE', ( #307 ), #75 ) ;
#332 = FACE_OUTER_BOUND ( 'NONE', #133, .T. ) ;
#333 = CARTESIAN_POINT ( 'NONE',  ( -6.123233995736770966E-17, 3.000000000000000444, 0.000000000000000000 ) ) ;
#334 =( NAMED_UNIT ( * ) PLANE_ANGLE_UNIT ( ) SI_UNIT ( $, .RADIAN. ) );
#335 = CONICAL_SURFACE ( 'NONE', #74, 68.19097667594041923, 1.047197551196600074 ) ;
#336 = LENGTH_MEASURE_WITH_UNIT ( LENGTH_MEASURE( 0.02539999999999999897 ), #191 );
#337 = DIRECTION ( 'NONE',  ( -0.000000000000000000, -1.000000000000000000, -0.000000000000000000 ) ) ;
#338 = UNCERTAINTY_MEASURE_WITH_UNIT (LENGTH_MEASURE( 1.000000000000000082E-05 ), #51, 'distance_accuracy_value', 'NONE');
#339 = SURFACE_STYLE_USAGE ( .BOTH. , #178 ) ;
#340 = UNCERTAINTY_MEASURE_WITH_UNIT (LENGTH_MEASURE( 1.000000000000000082E-05 ), #105, 'distance_accuracy_value', 'NONE');
#341 = PRODUCT_DEFINITION ( 'UNKNOWN', '', #82, #313 ) ;
#342 = SURFACE_STYLE_USAGE ( .BOTH. , #19 ) ;
#343 = EDGE_CURVE ( 'NONE', #130, #346, #88, .T. ) ;
#344 =( GEOMETRIC_REPRESENTATION_CONTEXT ( 3 ) GLOBAL_UNCERTAINTY_ASSIGNED_CONTEXT ( ( #229 ) ) GLOBAL_UNIT_ASSIGNED_CONTEXT ( ( #17, #89, #206 ) ) REPRESENTATION_CONTEXT ( 'NONE', 'WORKASPACE' ) );
#345 = ORIENTED_EDGE ( 'NONE', *, *, #146, .F. ) ;
#346 = VERTEX_POINT ( 'NONE', #76 ) ;
#347 = LENGTH_MEASURE_WITH_UNIT ( LENGTH_MEASURE( 0.02539999999999999897 ), #163 );
#348 = AXIS2_PLACEMENT_3D ( 'NONE', #159, #257, #25 ) ;
#349 = AXIS2_PLACEMENT_3D ( 'NONE', #175, #252, #296 ) ;
#350 = VECTOR ( 'NONE', #259, 39.37007874015748854 ) ;
#351 = EDGE_LOOP ( 'NONE', ( #156, #31, #135, #321 ) ) ;
ENDSEC;
END-ISO-10303-21;
