ISO-10303-21;
HEADER;
FILE_DESCRIPTION (( 'STEP AP214' ),
    '1' );
FILE_NAME ('Micro_GEM-140-4.STEP',
    '2021-09-01T19:44:53',
    ( '' ),
    ( '' ),
    'SwSTEP 2.0',
    'SolidWorks 2020',
    '' );
FILE_SCHEMA (( 'AUTOMOTIVE_DESIGN' ));
ENDSEC;

DATA;
#1 = AXIS2_PLACEMENT_3D ( 'NONE', #209, #189, #117 ) ;
#2 = STYLED_ITEM ( 'NONE', ( #262 ), #147 ) ;
#3 = DIRECTION ( 'NONE',  ( -1.000000000000000000, 0.0000000000000000000, 0.0000000000000000000 ) ) ;
#4 = CARTESIAN_POINT ( 'NONE',  ( 0.09375000000000001388, 1.148106374200643863E-17, 2.000000000000000000 ) ) ;
#5 = CARTESIAN_POINT ( 'NONE',  ( 0.07022970000000000601, 8.600657731007888113E-18, 0.0000000000000000000 ) ) ;
#6 = CIRCLE ( 'NONE', #165, 0.09375000000000001388 ) ;
#7 = FACE_OUTER_BOUND ( 'NONE', #11, .T. ) ;
#8 = EDGE_CURVE ( 'NONE', #292, #110, #122, .T. ) ;
#9 = CARTESIAN_POINT ( 'NONE',  ( 0.07874999999999980627, 9.644093543285380530E-18, 2.000000000000000000 ) ) ;
#10 = ORIENTED_EDGE ( 'NONE', *, *, #56, .F. ) ;
#11 = EDGE_LOOP ( 'NONE', ( #39, #276, #112, #179 ) ) ;
#12 = EDGE_CURVE ( 'NONE', #132, #110, #185, .T. ) ;
#13 = CARTESIAN_POINT ( 'NONE',  ( 0.0000000000000000000, 0.0000000000000000000, 0.0000000000000000000 ) ) ;
#14 = ORIENTED_EDGE ( 'NONE', *, *, #206, .T. ) ;
#15 =( NAMED_UNIT ( * ) PLANE_ANGLE_UNIT ( ) SI_UNIT ( $, .RADIAN. ) );
#16 = ADVANCED_FACE ( 'NONE', ( #164 ), #296, .T. ) ;
#17 = VERTEX_POINT ( 'NONE', #69 ) ;
#18 = CIRCLE ( 'NONE', #96, 0.07022970000000000601 ) ;
#19 = ORIENTED_EDGE ( 'NONE', *, *, #231, .T. ) ;
#20 = DIRECTION ( 'NONE',  ( 1.000000000000000000, 0.0000000000000000000, 0.0000000000000000000 ) ) ;
#21 = FILL_AREA_STYLE_COLOUR ( '', #139 ) ;
#22 = CARTESIAN_POINT ( 'NONE',  ( -0.07022969999999995050, 8.600657731007888113E-18, 0.5000000000000000000 ) ) ;
#23 = DIMENSIONAL_EXPONENTS ( 1.000000000000000000, 0.0000000000000000000, 0.0000000000000000000, 0.0000000000000000000, 0.0000000000000000000, 0.0000000000000000000, 0.0000000000000000000 ) ;
#24 = DIRECTION ( 'NONE',  ( 1.000000000000000000, 0.0000000000000000000, 0.0000000000000000000 ) ) ;
#25 = EDGE_CURVE ( 'NONE', #294, #135, #88, .T. ) ;
#26 = DIRECTION ( 'NONE',  ( 0.0000000000000000000, 0.0000000000000000000, 1.000000000000000000 ) ) ;
#27 = CIRCLE ( 'NONE', #1, 0.09375000000000001388 ) ;
#28 = CARTESIAN_POINT ( 'NONE',  ( 6.123233995736766036E-17, 0.0000000000000000000, 0.5000000000000000000 ) ) ;
#29 = PRODUCT_DEFINITION_SHAPE ( 'NONE', 'NONE',  #176 ) ;
#30 = CARTESIAN_POINT ( 'NONE',  ( -0.07874999999999980627, 0.0000000000000000000, 2.000000000000000000 ) ) ;
#31 = EDGE_CURVE ( 'NONE', #132, #270, #71, .T. ) ;
#32 = DIRECTION ( 'NONE',  ( -1.224646799147353207E-16, -0.0000000000000000000, -1.000000000000000000 ) ) ;
#33 = VECTOR ( 'NONE', #227, 39.37007874015748143 ) ;
#34 = AXIS2_PLACEMENT_3D ( 'NONE', #154, #240, #79 ) ;
#35 = ORIENTED_EDGE ( 'NONE', *, *, #87, .F. ) ;
#36 = ORIENTED_EDGE ( 'NONE', *, *, #124, .F. ) ;
#37 = DIRECTION ( 'NONE',  ( -1.000000000000000000, 0.0000000000000000000, 1.224646799147353207E-16 ) ) ;
#38 = ORIENTED_EDGE ( 'NONE', *, *, #31, .T. ) ;
#39 = ORIENTED_EDGE ( 'NONE', *, *, #286, .F. ) ;
#40 = ORIENTED_EDGE ( 'NONE', *, *, #51, .F. ) ;
#41 = ADVANCED_FACE ( 'NONE', ( #250 ), #254, .T. ) ;
#42 = DIRECTION ( 'NONE',  ( 0.0000000000000000000, 0.0000000000000000000, -1.000000000000000000 ) ) ;
#43 = DIRECTION ( 'NONE',  ( 0.0000000000000000000, 0.0000000000000000000, -1.000000000000000000 ) ) ;
#44 = COLOUR_RGB ( '',0.7921568627450980005, 0.8196078431372548767, 0.9333333333333333481 ) ;
#45 = LINE ( 'NONE', #30, #63 ) ;
#46 = EDGE_CURVE ( 'NONE', #265, #221, #267, .T. ) ;
#47 = FACE_OUTER_BOUND ( 'NONE', #263, .T. ) ;
#48 = ORIENTED_EDGE ( 'NONE', *, *, #163, .F. ) ;
#49 = VECTOR ( 'NONE', #253, 39.37007874015748143 ) ;
#50 = PRODUCT_DEFINITION_FORMATION_WITH_SPECIFIED_SOURCE ( 'ANY', '', #127, .NOT_KNOWN. ) ;
#51 = EDGE_CURVE ( 'NONE', #110, #292, #27, .T. ) ;
#52 = CARTESIAN_POINT ( 'NONE',  ( 0.0000000000000000000, 0.0000000000000000000, 2.000000000000000000 ) ) ;
#53 = DIRECTION ( 'NONE',  ( -1.000000000000000000, 0.0000000000000000000, 0.0000000000000000000 ) ) ;
#54 = PRODUCT_DEFINITION_CONTEXT ( 'detailed design', #142, 'design' ) ;
#55 =( CONVERSION_BASED_UNIT ( 'INCH', #281 ) LENGTH_UNIT ( ) NAMED_UNIT ( #212 ) );
#56 = EDGE_CURVE ( 'NONE', #288, #292, #94, .T. ) ;
#57 = SURFACE_SIDE_STYLE ('',( #145 ) ) ;
#58 = LENGTH_MEASURE_WITH_UNIT ( LENGTH_MEASURE( 0.02539999999999999897 ), #111 );
#59 = ORIENTED_EDGE ( 'NONE', *, *, #12, .T. ) ;
#60 = FILL_AREA_STYLE_COLOUR ( '', #44 ) ;
#61 = APPLICATION_PROTOCOL_DEFINITION ( 'draft international standard', 'automotive_design', 1998, #142 ) ;
#62 = EDGE_LOOP ( 'NONE', ( #84, #220 ) ) ;
#63 = VECTOR ( 'NONE', #175, 39.37007874015748143 ) ;
#64 = PRESENTATION_LAYER_ASSIGNMENT (  '', '', ( #2 ) ) ;
#65 = SHAPE_DEFINITION_REPRESENTATION ( #29, #147 ) ;
#66 = ADVANCED_FACE ( 'NONE', ( #191 ), #271, .T. ) ;
#67 = EDGE_LOOP ( 'NONE', ( #183, #38, #204, #203 ) ) ;
#68 = EDGE_CURVE ( 'NONE', #17, #270, #114, .T. ) ;
#69 = CARTESIAN_POINT ( 'NONE',  ( -0.07022970000000000601, 0.0000000000000000000, 1.720131546201577623E-17 ) ) ;
#70 = DIRECTION ( 'NONE',  ( -1.000000000000000000, 0.0000000000000000000, 0.0000000000000000000 ) ) ;
#71 = LINE ( 'NONE', #208, #49 ) ;
#72 = DIRECTION ( 'NONE',  ( -1.000000000000000000, 0.0000000000000000000, 1.224646799147353207E-16 ) ) ;
#73 = AXIS2_PLACEMENT_3D ( 'NONE', #257, #299, #3 ) ;
#74 = CARTESIAN_POINT ( 'NONE',  ( 0.0000000000000000000, 0.0000000000000000000, 2.000000000000000000 ) ) ;
#75 =( LENGTH_UNIT ( ) NAMED_UNIT ( * ) SI_UNIT ( $, .METRE. ) );
#76 =( NAMED_UNIT ( * ) SI_UNIT ( $, .STERADIAN. ) SOLID_ANGLE_UNIT ( ) );
#77 = EDGE_CURVE ( 'NONE', #221, #265, #6, .T. ) ;
#78 = PLANE ( 'NONE',  #173 ) ;
#79 = DIRECTION ( 'NONE',  ( 1.000000000000000000, 0.0000000000000000000, 0.0000000000000000000 ) ) ;
#80 = EDGE_LOOP ( 'NONE', ( #268, #14, #106, #36 ) ) ;
#81 = AXIS2_PLACEMENT_3D ( 'NONE', #259, #26, #149 ) ;
#82 = DIRECTION ( 'NONE',  ( -1.224646799147353207E-16, -0.0000000000000000000, -1.000000000000000000 ) ) ;
#83 = ORIENTED_EDGE ( 'NONE', *, *, #77, .T. ) ;
#84 = ORIENTED_EDGE ( 'NONE', *, *, #25, .T. ) ;
#85 = FILL_AREA_STYLE ('',( #60 ) ) ;
#86 = EDGE_LOOP ( 'NONE', ( #130, #19, #219, #205 ) ) ;
#87 = EDGE_CURVE ( 'NONE', #288, #132, #118, .T. ) ;
#88 = CIRCLE ( 'NONE', #272, 0.07874999999999980627 ) ;
#89 = DIRECTION ( 'NONE',  ( -1.224646799147353207E-16, -0.0000000000000000000, -1.000000000000000000 ) ) ;
#90 = LINE ( 'NONE', #119, #33 ) ;
#91 = AXIS2_PLACEMENT_3D ( 'NONE', #13, #82, #37 ) ;
#92 = DIRECTION ( 'NONE',  ( 1.224646799147353207E-16, 0.0000000000000000000, 1.000000000000000000 ) ) ;
#93 = DIRECTION ( 'NONE',  ( 1.000000000000000000, 0.0000000000000000000, 0.0000000000000000000 ) ) ;
#94 = LINE ( 'NONE', #22, #123 ) ;
#95 = DIRECTION ( 'NONE',  ( -1.000000000000000000, 0.0000000000000000000, 0.0000000000000000000 ) ) ;
#96 = AXIS2_PLACEMENT_3D ( 'NONE', #28, #32, #283 ) ;
#97 = CARTESIAN_POINT ( 'NONE',  ( 0.0000000000000000000, 0.0000000000000000000, 2.000000000000000000 ) ) ;
#98 = UNCERTAINTY_MEASURE_WITH_UNIT (LENGTH_MEASURE( 1.000000000000000082E-05 ), #55, 'distance_accuracy_value', 'NONE');
#99 = PRODUCT_RELATED_PRODUCT_CATEGORY ( 'part', '', ( #127 ) ) ;
#100 = CARTESIAN_POINT ( 'NONE',  ( -0.09375000000000001388, 0.0000000000000000000, 1.984999999999999654 ) ) ;
#101 = DIRECTION ( 'NONE',  ( 0.0000000000000000000, 0.0000000000000000000, 1.000000000000000000 ) ) ;
#102 = AXIS2_PLACEMENT_3D ( 'NONE', #170, #217, #237 ) ;
#103 = CYLINDRICAL_SURFACE ( 'NONE', #234, 0.09375000000000001388 ) ;
#104 = ADVANCED_FACE ( 'NONE', ( #47 ), #211, .T. ) ;
#105 = ORIENTED_EDGE ( 'NONE', *, *, #124, .T. ) ;
#106 = ORIENTED_EDGE ( 'NONE', *, *, #8, .F. ) ;
#107 = STYLED_ITEM ( 'NONE', ( #232 ), #150 ) ;
#108 =( GEOMETRIC_REPRESENTATION_CONTEXT ( 3 ) GLOBAL_UNCERTAINTY_ASSIGNED_CONTEXT ( ( #282 ) ) GLOBAL_UNIT_ASSIGNED_CONTEXT ( ( #238, #15, #136 ) ) REPRESENTATION_CONTEXT ( 'NONE', 'WORKASPACE' ) );
#109 = PRODUCT_CONTEXT ( 'NONE', #239, 'mechanical' ) ;
#110 = VERTEX_POINT ( 'NONE', #116 ) ;
#111 =( LENGTH_UNIT ( ) NAMED_UNIT ( * ) SI_UNIT ( $, .METRE. ) );
#112 = ORIENTED_EDGE ( 'NONE', *, *, #163, .T. ) ;
#113 = ORIENTED_EDGE ( 'NONE', *, *, #231, .F. ) ;
#114 = CIRCLE ( 'NONE', #169, 0.07022970000000000601 ) ;
#115 = CARTESIAN_POINT ( 'NONE',  ( 0.07022970000000007540, 0.0000000000000000000, 0.5000000000000000000 ) ) ;
#116 = CARTESIAN_POINT ( 'NONE',  ( 0.09375000000000009714, 1.148106374200644787E-17, 0.6333902497819535737 ) ) ;
#117 = DIRECTION ( 'NONE',  ( 1.000000000000000000, 0.0000000000000000000, 0.0000000000000000000 ) ) ;
#118 = CIRCLE ( 'NONE', #153, 0.07022970000000000601 ) ;
#119 = CARTESIAN_POINT ( 'NONE',  ( -0.09375000000000001388, 0.0000000000000000000, 2.000000000000000000 ) ) ;
#120 = DIRECTION ( 'NONE',  ( -1.224646799147353207E-16, -0.0000000000000000000, -1.000000000000000000 ) ) ;
#121 = DIRECTION ( 'NONE',  ( 0.0000000000000000000, 0.0000000000000000000, -1.000000000000000000 ) ) ;
#122 = CIRCLE ( 'NONE', #187, 0.09375000000000001388 ) ;
#123 = VECTOR ( 'NONE', #210, 39.37007874015747433 ) ;
#124 = EDGE_CURVE ( 'NONE', #265, #292, #90, .T. ) ;
#125 = LINE ( 'NONE', #256, #133 ) ;
#126 = DIRECTION ( 'NONE',  ( 0.0000000000000000000, 0.0000000000000000000, 1.000000000000000000 ) ) ;
#127 = PRODUCT ( 'Micro_GEM-140-4', 'Micro_GEM-140-4', '', ( #109 ) ) ;
#128 = AXIS2_PLACEMENT_3D ( 'NONE', #144, #92, #24 ) ;
#129 = SURFACE_SIDE_STYLE ('',( #134 ) ) ;
#130 = ORIENTED_EDGE ( 'NONE', *, *, #31, .F. ) ;
#131 = EDGE_LOOP ( 'NONE', ( #10, #113, #59, #297 ) ) ;
#132 = VERTEX_POINT ( 'NONE', #143 ) ;
#133 = VECTOR ( 'NONE', #193, 39.37007874015748143 ) ;
#134 = SURFACE_STYLE_FILL_AREA ( #85 ) ;
#135 = VERTEX_POINT ( 'NONE', #186 ) ;
#136 =( NAMED_UNIT ( * ) SI_UNIT ( $, .STERADIAN. ) SOLID_ANGLE_UNIT ( ) );
#137 = ORIENTED_EDGE ( 'NONE', *, *, #46, .F. ) ;
#138 = DIRECTION ( 'NONE',  ( -1.000000000000000000, 0.0000000000000000000, 0.0000000000000000000 ) ) ;
#139 = COLOUR_RGB ( '',0.7921568627450980005, 0.8196078431372548767, 0.9333333333333333481 ) ;
#140 = DIRECTION ( 'NONE',  ( -0.0000000000000000000, -0.0000000000000000000, -1.000000000000000000 ) ) ;
#141 = DIRECTION ( 'NONE',  ( 1.000000000000000000, 0.0000000000000000000, 0.0000000000000000000 ) ) ;
#142 = APPLICATION_CONTEXT ( 'automotive_design' ) ;
#143 = CARTESIAN_POINT ( 'NONE',  ( 0.07022970000000007540, 0.0000000000000000000, 0.5000000000000000000 ) ) ;
#144 = CARTESIAN_POINT ( 'NONE',  ( 6.123233995736766036E-17, 0.0000000000000000000, 0.5000000000000000000 ) ) ;
#145 = SURFACE_STYLE_FILL_AREA ( #195 ) ;
#146 = FACE_OUTER_BOUND ( 'NONE', #269, .T. ) ;
#147 = ADVANCED_BREP_SHAPE_REPRESENTATION ( 'Micro_GEM-140-4', ( #150, #34 ), #108 ) ;
#148 = CIRCLE ( 'NONE', #261, 0.07874999999999980627 ) ;
#149 = DIRECTION ( 'NONE',  ( 1.000000000000000000, 0.0000000000000000000, -0.0000000000000000000 ) ) ;
#150 = MANIFOLD_SOLID_BREP ( 'Cut-Revolve1', #244 ) ;
#151 = FACE_OUTER_BOUND ( 'NONE', #62, .T. ) ;
#152 = CARTESIAN_POINT ( 'NONE',  ( -0.09374999999999991673, 0.0000000000000000000, 0.6333902497819535737 ) ) ;
#153 = AXIS2_PLACEMENT_3D ( 'NONE', #252, #295, #138 ) ;
#154 = CARTESIAN_POINT ( 'NONE',  ( 0.0000000000000000000, 0.0000000000000000000, 0.0000000000000000000 ) ) ;
#155 = ORIENTED_EDGE ( 'NONE', *, *, #199, .T. ) ;
#156 =( LENGTH_UNIT ( ) NAMED_UNIT ( * ) SI_UNIT ( $, .METRE. ) );
#157 = ORIENTED_EDGE ( 'NONE', *, *, #286, .T. ) ;
#158 =( NAMED_UNIT ( * ) SI_UNIT ( $, .STERADIAN. ) SOLID_ANGLE_UNIT ( ) );
#159 = ORIENTED_EDGE ( 'NONE', *, *, #56, .T. ) ;
#160 = MECHANICAL_DESIGN_GEOMETRIC_PRESENTATION_REPRESENTATION (  '', ( #107 ), #207 ) ;
#161 = MECHANICAL_DESIGN_GEOMETRIC_PRESENTATION_REPRESENTATION (  '', ( #2 ), #202 ) ;
#162 =( CONVERSION_BASED_UNIT ( 'INCH', #180 ) LENGTH_UNIT ( ) NAMED_UNIT ( #23 ) );
#163 = EDGE_CURVE ( 'NONE', #294, #265, #45, .T. ) ;
#164 = FACE_OUTER_BOUND ( 'NONE', #86, .T. ) ;
#165 = AXIS2_PLACEMENT_3D ( 'NONE', #248, #42, #251 ) ;
#166 = CARTESIAN_POINT ( 'NONE',  ( 0.0000000000000000000, 0.0000000000000000000, 0.0000000000000000000 ) ) ;
#167 = CARTESIAN_POINT ( 'NONE',  ( 1.053276796084074714E-33, 0.0000000000000000000, 8.600657731007888113E-18 ) ) ;
#168 = DIRECTION ( 'NONE',  ( -1.224646799147353207E-16, -0.0000000000000000000, -1.000000000000000000 ) ) ;
#169 = AXIS2_PLACEMENT_3D ( 'NONE', #167, #89, #72 ) ;
#170 = CARTESIAN_POINT ( 'NONE',  ( 1.053276796084074714E-33, 0.0000000000000000000, 8.600657731007888113E-18 ) ) ;
#171 = DIRECTION ( 'NONE',  ( 1.000000000000000000, 0.0000000000000000000, 0.0000000000000000000 ) ) ;
#172 = UNCERTAINTY_MEASURE_WITH_UNIT (LENGTH_MEASURE( 1.000000000000000082E-05 ), #162, 'distance_accuracy_value', 'NONE');
#173 = AXIS2_PLACEMENT_3D ( 'NONE', #97, #126, #194 ) ;
#174 =( NAMED_UNIT ( * ) PLANE_ANGLE_UNIT ( ) SI_UNIT ( $, .RADIAN. ) );
#175 = DIRECTION ( 'NONE',  ( -0.7071067811865463515, 0.0000000000000000000, -0.7071067811865486830 ) ) ;
#176 = PRODUCT_DEFINITION ( 'UNKNOWN', '', #50, #54 ) ;
#177 = CARTESIAN_POINT ( 'NONE',  ( -0.07022969999999995050, 1.004086073650716183E-17, 0.5000000000000000000 ) ) ;
#178 = CARTESIAN_POINT ( 'NONE',  ( -0.07874999999999980627, 0.0000000000000000000, 2.000000000000000000 ) ) ;
#179 = ORIENTED_EDGE ( 'NONE', *, *, #77, .F. ) ;
#180 = LENGTH_MEASURE_WITH_UNIT ( LENGTH_MEASURE( 0.02539999999999999897 ), #156 );
#181 = ORIENTED_EDGE ( 'NONE', *, *, #12, .F. ) ;
#182 = DIRECTION ( 'NONE',  ( 0.7071067811865463515, 8.659560562354916834E-17, -0.7071067811865486830 ) ) ;
#183 = ORIENTED_EDGE ( 'NONE', *, *, #87, .T. ) ;
#184 = AXIS2_PLACEMENT_3D ( 'NONE', #223, #225, #20 ) ;
#185 = LINE ( 'NONE', #115, #196 ) ;
#186 = CARTESIAN_POINT ( 'NONE',  ( 0.07874999999999980627, 1.056257864264590573E-17, 2.000000000000000000 ) ) ;
#187 = AXIS2_PLACEMENT_3D ( 'NONE', #213, #168, #93 ) ;
#188 = PRESENTATION_LAYER_ASSIGNMENT (  '', '', ( #107 ) ) ;
#189 = DIRECTION ( 'NONE',  ( -1.224646799147353207E-16, -0.0000000000000000000, -1.000000000000000000 ) ) ;
#190 = CARTESIAN_POINT ( 'NONE',  ( 0.0000000000000000000, 0.0000000000000000000, 2.000000000000000000 ) ) ;
#191 = FACE_OUTER_BOUND ( 'NONE', #80, .T. ) ;
#192 = CONICAL_SURFACE ( 'NONE', #73, 0.07874999999999980627, 0.7853981633974466137 ) ;
#193 = DIRECTION ( 'NONE',  ( -1.224646799147353207E-16, -0.0000000000000000000, -1.000000000000000000 ) ) ;
#194 = DIRECTION ( 'NONE',  ( 1.000000000000000000, 0.0000000000000000000, -0.0000000000000000000 ) ) ;
#195 = FILL_AREA_STYLE ('',( #21 ) ) ;
#196 = VECTOR ( 'NONE', #278, 39.37007874015748143 ) ;
#197 = DIRECTION ( 'NONE',  ( -0.0000000000000000000, -0.0000000000000000000, -1.000000000000000000 ) ) ;
#198 =( NAMED_UNIT ( * ) PLANE_ANGLE_UNIT ( ) SI_UNIT ( $, .RADIAN. ) );
#199 = EDGE_CURVE ( 'NONE', #270, #17, #229, .T. ) ;
#200 = SURFACE_STYLE_USAGE ( .BOTH. , #129 ) ;
#201 = VECTOR ( 'NONE', #182, 39.37007874015748143 ) ;
#202 =( GEOMETRIC_REPRESENTATION_CONTEXT ( 3 ) GLOBAL_UNCERTAINTY_ASSIGNED_CONTEXT ( ( #172 ) ) GLOBAL_UNIT_ASSIGNED_CONTEXT ( ( #162, #198, #158 ) ) REPRESENTATION_CONTEXT ( 'NONE', 'WORKASPACE' ) );
#203 = ORIENTED_EDGE ( 'NONE', *, *, #255, .F. ) ;
#204 = ORIENTED_EDGE ( 'NONE', *, *, #68, .F. ) ;
#205 = ORIENTED_EDGE ( 'NONE', *, *, #199, .F. ) ;
#206 = EDGE_CURVE ( 'NONE', #221, #110, #236, .T. ) ;
#207 =( GEOMETRIC_REPRESENTATION_CONTEXT ( 3 ) GLOBAL_UNCERTAINTY_ASSIGNED_CONTEXT ( ( #98 ) ) GLOBAL_UNIT_ASSIGNED_CONTEXT ( ( #55, #174, #76 ) ) REPRESENTATION_CONTEXT ( 'NONE', 'WORKASPACE' ) );
#208 = CARTESIAN_POINT ( 'NONE',  ( 0.07022970000000000601, 8.600657731007888113E-18, -8.600657731007888113E-18 ) ) ;
#209 = CARTESIAN_POINT ( 'NONE',  ( 7.756793420066120836E-17, 0.0000000000000000000, 0.6333902497819535737 ) ) ;
#210 = DIRECTION ( 'NONE',  ( -0.1736481776669311916, 2.126576849575783316E-17, 0.9848077530122080203 ) ) ;
#211 = CONICAL_SURFACE ( 'NONE', #184, 0.07022970000000000601, 0.1745329251994338915 ) ;
#212 = DIMENSIONAL_EXPONENTS ( 1.000000000000000000, 0.0000000000000000000, 0.0000000000000000000, 0.0000000000000000000, 0.0000000000000000000, 0.0000000000000000000, 0.0000000000000000000 ) ;
#213 = CARTESIAN_POINT ( 'NONE',  ( 7.756793420066120836E-17, 0.0000000000000000000, 0.6333902497819535737 ) ) ;
#214 = DIRECTION ( 'NONE',  ( -1.000000000000000000, 0.0000000000000000000, 1.224646799147353207E-16 ) ) ;
#215 = ADVANCED_FACE ( 'NONE', ( #7 ), #192, .T. ) ;
#216 = DIRECTION ( 'NONE',  ( -0.0000000000000000000, -0.0000000000000000000, -1.000000000000000000 ) ) ;
#217 = DIRECTION ( 'NONE',  ( -1.224646799147353207E-16, -0.0000000000000000000, -1.000000000000000000 ) ) ;
#218 = FACE_OUTER_BOUND ( 'NONE', #246, .T. ) ;
#219 = ORIENTED_EDGE ( 'NONE', *, *, #255, .T. ) ;
#220 = ORIENTED_EDGE ( 'NONE', *, *, #258, .T. ) ;
#221 = VERTEX_POINT ( 'NONE', #235 ) ;
#222 = ORIENTED_EDGE ( 'NONE', *, *, #8, .T. ) ;
#223 = CARTESIAN_POINT ( 'NONE',  ( 6.123233995736766036E-17, 0.0000000000000000000, 0.5000000000000000000 ) ) ;
#224 = AXIS2_PLACEMENT_3D ( 'NONE', #52, #121, #95 ) ;
#225 = DIRECTION ( 'NONE',  ( 1.224646799147353207E-16, 0.0000000000000000000, 1.000000000000000000 ) ) ;
#226 = ADVANCED_FACE ( 'NONE', ( #218 ), #103, .T. ) ;
#227 = DIRECTION ( 'NONE',  ( -0.0000000000000000000, -0.0000000000000000000, -1.000000000000000000 ) ) ;
#228 = DIRECTION ( 'NONE',  ( 1.000000000000000000, 0.0000000000000000000, 0.0000000000000000000 ) ) ;
#229 = CIRCLE ( 'NONE', #102, 0.07022970000000000601 ) ;
#230 = CARTESIAN_POINT ( 'NONE',  ( 0.0000000000000000000, 0.0000000000000000000, 2.000000000000000000 ) ) ;
#231 = EDGE_CURVE ( 'NONE', #132, #288, #18, .T. ) ;
#232 = PRESENTATION_STYLE_ASSIGNMENT (( #285 ) ) ;
#233 = PLANE ( 'NONE',  #81 ) ;
#234 = AXIS2_PLACEMENT_3D ( 'NONE', #284, #197, #53 ) ;
#235 = CARTESIAN_POINT ( 'NONE',  ( 0.09375000000000001388, 1.148106374200643863E-17, 1.984999999999999654 ) ) ;
#236 = LINE ( 'NONE', #4, #289 ) ;
#237 = DIRECTION ( 'NONE',  ( -1.000000000000000000, 0.0000000000000000000, 1.224646799147353207E-16 ) ) ;
#238 =( CONVERSION_BASED_UNIT ( 'INCH', #58 ) LENGTH_UNIT ( ) NAMED_UNIT ( #275 ) );
#239 = APPLICATION_CONTEXT ( 'automotive_design' ) ;
#240 = DIRECTION ( 'NONE',  ( 0.0000000000000000000, 0.0000000000000000000, 1.000000000000000000 ) ) ;
#241 = ORIENTED_EDGE ( 'NONE', *, *, #206, .F. ) ;
#242 = FACE_OUTER_BOUND ( 'NONE', #67, .T. ) ;
#243 = ORIENTED_EDGE ( 'NONE', *, *, #258, .F. ) ;
#244 = CLOSED_SHELL ( 'NONE', ( #291, #104, #249, #66, #226, #277, #215, #41, #16, #260 ) ) ;
#245 = AXIS2_PLACEMENT_3D ( 'NONE', #166, #120, #214 ) ;
#246 = EDGE_LOOP ( 'NONE', ( #241, #83, #105, #40 ) ) ;
#247 = EDGE_LOOP ( 'NONE', ( #243, #157, #137, #48 ) ) ;
#248 = CARTESIAN_POINT ( 'NONE',  ( 0.0000000000000000000, 0.0000000000000000000, 1.984999999999999654 ) ) ;
#249 = ADVANCED_FACE ( 'NONE', ( #280 ), #273, .T. ) ;
#250 = FACE_OUTER_BOUND ( 'NONE', #131, .T. ) ;
#251 = DIRECTION ( 'NONE',  ( 1.000000000000000000, 0.0000000000000000000, 0.0000000000000000000 ) ) ;
#252 = CARTESIAN_POINT ( 'NONE',  ( 6.123233995736766036E-17, 0.0000000000000000000, 0.5000000000000000000 ) ) ;
#253 = DIRECTION ( 'NONE',  ( -1.224646799147353207E-16, -0.0000000000000000000, -1.000000000000000000 ) ) ;
#254 = CONICAL_SURFACE ( 'NONE', #128, 0.07022970000000000601, 0.1745329251994338915 ) ;
#255 = EDGE_CURVE ( 'NONE', #288, #17, #125, .T. ) ;
#256 = CARTESIAN_POINT ( 'NONE',  ( -0.07022970000000000601, 0.0000000000000000000, 8.600657731007888113E-18 ) ) ;
#257 = CARTESIAN_POINT ( 'NONE',  ( 0.0000000000000000000, 0.0000000000000000000, 2.000000000000000000 ) ) ;
#258 = EDGE_CURVE ( 'NONE', #135, #294, #148, .T. ) ;
#259 = CARTESIAN_POINT ( 'NONE',  ( 0.0000000000000000000, 0.0000000000000000000, 0.0000000000000000000 ) ) ;
#260 = ADVANCED_FACE ( 'NONE', ( #146 ), #233, .F. ) ;
#261 = AXIS2_PLACEMENT_3D ( 'NONE', #74, #101, #171 ) ;
#262 = PRESENTATION_STYLE_ASSIGNMENT (( #200 ) ) ;
#263 = EDGE_LOOP ( 'NONE', ( #35, #159, #222, #181 ) ) ;
#264 = ORIENTED_EDGE ( 'NONE', *, *, #68, .T. ) ;
#265 = VERTEX_POINT ( 'NONE', #100 ) ;
#266 = CYLINDRICAL_SURFACE ( 'NONE', #91, 0.07022970000000000601 ) ;
#267 = CIRCLE ( 'NONE', #279, 0.09375000000000001388 ) ;
#268 = ORIENTED_EDGE ( 'NONE', *, *, #46, .T. ) ;
#269 = EDGE_LOOP ( 'NONE', ( #264, #155 ) ) ;
#270 = VERTEX_POINT ( 'NONE', #5 ) ;
#271 = CYLINDRICAL_SURFACE ( 'NONE', #293, 0.09375000000000001388 ) ;
#272 = AXIS2_PLACEMENT_3D ( 'NONE', #230, #274, #228 ) ;
#273 = CONICAL_SURFACE ( 'NONE', #224, 0.07874999999999980627, 0.7853981633974466137 ) ;
#274 = DIRECTION ( 'NONE',  ( 0.0000000000000000000, 0.0000000000000000000, 1.000000000000000000 ) ) ;
#275 = DIMENSIONAL_EXPONENTS ( 1.000000000000000000, 0.0000000000000000000, 0.0000000000000000000, 0.0000000000000000000, 0.0000000000000000000, 0.0000000000000000000, 0.0000000000000000000 ) ;
#276 = ORIENTED_EDGE ( 'NONE', *, *, #25, .F. ) ;
#277 = ADVANCED_FACE ( 'NONE', ( #151 ), #78, .T. ) ;
#278 = DIRECTION ( 'NONE',  ( 0.1736481776669313859, 0.0000000000000000000, 0.9848077530122077983 ) ) ;
#279 = AXIS2_PLACEMENT_3D ( 'NONE', #298, #43, #141 ) ;
#280 = FACE_OUTER_BOUND ( 'NONE', #247, .T. ) ;
#281 = LENGTH_MEASURE_WITH_UNIT ( LENGTH_MEASURE( 0.02539999999999999897 ), #75 );
#282 = UNCERTAINTY_MEASURE_WITH_UNIT (LENGTH_MEASURE( 1.000000000000000082E-05 ), #238, 'distance_accuracy_value', 'NONE');
#283 = DIRECTION ( 'NONE',  ( -1.000000000000000000, 0.0000000000000000000, 0.0000000000000000000 ) ) ;
#284 = CARTESIAN_POINT ( 'NONE',  ( 0.0000000000000000000, 0.0000000000000000000, 2.000000000000000000 ) ) ;
#285 = SURFACE_STYLE_USAGE ( .BOTH. , #57 ) ;
#286 = EDGE_CURVE ( 'NONE', #135, #221, #287, .T. ) ;
#287 = LINE ( 'NONE', #9, #201 ) ;
#288 = VERTEX_POINT ( 'NONE', #177 ) ;
#289 = VECTOR ( 'NONE', #216, 39.37007874015748143 ) ;
#290 = APPLICATION_PROTOCOL_DEFINITION ( 'draft international standard', 'automotive_design', 1998, #239 ) ;
#291 = ADVANCED_FACE ( 'NONE', ( #242 ), #266, .T. ) ;
#292 = VERTEX_POINT ( 'NONE', #152 ) ;
#293 = AXIS2_PLACEMENT_3D ( 'NONE', #190, #140, #70 ) ;
#294 = VERTEX_POINT ( 'NONE', #178 ) ;
#295 = DIRECTION ( 'NONE',  ( -1.224646799147353207E-16, -0.0000000000000000000, -1.000000000000000000 ) ) ;
#296 = CYLINDRICAL_SURFACE ( 'NONE', #245, 0.07022970000000000601 ) ;
#297 = ORIENTED_EDGE ( 'NONE', *, *, #51, .T. ) ;
#298 = CARTESIAN_POINT ( 'NONE',  ( 0.0000000000000000000, 0.0000000000000000000, 1.984999999999999654 ) ) ;
#299 = DIRECTION ( 'NONE',  ( 0.0000000000000000000, 0.0000000000000000000, -1.000000000000000000 ) ) ;
ENDSEC;
END-ISO-10303-21;
