ISO-10303-21;
HEADER;
FILE_DESCRIPTION (( 'STEP AP214' ),
    '1' );
FILE_NAME ('Micro_AMRM-003-2X.STEP',
    '2021-09-01T17:09:24',
    ( '' ),
    ( '' ),
    'SwSTEP 2.0',
    'SolidWorks 2020',
    '' );
FILE_SCHEMA (( 'AUTOMOTIVE_DESIGN' ));
ENDSEC;

DATA;
#1 = CARTESIAN_POINT ( 'NONE',  ( 0.0000000000000000000, 0.0000000000000000000, 1.968503999999999809 ) ) ;
#2 = CIRCLE ( 'NONE', #45, 0.005899594499999999062 ) ;
#3 = FACE_OUTER_BOUND ( 'NONE', #298, .T. ) ;
#4 = DIRECTION ( 'NONE',  ( 0.0000000000000000000, 0.0000000000000000000, 1.000000000000000000 ) ) ;
#5 = CARTESIAN_POINT ( 'NONE',  ( 0.06374000000000018540, 8.724383797125754882E-18, 1.968503999999999809 ) ) ;
#6 = FACE_OUTER_BOUND ( 'NONE', #272, .T. ) ;
#7 = DIRECTION ( 'NONE',  ( 1.000000000000000000, 0.0000000000000000000, 0.0000000000000000000 ) ) ;
#8 = DIRECTION ( 'NONE',  ( -1.000000000000000000, 0.0000000000000000000, 0.0000000000000000000 ) ) ;
#9 = CARTESIAN_POINT ( 'NONE',  ( 0.0000000000000000000, 0.0000000000000000000, 1.968503999999999809 ) ) ;
#10 = DIRECTION ( 'NONE',  ( 1.224646799147353207E-16, 0.0000000000000000000, 1.000000000000000000 ) ) ;
#11 = CIRCLE ( 'NONE', #32, 0.07874000000000001831 ) ;
#12 = AXIS2_PLACEMENT_3D ( 'NONE', #255, #123, #7 ) ;
#13 =( NAMED_UNIT ( * ) PLANE_ANGLE_UNIT ( ) SI_UNIT ( $, .RADIAN. ) );
#14 = EDGE_CURVE ( 'NONE', #167, #42, #39, .T. ) ;
#15 = EDGE_LOOP ( 'NONE', ( #37, #71, #36, #62 ) ) ;
#16 = CONICAL_SURFACE ( 'NONE', #88, 0.06374000000000018540, 0.7853981633974528309 ) ;
#17 = STYLED_ITEM ( 'NONE', ( #201 ), #287 ) ;
#18 = ORIENTED_EDGE ( 'NONE', *, *, #54, .T. ) ;
#19 = DIRECTION ( 'NONE',  ( -1.224646799147353207E-16, -0.0000000000000000000, -1.000000000000000000 ) ) ;
#20 = LINE ( 'NONE', #257, #285 ) ;
#21 = DIRECTION ( 'NONE',  ( -1.000000000000000000, 0.0000000000000000000, 1.224646799147352961E-16 ) ) ;
#22 = DIRECTION ( 'NONE',  ( -1.000000000000000000, 0.0000000000000000000, 0.0000000000000000000 ) ) ;
#23 = CIRCLE ( 'NONE', #105, 0.07874000000000001831 ) ;
#24 = DIRECTION ( 'NONE',  ( 1.000000000000000000, 0.0000000000000000000, -0.0000000000000000000 ) ) ;
#25 = CARTESIAN_POINT ( 'NONE',  ( 0.0000000000000000000, 0.0000000000000000000, 0.0000000000000000000 ) ) ;
#26 = DIRECTION ( 'NONE',  ( 1.000000000000000000, 0.0000000000000000000, 0.0000000000000000000 ) ) ;
#27 = AXIS2_PLACEMENT_3D ( 'NONE', #25, #173, #24 ) ;
#28 = CARTESIAN_POINT ( 'NONE',  ( -0.07874000000000001831, 0.0000000000000000000, 1.968503999999999809 ) ) ;
#29 = CARTESIAN_POINT ( 'NONE',  ( 4.339291003418816329E-18, 0.0000000000000000000, 0.03543299999999999922 ) ) ;
#30 = CARTESIAN_POINT ( 'NONE',  ( 5.492926259242781545E-17, 0.0000000000000000000, 0.4485314674457297479 ) ) ;
#31 = CARTESIAN_POINT ( 'NONE',  ( -0.005899594499999994725, 7.224919520692329496E-19, 0.03543299999999999922 ) ) ;
#32 = AXIS2_PLACEMENT_3D ( 'NONE', #30, #126, #26 ) ;
#33 = AXIS2_PLACEMENT_3D ( 'NONE', #239, #19, #278 ) ;
#34 = LINE ( 'NONE', #133, #96 ) ;
#35 = PRODUCT ( 'Micro_AMRM-003-2X', 'Micro_AMRM-003-2X', '', ( #163 ) ) ;
#36 = ORIENTED_EDGE ( 'NONE', *, *, #112, .F. ) ;
#37 = ORIENTED_EDGE ( 'NONE', *, *, #137, .T. ) ;
#38 = ORIENTED_EDGE ( 'NONE', *, *, #192, .T. ) ;
#39 = LINE ( 'NONE', #90, #240 ) ;
#40 = EDGE_CURVE ( 'NONE', #253, #186, #185, .T. ) ;
#41 = CIRCLE ( 'NONE', #156, 0.005899594499999997327 ) ;
#42 = VERTEX_POINT ( 'NONE', #182 ) ;
#43 = EDGE_LOOP ( 'NONE', ( #275, #161, #65, #111 ) ) ;
#44 = FILL_AREA_STYLE ('',( #260 ) ) ;
#45 = AXIS2_PLACEMENT_3D ( 'NONE', #193, #176, #152 ) ;
#46 = ORIENTED_EDGE ( 'NONE', *, *, #292, .F. ) ;
#47 = DIRECTION ( 'NONE',  ( -0.0000000000000000000, -0.0000000000000000000, -1.000000000000000000 ) ) ;
#48 = CYLINDRICAL_SURFACE ( 'NONE', #144, 0.005899594499999998194 ) ;
#49 = PLANE ( 'NONE',  #208 ) ;
#50 = PLANE ( 'NONE',  #27 ) ;
#51 = CLOSED_SHELL ( 'NONE', ( #226, #57, #273, #259, #231, #178, #116, #107, #248, #242 ) ) ;
#52 = MECHANICAL_DESIGN_GEOMETRIC_PRESENTATION_REPRESENTATION (  '', ( #17 ), #232 ) ;
#53 = CARTESIAN_POINT ( 'NONE',  ( 0.005899594499999998194, 7.224919520692327570E-19, -7.224919520692327570E-19 ) ) ;
#54 = EDGE_CURVE ( 'NONE', #296, #214, #58, .T. ) ;
#55 =( CONVERSION_BASED_UNIT ( 'INCH', #81 ) LENGTH_UNIT ( ) NAMED_UNIT ( #207 ) );
#56 = CIRCLE ( 'NONE', #247, 0.005899594499999999062 ) ;
#57 = ADVANCED_FACE ( 'NONE', ( #104 ), #155, .T. ) ;
#58 = LINE ( 'NONE', #31, #284 ) ;
#59 =( CONVERSION_BASED_UNIT ( 'INCH', #77 ) LENGTH_UNIT ( ) NAMED_UNIT ( #184 ) );
#60 = UNCERTAINTY_MEASURE_WITH_UNIT (LENGTH_MEASURE( 1.000000000000000082E-05 ), #59, 'distance_accuracy_value', 'NONE');
#61 = ORIENTED_EDGE ( 'NONE', *, *, #158, .T. ) ;
#62 = ORIENTED_EDGE ( 'NONE', *, *, #99, .F. ) ;
#63 = AXIS2_PLACEMENT_3D ( 'NONE', #1, #169, #22 ) ;
#64 = ORIENTED_EDGE ( 'NONE', *, *, #146, .F. ) ;
#65 = ORIENTED_EDGE ( 'NONE', *, *, #211, .T. ) ;
#66 = CYLINDRICAL_SURFACE ( 'NONE', #63, 0.07874000000000001831 ) ;
#67 = ORIENTED_EDGE ( 'NONE', *, *, #223, .T. ) ;
#68 = EDGE_LOOP ( 'NONE', ( #205, #132 ) ) ;
#69 = DIRECTION ( 'NONE',  ( 1.000000000000000000, 0.0000000000000000000, 0.0000000000000000000 ) ) ;
#70 = STYLED_ITEM ( 'NONE', ( #265 ), #264 ) ;
#71 = ORIENTED_EDGE ( 'NONE', *, *, #146, .T. ) ;
#72 = DIRECTION ( 'NONE',  ( 1.000000000000000000, 0.0000000000000000000, 0.0000000000000000000 ) ) ;
#73 = CARTESIAN_POINT ( 'NONE',  ( 5.492926259242781545E-17, 0.0000000000000000000, 0.4485314674457297479 ) ) ;
#74 = FACE_OUTER_BOUND ( 'NONE', #280, .T. ) ;
#75 = DIRECTION ( 'NONE',  ( -1.000000000000000000, 0.0000000000000000000, 1.224646799147353207E-16 ) ) ;
#76 = CIRCLE ( 'NONE', #12, 0.07874000000000001831 ) ;
#77 = LENGTH_MEASURE_WITH_UNIT ( LENGTH_MEASURE( 0.02539999999999999897 ), #129 );
#78 = CARTESIAN_POINT ( 'NONE',  ( 0.0000000000000000000, 0.0000000000000000000, 1.968503999999999809 ) ) ;
#79 = DIRECTION ( 'NONE',  ( 1.000000000000000000, 0.0000000000000000000, 0.0000000000000000000 ) ) ;
#80 = DIRECTION ( 'NONE',  ( 1.000000000000000000, 0.0000000000000000000, 0.0000000000000000000 ) ) ;
#81 = LENGTH_MEASURE_WITH_UNIT ( LENGTH_MEASURE( 0.02539999999999999897 ), #286 );
#82 = PRODUCT_RELATED_PRODUCT_CATEGORY ( 'part', '', ( #35 ) ) ;
#83 = DIRECTION ( 'NONE',  ( -1.000000000000000000, 0.0000000000000000000, 0.0000000000000000000 ) ) ;
#84 = SURFACE_SIDE_STYLE ('',( #131 ) ) ;
#85 = DIRECTION ( 'NONE',  ( 0.7071067811865507924, 8.659560562354973534E-17, -0.7071067811865443531 ) ) ;
#86 = FILL_AREA_STYLE ('',( #203 ) ) ;
#87 = EDGE_CURVE ( 'NONE', #167, #253, #108, .T. ) ;
#88 = AXIS2_PLACEMENT_3D ( 'NONE', #78, #245, #83 ) ;
#89 =( NAMED_UNIT ( * ) SI_UNIT ( $, .STERADIAN. ) SOLID_ANGLE_UNIT ( ) );
#90 = CARTESIAN_POINT ( 'NONE',  ( -0.06374000000000018540, 0.0000000000000000000, 1.968503999999999809 ) ) ;
#91 = ORIENTED_EDGE ( 'NONE', *, *, #87, .T. ) ;
#92 = CONICAL_SURFACE ( 'NONE', #262, 0.005899594499999999062, 0.1745329251994338637 ) ;
#93 = LINE ( 'NONE', #218, #109 ) ;
#94 = VERTEX_POINT ( 'NONE', #234 ) ;
#95 = CARTESIAN_POINT ( 'NONE',  ( 0.005899594499999997327, 7.224919520692327570E-19, 0.0000000000000000000 ) ) ;
#96 = VECTOR ( 'NONE', #283, 39.37007874015748143 ) ;
#97 = CARTESIAN_POINT ( 'NONE',  ( 8.847974565113086337E-35, 0.0000000000000000000, 7.224919520692325644E-19 ) ) ;
#98 = DIRECTION ( 'NONE',  ( -1.000000000000000000, 0.0000000000000000000, 0.0000000000000000000 ) ) ;
#99 = EDGE_CURVE ( 'NONE', #42, #214, #171, .T. ) ;
#100 = FACE_OUTER_BOUND ( 'NONE', #15, .T. ) ;
#101 = PRODUCT_DEFINITION_FORMATION_WITH_SPECIFIED_SOURCE ( 'ANY', '', #35, .NOT_KNOWN. ) ;
#102 = DIRECTION ( 'NONE',  ( 0.0000000000000000000, 0.0000000000000000000, -1.000000000000000000 ) ) ;
#103 = CARTESIAN_POINT ( 'NONE',  ( -0.005899594499999994725, 5.182680424277747511E-18, 0.03543299999999999922 ) ) ;
#104 = FACE_OUTER_BOUND ( 'NONE', #142, .T. ) ;
#105 = AXIS2_PLACEMENT_3D ( 'NONE', #157, #243, #72 ) ;
#106 = ORIENTED_EDGE ( 'NONE', *, *, #14, .T. ) ;
#107 = ADVANCED_FACE ( 'NONE', ( #213 ), #92, .T. ) ;
#108 = CIRCLE ( 'NONE', #118, 0.06374000000000018540 ) ;
#109 = VECTOR ( 'NONE', #258, 39.37007874015748143 ) ;
#110 = DIRECTION ( 'NONE',  ( -0.7071067811865507924, 0.0000000000000000000, -0.7071067811865443531 ) ) ;
#111 = ORIENTED_EDGE ( 'NONE', *, *, #162, .F. ) ;
#112 = EDGE_CURVE ( 'NONE', #214, #166, #11, .T. ) ;
#113 = VERTEX_POINT ( 'NONE', #221 ) ;
#114 = ORIENTED_EDGE ( 'NONE', *, *, #40, .T. ) ;
#115 = SURFACE_STYLE_USAGE ( .BOTH. , #233 ) ;
#116 = ADVANCED_FACE ( 'NONE', ( #6 ), #16, .T. ) ;
#117 = CARTESIAN_POINT ( 'NONE',  ( -0.07873999999999996280, 0.0000000000000000000, 0.4485314674457297479 ) ) ;
#118 = AXIS2_PLACEMENT_3D ( 'NONE', #180, #199, #79 ) ;
#119 = DIRECTION ( 'NONE',  ( -1.224646799147353207E-16, -0.0000000000000000000, -1.000000000000000000 ) ) ;
#120 = CIRCLE ( 'NONE', #138, 0.06374000000000018540 ) ;
#121 = CARTESIAN_POINT ( 'NONE',  ( -0.06374000000000018540, 0.0000000000000000000, 1.968503999999999809 ) ) ;
#122 = CARTESIAN_POINT ( 'NONE',  ( 0.0000000000000000000, 0.0000000000000000000, 0.0000000000000000000 ) ) ;
#123 = DIRECTION ( 'NONE',  ( 0.0000000000000000000, 0.0000000000000000000, -1.000000000000000000 ) ) ;
#124 = DIRECTION ( 'NONE',  ( -0.0000000000000000000, -0.0000000000000000000, -1.000000000000000000 ) ) ;
#125 = LENGTH_MEASURE_WITH_UNIT ( LENGTH_MEASURE( 0.02539999999999999897 ), #181 );
#126 = DIRECTION ( 'NONE',  ( -1.224646799147353207E-16, -0.0000000000000000000, -1.000000000000000000 ) ) ;
#127 = DIRECTION ( 'NONE',  ( -0.1736481776669311639, 2.126576849575783008E-17, 0.9848077530122080203 ) ) ;
#128 = UNCERTAINTY_MEASURE_WITH_UNIT (LENGTH_MEASURE( 1.000000000000000082E-05 ), #55, 'distance_accuracy_value', 'NONE');
#129 =( LENGTH_UNIT ( ) NAMED_UNIT ( * ) SI_UNIT ( $, .METRE. ) );
#130 = AXIS2_PLACEMENT_3D ( 'NONE', #209, #249, #206 ) ;
#131 = SURFACE_STYLE_FILL_AREA ( #86 ) ;
#132 = ORIENTED_EDGE ( 'NONE', *, *, #162, .T. ) ;
#133 = CARTESIAN_POINT ( 'NONE',  ( 0.005899594500000003398, 0.0000000000000000000, 0.03543299999999999922 ) ) ;
#134 = EDGE_LOOP ( 'NONE', ( #229, #114, #254, #143 ) ) ;
#135 = ORIENTED_EDGE ( 'NONE', *, *, #266, .F. ) ;
#136 = ORIENTED_EDGE ( 'NONE', *, *, #168, .F. ) ;
#137 = EDGE_CURVE ( 'NONE', #42, #186, #23, .T. ) ;
#138 = AXIS2_PLACEMENT_3D ( 'NONE', #189, #216, #170 ) ;
#139 = ORIENTED_EDGE ( 'NONE', *, *, #266, .T. ) ;
#140 = ORIENTED_EDGE ( 'NONE', *, *, #174, .F. ) ;
#141 = EDGE_LOOP ( 'NONE', ( #295, #38, #136, #225 ) ) ;
#142 = EDGE_LOOP ( 'NONE', ( #46, #18, #190, #252 ) ) ;
#143 = ORIENTED_EDGE ( 'NONE', *, *, #14, .F. ) ;
#144 = AXIS2_PLACEMENT_3D ( 'NONE', #175, #147, #75 ) ;
#145 = SURFACE_STYLE_FILL_AREA ( #44 ) ;
#146 = EDGE_CURVE ( 'NONE', #186, #166, #20, .T. ) ;
#147 = DIRECTION ( 'NONE',  ( -1.224646799147353207E-16, -0.0000000000000000000, -1.000000000000000000 ) ) ;
#148 = APPLICATION_CONTEXT ( 'automotive_design' ) ;
#149 = CARTESIAN_POINT ( 'NONE',  ( 0.07874000000000001831, 9.642868896486260050E-18, 1.953504000000000129 ) ) ;
#150 = APPLICATION_CONTEXT ( 'automotive_design' ) ;
#151 = VECTOR ( 'NONE', #124, 39.37007874015748143 ) ;
#152 = DIRECTION ( 'NONE',  ( -1.000000000000000000, 0.0000000000000000000, 0.0000000000000000000 ) ) ;
#153 =( GEOMETRIC_REPRESENTATION_CONTEXT ( 3 ) GLOBAL_UNCERTAINTY_ASSIGNED_CONTEXT ( ( #293 ) ) GLOBAL_UNIT_ASSIGNED_CONTEXT ( ( #222, #13, #270 ) ) REPRESENTATION_CONTEXT ( 'NONE', 'WORKASPACE' ) );
#154 = FACE_OUTER_BOUND ( 'NONE', #141, .T. ) ;
#155 = CONICAL_SURFACE ( 'NONE', #227, 0.005899594499999999062, 0.1745329251994338637 ) ;
#156 = AXIS2_PLACEMENT_3D ( 'NONE', #97, #215, #21 ) ;
#157 = CARTESIAN_POINT ( 'NONE',  ( 0.0000000000000000000, 0.0000000000000000000, 1.953504000000000129 ) ) ;
#158 = EDGE_CURVE ( 'NONE', #113, #166, #34, .T. ) ;
#159 = FACE_OUTER_BOUND ( 'NONE', #134, .T. ) ;
#160 = APPLICATION_PROTOCOL_DEFINITION ( 'draft international standard', 'automotive_design', 1998, #148 ) ;
#161 = ORIENTED_EDGE ( 'NONE', *, *, #198, .T. ) ;
#162 = EDGE_CURVE ( 'NONE', #164, #94, #41, .T. ) ;
#163 = PRODUCT_CONTEXT ( 'NONE', #150, 'mechanical' ) ;
#164 = VERTEX_POINT ( 'NONE', #95 ) ;
#165 = DIMENSIONAL_EXPONENTS ( 1.000000000000000000, 0.0000000000000000000, 0.0000000000000000000, 0.0000000000000000000, 0.0000000000000000000, 0.0000000000000000000, 0.0000000000000000000 ) ;
#166 = VERTEX_POINT ( 'NONE', #281 ) ;
#167 = VERTEX_POINT ( 'NONE', #121 ) ;
#168 = EDGE_CURVE ( 'NONE', #94, #164, #267, .T. ) ;
#169 = DIRECTION ( 'NONE',  ( -0.0000000000000000000, -0.0000000000000000000, -1.000000000000000000 ) ) ;
#170 = DIRECTION ( 'NONE',  ( 1.000000000000000000, 0.0000000000000000000, 0.0000000000000000000 ) ) ;
#171 = LINE ( 'NONE', #28, #151 ) ;
#172 = PRODUCT_DEFINITION_SHAPE ( 'NONE', 'NONE',  #238 ) ;
#173 = DIRECTION ( 'NONE',  ( 0.0000000000000000000, 0.0000000000000000000, 1.000000000000000000 ) ) ;
#174 = EDGE_CURVE ( 'NONE', #166, #214, #177, .T. ) ;
#175 = CARTESIAN_POINT ( 'NONE',  ( 0.0000000000000000000, 0.0000000000000000000, 0.0000000000000000000 ) ) ;
#176 = DIRECTION ( 'NONE',  ( -1.224646799147353207E-16, -0.0000000000000000000, -1.000000000000000000 ) ) ;
#177 = CIRCLE ( 'NONE', #204, 0.07874000000000001831 ) ;
#178 = ADVANCED_FACE ( 'NONE', ( #3 ), #49, .T. ) ;
#179 = DIRECTION ( 'NONE',  ( -1.224646799147353207E-16, -0.0000000000000000000, -1.000000000000000000 ) ) ;
#180 = CARTESIAN_POINT ( 'NONE',  ( 0.0000000000000000000, 0.0000000000000000000, 1.968503999999999809 ) ) ;
#181 =( LENGTH_UNIT ( ) NAMED_UNIT ( * ) SI_UNIT ( $, .METRE. ) );
#182 = CARTESIAN_POINT ( 'NONE',  ( -0.07874000000000001831, 0.0000000000000000000, 1.953504000000000129 ) ) ;
#183 = PRODUCT_DEFINITION_CONTEXT ( 'detailed design', #148, 'design' ) ;
#184 = DIMENSIONAL_EXPONENTS ( 1.000000000000000000, 0.0000000000000000000, 0.0000000000000000000, 0.0000000000000000000, 0.0000000000000000000, 0.0000000000000000000, 0.0000000000000000000 ) ;
#185 = LINE ( 'NONE', #202, #196 ) ;
#186 = VERTEX_POINT ( 'NONE', #149 ) ;
#187 = COLOUR_RGB ( '',0.7921568627450980005, 0.8196078431372548767, 0.9333333333333333481 ) ;
#188 = ORIENTED_EDGE ( 'NONE', *, *, #99, .T. ) ;
#189 = CARTESIAN_POINT ( 'NONE',  ( 0.0000000000000000000, 0.0000000000000000000, 1.968503999999999809 ) ) ;
#190 = ORIENTED_EDGE ( 'NONE', *, *, #112, .T. ) ;
#191 = AXIS2_PLACEMENT_3D ( 'NONE', #9, #102, #241 ) ;
#192 = EDGE_CURVE ( 'NONE', #113, #164, #282, .T. ) ;
#193 = CARTESIAN_POINT ( 'NONE',  ( 4.339291003418816329E-18, 0.0000000000000000000, 0.03543299999999999922 ) ) ;
#194 = DIRECTION ( 'NONE',  ( -1.224646799147353207E-16, -0.0000000000000000000, -1.000000000000000000 ) ) ;
#195 = FACE_OUTER_BOUND ( 'NONE', #43, .T. ) ;
#196 = VECTOR ( 'NONE', #85, 39.37007874015748143 ) ;
#197 = DIRECTION ( 'NONE',  ( -1.224646799147353207E-16, -0.0000000000000000000, -1.000000000000000000 ) ) ;
#198 = EDGE_CURVE ( 'NONE', #113, #296, #2, .T. ) ;
#199 = DIRECTION ( 'NONE',  ( 0.0000000000000000000, 0.0000000000000000000, 1.000000000000000000 ) ) ;
#200 = CARTESIAN_POINT ( 'NONE',  ( 4.339291003418816329E-18, 0.0000000000000000000, 0.03543299999999999922 ) ) ;
#201 = PRESENTATION_STYLE_ASSIGNMENT (( #269 ) ) ;
#202 = CARTESIAN_POINT ( 'NONE',  ( 0.06374000000000018540, 7.805898697765251255E-18, 1.968503999999999809 ) ) ;
#203 = FILL_AREA_STYLE_COLOUR ( '', #187 ) ;
#204 = AXIS2_PLACEMENT_3D ( 'NONE', #73, #194, #69 ) ;
#205 = ORIENTED_EDGE ( 'NONE', *, *, #168, .T. ) ;
#206 = DIRECTION ( 'NONE',  ( 1.000000000000000000, 0.0000000000000000000, 0.0000000000000000000 ) ) ;
#207 = DIMENSIONAL_EXPONENTS ( 1.000000000000000000, 0.0000000000000000000, 0.0000000000000000000, 0.0000000000000000000, 0.0000000000000000000, 0.0000000000000000000, 0.0000000000000000000 ) ;
#208 = AXIS2_PLACEMENT_3D ( 'NONE', #299, #4, #219 ) ;
#209 = CARTESIAN_POINT ( 'NONE',  ( 0.0000000000000000000, 0.0000000000000000000, 0.0000000000000000000 ) ) ;
#210 = ORIENTED_EDGE ( 'NONE', *, *, #87, .F. ) ;
#211 = EDGE_CURVE ( 'NONE', #296, #94, #93, .T. ) ;
#212 = COLOUR_RGB ( '',0.7921568627450980005, 0.8196078431372548767, 0.9333333333333333481 ) ;
#213 = FACE_OUTER_BOUND ( 'NONE', #274, .T. ) ;
#214 = VERTEX_POINT ( 'NONE', #117 ) ;
#215 = DIRECTION ( 'NONE',  ( -1.224646799147353207E-16, -0.0000000000000000000, -1.000000000000000000 ) ) ;
#216 = DIRECTION ( 'NONE',  ( 0.0000000000000000000, 0.0000000000000000000, 1.000000000000000000 ) ) ;
#217 = CONICAL_SURFACE ( 'NONE', #191, 0.06374000000000018540, 0.7853981633974528309 ) ;
#218 = CARTESIAN_POINT ( 'NONE',  ( -0.005899594499999998194, 0.0000000000000000000, 7.224919520692327570E-19 ) ) ;
#219 = DIRECTION ( 'NONE',  ( 1.000000000000000000, 0.0000000000000000000, -0.0000000000000000000 ) ) ;
#220 = DIRECTION ( 'NONE',  ( -1.000000000000000000, 0.0000000000000000000, 1.224646799147353207E-16 ) ) ;
#221 = CARTESIAN_POINT ( 'NONE',  ( 0.005899594500000003398, 0.0000000000000000000, 0.03543299999999999922 ) ) ;
#222 =( CONVERSION_BASED_UNIT ( 'INCH', #125 ) LENGTH_UNIT ( ) NAMED_UNIT ( #165 ) );
#223 = EDGE_CURVE ( 'NONE', #253, #167, #120, .T. ) ;
#224 = CARTESIAN_POINT ( 'NONE',  ( 4.339291003418816329E-18, 0.0000000000000000000, 0.03543299999999999922 ) ) ;
#225 = ORIENTED_EDGE ( 'NONE', *, *, #211, .F. ) ;
#226 = ADVANCED_FACE ( 'NONE', ( #154 ), #48, .T. ) ;
#227 = AXIS2_PLACEMENT_3D ( 'NONE', #224, #10, #290 ) ;
#228 = AXIS2_PLACEMENT_3D ( 'NONE', #235, #236, #98 ) ;
#229 = ORIENTED_EDGE ( 'NONE', *, *, #223, .F. ) ;
#230 = ORIENTED_EDGE ( 'NONE', *, *, #54, .F. ) ;
#231 = ADVANCED_FACE ( 'NONE', ( #74 ), #261, .T. ) ;
#232 =( GEOMETRIC_REPRESENTATION_CONTEXT ( 3 ) GLOBAL_UNCERTAINTY_ASSIGNED_CONTEXT ( ( #128 ) ) GLOBAL_UNIT_ASSIGNED_CONTEXT ( ( #55, #268, #89 ) ) REPRESENTATION_CONTEXT ( 'NONE', 'WORKASPACE' ) );
#233 = SURFACE_SIDE_STYLE ('',( #145 ) ) ;
#234 = CARTESIAN_POINT ( 'NONE',  ( -0.005899594499999997327, 0.0000000000000000000, 1.444983904138465129E-18 ) ) ;
#235 = CARTESIAN_POINT ( 'NONE',  ( 0.0000000000000000000, 0.0000000000000000000, 1.968503999999999809 ) ) ;
#236 = DIRECTION ( 'NONE',  ( -0.0000000000000000000, -0.0000000000000000000, -1.000000000000000000 ) ) ;
#237 = FACE_OUTER_BOUND ( 'NONE', #68, .T. ) ;
#238 = PRODUCT_DEFINITION ( 'UNKNOWN', '', #101, #183 ) ;
#239 = CARTESIAN_POINT ( 'NONE',  ( 8.847974565113086337E-35, 0.0000000000000000000, 7.224919520692325644E-19 ) ) ;
#240 = VECTOR ( 'NONE', #110, 39.37007874015748143 ) ;
#241 = DIRECTION ( 'NONE',  ( -1.000000000000000000, 0.0000000000000000000, 0.0000000000000000000 ) ) ;
#242 = ADVANCED_FACE ( 'NONE', ( #237 ), #50, .F. ) ;
#243 = DIRECTION ( 'NONE',  ( 0.0000000000000000000, 0.0000000000000000000, -1.000000000000000000 ) ) ;
#244 = APPLICATION_PROTOCOL_DEFINITION ( 'draft international standard', 'automotive_design', 1998, #150 ) ;
#245 = DIRECTION ( 'NONE',  ( 0.0000000000000000000, 0.0000000000000000000, -1.000000000000000000 ) ) ;
#246 =( NAMED_UNIT ( * ) PLANE_ANGLE_UNIT ( ) SI_UNIT ( $, .RADIAN. ) );
#247 = AXIS2_PLACEMENT_3D ( 'NONE', #29, #179, #8 ) ;
#248 = ADVANCED_FACE ( 'NONE', ( #195 ), #263, .T. ) ;
#249 = DIRECTION ( 'NONE',  ( 0.0000000000000000000, 0.0000000000000000000, 1.000000000000000000 ) ) ;
#250 = ORIENTED_EDGE ( 'NONE', *, *, #40, .F. ) ;
#251 = SHAPE_DEFINITION_REPRESENTATION ( #172, #287 ) ;
#252 = ORIENTED_EDGE ( 'NONE', *, *, #158, .F. ) ;
#253 = VERTEX_POINT ( 'NONE', #5 ) ;
#254 = ORIENTED_EDGE ( 'NONE', *, *, #137, .F. ) ;
#255 = CARTESIAN_POINT ( 'NONE',  ( 0.0000000000000000000, 0.0000000000000000000, 1.953504000000000129 ) ) ;
#256 = VECTOR ( 'NONE', #119, 39.37007874015748143 ) ;
#257 = CARTESIAN_POINT ( 'NONE',  ( 0.07874000000000001831, 9.642868896486260050E-18, 1.968503999999999809 ) ) ;
#258 = DIRECTION ( 'NONE',  ( -1.224646799147353207E-16, -0.0000000000000000000, -1.000000000000000000 ) ) ;
#259 = ADVANCED_FACE ( 'NONE', ( #100 ), #66, .T. ) ;
#260 = FILL_AREA_STYLE_COLOUR ( '', #212 ) ;
#261 = CYLINDRICAL_SURFACE ( 'NONE', #228, 0.07874000000000001831 ) ;
#262 = AXIS2_PLACEMENT_3D ( 'NONE', #200, #288, #80 ) ;
#263 = CYLINDRICAL_SURFACE ( 'NONE', #271, 0.005899594499999998194 ) ;
#264 = MANIFOLD_SOLID_BREP ( 'Cut-Revolve1', #51 ) ;
#265 = PRESENTATION_STYLE_ASSIGNMENT (( #115 ) ) ;
#266 = EDGE_CURVE ( 'NONE', #186, #42, #76, .T. ) ;
#267 = CIRCLE ( 'NONE', #33, 0.005899594499999997327 ) ;
#268 =( NAMED_UNIT ( * ) PLANE_ANGLE_UNIT ( ) SI_UNIT ( $, .RADIAN. ) );
#269 = SURFACE_STYLE_USAGE ( .BOTH. , #84 ) ;
#270 =( NAMED_UNIT ( * ) SI_UNIT ( $, .STERADIAN. ) SOLID_ANGLE_UNIT ( ) );
#271 = AXIS2_PLACEMENT_3D ( 'NONE', #122, #197, #220 ) ;
#272 = EDGE_LOOP ( 'NONE', ( #250, #210, #106, #135 ) ) ;
#273 = ADVANCED_FACE ( 'NONE', ( #159 ), #217, .T. ) ;
#274 = EDGE_LOOP ( 'NONE', ( #230, #297, #61, #277 ) ) ;
#275 = ORIENTED_EDGE ( 'NONE', *, *, #192, .F. ) ;
#276 = MECHANICAL_DESIGN_GEOMETRIC_PRESENTATION_REPRESENTATION (  '', ( #70 ), #153 ) ;
#277 = ORIENTED_EDGE ( 'NONE', *, *, #174, .T. ) ;
#278 = DIRECTION ( 'NONE',  ( -1.000000000000000000, 0.0000000000000000000, 1.224646799147352961E-16 ) ) ;
#279 = PRESENTATION_LAYER_ASSIGNMENT (  '', '', ( #17 ) ) ;
#280 = EDGE_LOOP ( 'NONE', ( #64, #139, #188, #140 ) ) ;
#281 = CARTESIAN_POINT ( 'NONE',  ( 0.07874000000000007382, 9.642868896486266213E-18, 0.4485314674457297479 ) ) ;
#282 = LINE ( 'NONE', #53, #256 ) ;
#283 = DIRECTION ( 'NONE',  ( 0.1736481776669313581, 0.0000000000000000000, 0.9848077530122077983 ) ) ;
#284 = VECTOR ( 'NONE', #127, 39.37007874015747433 ) ;
#285 = VECTOR ( 'NONE', #47, 39.37007874015748143 ) ;
#286 =( LENGTH_UNIT ( ) NAMED_UNIT ( * ) SI_UNIT ( $, .METRE. ) );
#287 = ADVANCED_BREP_SHAPE_REPRESENTATION ( 'Micro_AMRM-003-2X', ( #264, #130 ), #289 ) ;
#288 = DIRECTION ( 'NONE',  ( 1.224646799147353207E-16, 0.0000000000000000000, 1.000000000000000000 ) ) ;
#289 =( GEOMETRIC_REPRESENTATION_CONTEXT ( 3 ) GLOBAL_UNCERTAINTY_ASSIGNED_CONTEXT ( ( #60 ) ) GLOBAL_UNIT_ASSIGNED_CONTEXT ( ( #59, #246, #291 ) ) REPRESENTATION_CONTEXT ( 'NONE', 'WORKASPACE' ) );
#290 = DIRECTION ( 'NONE',  ( 1.000000000000000000, 0.0000000000000000000, 0.0000000000000000000 ) ) ;
#291 =( NAMED_UNIT ( * ) SI_UNIT ( $, .STERADIAN. ) SOLID_ANGLE_UNIT ( ) );
#292 = EDGE_CURVE ( 'NONE', #296, #113, #56, .T. ) ;
#293 = UNCERTAINTY_MEASURE_WITH_UNIT (LENGTH_MEASURE( 1.000000000000000082E-05 ), #222, 'distance_accuracy_value', 'NONE');
#294 = PRESENTATION_LAYER_ASSIGNMENT (  '', '', ( #70 ) ) ;
#295 = ORIENTED_EDGE ( 'NONE', *, *, #292, .T. ) ;
#296 = VERTEX_POINT ( 'NONE', #103 ) ;
#297 = ORIENTED_EDGE ( 'NONE', *, *, #198, .F. ) ;
#298 = EDGE_LOOP ( 'NONE', ( #91, #67 ) ) ;
#299 = CARTESIAN_POINT ( 'NONE',  ( 0.0000000000000000000, 0.0000000000000000000, 1.968503999999999809 ) ) ;
ENDSEC;
END-ISO-10303-21;
