ISO-10303-21;
HEADER;
FILE_DESCRIPTION (( 'STEP AP214' ),
    '1' );
FILE_NAME ('24257.STEP',
    '2023-06-22T17:05:50',
    ( '' ),
    ( '' ),
    'SwSTEP 2.0',
    'SolidWorks 2023',
    '' );
FILE_SCHEMA (( 'AUTOMOTIVE_DESIGN' ));
ENDSEC;

DATA;
#1 = DIRECTION ( 'NONE',  ( -0.000000000000000000, -1.000000000000000000, -0.000000000000000000 ) ) ;
#2 = SURFACE_STYLE_USAGE ( .BOTH. , #213 ) ;
#3 = DIRECTION ( 'NONE',  ( 0.000000000000000000, 0.000000000000000000, -1.000000000000000000 ) ) ;
#4 = AXIS2_PLACEMENT_3D ( 'NONE', #148, #265, #30 ) ;
#5 = CARTESIAN_POINT ( 'NONE',  ( 0.000000000000000000, 0.000000000000000000, 0.000000000000000000 ) ) ;
#6 = EDGE_CURVE ( 'NONE', #136, #114, #173, .T. ) ;
#7 = PLANE ( 'NONE',  #286 ) ;
#8 = DIRECTION ( 'NONE',  ( 0.000000000000000000, 0.000000000000000000, -1.000000000000000000 ) ) ;
#9 = EDGE_CURVE ( 'NONE', #71, #74, #11, .T. ) ;
#10 = SURFACE_STYLE_USAGE ( .BOTH. , #115 ) ;
#11 = CIRCLE ( 'NONE', #41, 0.2187500000000000000 ) ;
#12 = VECTOR ( 'NONE', #127, 39.37007874015748143 ) ;
#13 =( NAMED_UNIT ( * ) PLANE_ANGLE_UNIT ( ) SI_UNIT ( $, .RADIAN. ) );
#14 = ORIENTED_EDGE ( 'NONE', *, *, #220, .F. ) ;
#15 = FACE_OUTER_BOUND ( 'NONE', #185, .T. ) ;
#16 = ORIENTED_EDGE ( 'NONE', *, *, #6, .F. ) ;
#17 = FACE_OUTER_BOUND ( 'NONE', #257, .T. ) ;
#18 = CIRCLE ( 'NONE', #269, 0.2187499999999999445 ) ;
#19 = FILL_AREA_STYLE ('',( #137 ) ) ;
#20 = SURFACE_SIDE_STYLE ('',( #283 ) ) ;
#21 = SURFACE_STYLE_FILL_AREA ( #65 ) ;
#22 = DIRECTION ( 'NONE',  ( 0.000000000000000000, -0.000000000000000000, 1.000000000000000000 ) ) ;
#23 = CLOSED_SHELL ( 'NONE', ( #49, #199, #235, #203 ) ) ;
#24 = AXIS2_PLACEMENT_3D ( 'NONE', #66, #156, #252 ) ;
#25 = LINE ( 'NONE', #79, #200 ) ;
#26 = DIRECTION ( 'NONE',  ( 1.574545884618025728E-16, 1.000000000000000000, -0.000000000000000000 ) ) ;
#27 = CARTESIAN_POINT ( 'NONE',  ( 0.000000000000000000, 1.000000000000000000, 0.000000000000000000 ) ) ;
#28 = CIRCLE ( 'NONE', #165, 0.2187499999999999445 ) ;
#29 = DIRECTION ( 'NONE',  ( 0.000000000000000000, 0.000000000000000000, -1.000000000000000000 ) ) ;
#30 = DIRECTION ( 'NONE',  ( -1.000000000000000000, 0.000000000000000000, 0.000000000000000000 ) ) ;
#31 = DIRECTION ( 'NONE',  ( 1.000000000000000000, 0.000000000000000000, 0.000000000000000000 ) ) ;
#32 =( NAMED_UNIT ( * ) SI_UNIT ( $, .STERADIAN. ) SOLID_ANGLE_UNIT ( ) );
#33 = APPLICATION_CONTEXT ( 'automotive_design' ) ;
#34 = PRESENTATION_STYLE_ASSIGNMENT (( #133 ) ) ;
#35 = AXIS2_PLACEMENT_3D ( 'NONE', #176, #280, #67 ) ;
#36 =( GEOMETRIC_REPRESENTATION_CONTEXT ( 3 ) GLOBAL_UNCERTAINTY_ASSIGNED_CONTEXT ( ( #131 ) ) GLOBAL_UNIT_ASSIGNED_CONTEXT ( ( #153, #13, #224 ) ) REPRESENTATION_CONTEXT ( 'NONE', 'WORKASPACE' ) );
#37 = EDGE_CURVE ( 'NONE', #74, #71, #84, .T. ) ;
#38 = DIRECTION ( 'NONE',  ( 1.574545884618025728E-16, 1.000000000000000000, -0.000000000000000000 ) ) ;
#39 = ORIENTED_EDGE ( 'NONE', *, *, #151, .F. ) ;
#40 = PRESENTATION_STYLE_ASSIGNMENT (( #143 ) ) ;
#41 = AXIS2_PLACEMENT_3D ( 'NONE', #99, #221, #82 ) ;
#42 = DIRECTION ( 'NONE',  ( 1.574545884618025728E-16, 1.000000000000000000, -0.000000000000000000 ) ) ;
#43 = MECHANICAL_DESIGN_GEOMETRIC_PRESENTATION_REPRESENTATION (  '', ( #245 ), #236 ) ;
#44 = FILL_AREA_STYLE ('',( #276 ) ) ;
#45 = PLANE ( 'NONE',  #94 ) ;
#46 = CARTESIAN_POINT ( 'NONE',  ( 2.678914873134834756E-17, 1.000000000000000000, 0.2187499999999999445 ) ) ;
#47 = STYLED_ITEM ( 'NONE', ( #258 ), #293 ) ;
#48 = ORIENTED_EDGE ( 'NONE', *, *, #97, .F. ) ;
#49 = ADVANCED_FACE ( 'NONE', ( #302 ), #230, .T. ) ;
#50 = DIRECTION ( 'NONE',  ( 0.000000000000000000, 0.000000000000000000, -1.000000000000000000 ) ) ;
#51 = FILL_AREA_STYLE_COLOUR ( '', #172 ) ;
#52 = DIRECTION ( 'NONE',  ( -0.000000000000000000, -1.000000000000000000, -0.000000000000000000 ) ) ;
#53 = AXIS2_PLACEMENT_3D ( 'NONE', #233, #38, #120 ) ;
#54 =( GEOMETRIC_REPRESENTATION_CONTEXT ( 3 ) GLOBAL_UNCERTAINTY_ASSIGNED_CONTEXT ( ( #162 ) ) GLOBAL_UNIT_ASSIGNED_CONTEXT ( ( #60, #278, #159 ) ) REPRESENTATION_CONTEXT ( 'NONE', 'WORKASPACE' ) );
#55 =( CONVERSION_BASED_UNIT ( 'INCH', #111 ) LENGTH_UNIT ( ) NAMED_UNIT ( #271 ) );
#56 = ADVANCED_FACE ( 'NONE', ( #15 ), #253, .T. ) ;
#57 = SURFACE_STYLE_FILL_AREA ( #44 ) ;
#58 = ORIENTED_EDGE ( 'NONE', *, *, #9, .F. ) ;
#59 = AXIS2_PLACEMENT_3D ( 'NONE', #239, #1, #3 ) ;
#60 =( CONVERSION_BASED_UNIT ( 'INCH', #202 ) LENGTH_UNIT ( ) NAMED_UNIT ( #171 ) );
#61 =( LENGTH_UNIT ( ) NAMED_UNIT ( * ) SI_UNIT ( $, .METRE. ) );
#62 = EDGE_CURVE ( 'NONE', #136, #74, #308, .T. ) ;
#63 =( LENGTH_UNIT ( ) NAMED_UNIT ( * ) SI_UNIT ( $, .METRE. ) );
#64 = CYLINDRICAL_SURFACE ( 'NONE', #261, 0.2187499999999999445 ) ;
#65 = FILL_AREA_STYLE ('',( #181 ) ) ;
#66 = CARTESIAN_POINT ( 'NONE',  ( 0.000000000000000000, 0.000000000000000000, 0.000000000000000000 ) ) ;
#67 = DIRECTION ( 'NONE',  ( -1.000000000000000000, 0.000000000000000000, 0.000000000000000000 ) ) ;
#68 = ORIENTED_EDGE ( 'NONE', *, *, #144, .T. ) ;
#69 = VECTOR ( 'NONE', #262, 39.37007874015748143 ) ;
#70 = ORIENTED_EDGE ( 'NONE', *, *, #125, .F. ) ;
#71 = VERTEX_POINT ( 'NONE', #119 ) ;
#72 = CARTESIAN_POINT ( 'NONE',  ( 2.711619249902019629E-33, 1.000000000000000000, 0.000000000000000000 ) ) ;
#73 = FILL_AREA_STYLE ('',( #184 ) ) ;
#74 = VERTEX_POINT ( 'NONE', #167 ) ;
#75 = ORIENTED_EDGE ( 'NONE', *, *, #9, .T. ) ;
#76 = LENGTH_MEASURE_WITH_UNIT ( LENGTH_MEASURE( 0.02539999999999999897 ), #229 );
#77 =( GEOMETRIC_REPRESENTATION_CONTEXT ( 3 ) GLOBAL_UNCERTAINTY_ASSIGNED_CONTEXT ( ( #284 ) ) GLOBAL_UNIT_ASSIGNED_CONTEXT ( ( #244, #80, #81 ) ) REPRESENTATION_CONTEXT ( 'NONE', 'WORKASPACE' ) );
#78 = CYLINDRICAL_SURFACE ( 'NONE', #117, 0.2187499999999998057 ) ;
#79 = CARTESIAN_POINT ( 'NONE',  ( 0.2187500000000000833, 2.750000000000000000, 2.678914873134832907E-17 ) ) ;
#80 =( NAMED_UNIT ( * ) PLANE_ANGLE_UNIT ( ) SI_UNIT ( $, .RADIAN. ) );
#81 =( NAMED_UNIT ( * ) SI_UNIT ( $, .STERADIAN. ) SOLID_ANGLE_UNIT ( ) );
#82 = DIRECTION ( 'NONE',  ( 0.000000000000000000, 0.000000000000000000, -1.000000000000000000 ) ) ;
#83 = CIRCLE ( 'NONE', #53, 0.2187499999999999445 ) ;
#84 = CIRCLE ( 'NONE', #254, 0.2187500000000000000 ) ;
#85 = MECHANICAL_DESIGN_GEOMETRIC_PRESENTATION_REPRESENTATION (  '', ( #282 ), #54 ) ;
#86 = FACE_OUTER_BOUND ( 'NONE', #227, .T. ) ;
#87 = SURFACE_STYLE_USAGE ( .BOTH. , #187 ) ;
#88 =( NAMED_UNIT ( * ) SI_UNIT ( $, .STERADIAN. ) SOLID_ANGLE_UNIT ( ) );
#89 = DIRECTION ( 'NONE',  ( 0.000000000000000000, 0.000000000000000000, 1.000000000000000000 ) ) ;
#90 = FACE_OUTER_BOUND ( 'NONE', #206, .T. ) ;
#91 = MECHANICAL_DESIGN_GEOMETRIC_PRESENTATION_REPRESENTATION (  '', ( #47 ), #152 ) ;
#92 = DIRECTION ( 'NONE',  ( 1.574545884618025728E-16, 1.000000000000000000, -0.000000000000000000 ) ) ;
#93 = FACE_OUTER_BOUND ( 'NONE', #158, .T. ) ;
#94 = AXIS2_PLACEMENT_3D ( 'NONE', #72, #42, #183 ) ;
#95 = ORIENTED_EDGE ( 'NONE', *, *, #151, .T. ) ;
#96 = PRODUCT_DEFINITION_SHAPE ( 'NONE', 'NONE',  #121 ) ;
#97 = EDGE_CURVE ( 'NONE', #248, #126, #28, .T. ) ;
#98 = AXIS2_PLACEMENT_3D ( 'NONE', #146, #212, #214 ) ;
#99 = CARTESIAN_POINT ( 'NONE',  ( 0.000000000000000000, 0.000000000000000000, 0.000000000000000000 ) ) ;
#100 = FILL_AREA_STYLE ('',( #124 ) ) ;
#101 = DIRECTION ( 'NONE',  ( -0.000000000000000000, -1.000000000000000000, -0.000000000000000000 ) ) ;
#102 = STYLED_ITEM ( 'NONE', ( #139 ), #56 ) ;
#103 = COLOUR_RGB ( '',1.000000000000000000, 0.000000000000000000, 0.000000000000000000 ) ;
#104 = DIMENSIONAL_EXPONENTS ( 1.000000000000000000, 0.000000000000000000, 0.000000000000000000, 0.000000000000000000, 0.000000000000000000, 0.000000000000000000, 0.000000000000000000 ) ;
#105 = ADVANCED_BREP_SHAPE_REPRESENTATION ( '24257', ( #288, #290, #110 ), #77 ) ;
#106 = SURFACE_SIDE_STYLE ('',( #197 ) ) ;
#107 = PRODUCT_DEFINITION_CONTEXT ( 'detailed design', #251, 'design' ) ;
#108 = PRESENTATION_STYLE_ASSIGNMENT (( #87 ) ) ;
#109 =( CONVERSION_BASED_UNIT ( 'INCH', #228 ) LENGTH_UNIT ( ) NAMED_UNIT ( #132 ) );
#110 = AXIS2_PLACEMENT_3D ( 'NONE', #275, #89, #31 ) ;
#111 = LENGTH_MEASURE_WITH_UNIT ( LENGTH_MEASURE( 0.02539999999999999897 ), #268 );
#112 =( CONVERSION_BASED_UNIT ( 'INCH', #274 ) LENGTH_UNIT ( ) NAMED_UNIT ( #104 ) );
#113 = APPLICATION_PROTOCOL_DEFINITION ( 'draft international standard', 'automotive_design', 1998, #33 ) ;
#114 = VERTEX_POINT ( 'NONE', #46 ) ;
#115 = SURFACE_SIDE_STYLE ('',( #57 ) ) ;
#116 = ORIENTED_EDGE ( 'NONE', *, *, #125, .T. ) ;
#117 = AXIS2_PLACEMENT_3D ( 'NONE', #123, #26, #194 ) ;
#118 = EDGE_CURVE ( 'NONE', #126, #238, #25, .T. ) ;
#119 = CARTESIAN_POINT ( 'NONE',  ( 2.678914873134835372E-17, 0.000000000000000000, 0.2187500000000000000 ) ) ;
#120 = DIRECTION ( 'NONE',  ( -1.000000000000000000, 0.000000000000000000, 0.000000000000000000 ) ) ;
#121 = PRODUCT_DEFINITION ( 'UNKNOWN', '', #255, #107 ) ;
#122 = COLOUR_RGB ( '',0.7921568627450980005, 0.8196078431372548767, 0.9333333333333333481 ) ;
#123 = CARTESIAN_POINT ( 'NONE',  ( 2.755455298081544778E-16, 2.750000000000000000, 0.000000000000000000 ) ) ;
#124 = FILL_AREA_STYLE_COLOUR ( '', #196 ) ;
#125 = EDGE_CURVE ( 'NONE', #248, #281, #205, .T. ) ;
#126 = VERTEX_POINT ( 'NONE', #163 ) ;
#127 = DIRECTION ( 'NONE',  ( -0.000000000000000000, -1.000000000000000000, -0.000000000000000000 ) ) ;
#128 = EDGE_CURVE ( 'NONE', #114, #136, #18, .T. ) ;
#129 =( GEOMETRIC_REPRESENTATION_CONTEXT ( 3 ) GLOBAL_UNCERTAINTY_ASSIGNED_CONTEXT ( ( #256 ) ) GLOBAL_UNIT_ASSIGNED_CONTEXT ( ( #109, #296, #88 ) ) REPRESENTATION_CONTEXT ( 'NONE', 'WORKASPACE' ) );
#130 = CIRCLE ( 'NONE', #98, 0.2187499999999996947 ) ;
#131 = UNCERTAINTY_MEASURE_WITH_UNIT (LENGTH_MEASURE( 1.000000000000000082E-05 ), #153, 'distance_accuracy_value', 'NONE');
#132 = DIMENSIONAL_EXPONENTS ( 1.000000000000000000, 0.000000000000000000, 0.000000000000000000, 0.000000000000000000, 0.000000000000000000, 0.000000000000000000, 0.000000000000000000 ) ;
#133 = SURFACE_STYLE_USAGE ( .BOTH. , #106 ) ;
#134 = APPLICATION_PROTOCOL_DEFINITION ( 'draft international standard', 'automotive_design', 1998, #251 ) ;
#135 = PRESENTATION_LAYER_ASSIGNMENT (  '', '', ( #282 ) ) ;
#136 = VERTEX_POINT ( 'NONE', #211 ) ;
#137 = FILL_AREA_STYLE_COLOUR ( '', #140 ) ;
#138 = ORIENTED_EDGE ( 'NONE', *, *, #97, .T. ) ;
#139 = PRESENTATION_STYLE_ASSIGNMENT (( #10 ) ) ;
#140 = COLOUR_RGB ( '',1.000000000000000000, 0.000000000000000000, 0.000000000000000000 ) ;
#141 = FACE_OUTER_BOUND ( 'NONE', #164, .T. ) ;
#142 = FACE_OUTER_BOUND ( 'NONE', #266, .T. ) ;
#143 = SURFACE_STYLE_USAGE ( .BOTH. , #188 ) ;
#144 = EDGE_CURVE ( 'NONE', #281, #238, #130, .T. ) ;
#145 = MECHANICAL_DESIGN_GEOMETRIC_PRESENTATION_REPRESENTATION (  '', ( #102 ), #129 ) ;
#146 = CARTESIAN_POINT ( 'NONE',  ( 2.755455298081544778E-16, 2.750000000000000000, 0.000000000000000000 ) ) ;
#147 = CARTESIAN_POINT ( 'NONE',  ( -0.2187499999999999445, 1.000000000000000000, 0.000000000000000000 ) ) ;
#148 = CARTESIAN_POINT ( 'NONE',  ( 2.755455298081544778E-16, 2.750000000000000000, 0.000000000000000000 ) ) ;
#149 =( NAMED_UNIT ( * ) SI_UNIT ( $, .STERADIAN. ) SOLID_ANGLE_UNIT ( ) );
#150 = CARTESIAN_POINT ( 'NONE',  ( 0.000000000000000000, 0.000000000000000000, 0.000000000000000000 ) ) ;
#151 = EDGE_CURVE ( 'NONE', #238, #281, #231, .T. ) ;
#152 =( GEOMETRIC_REPRESENTATION_CONTEXT ( 3 ) GLOBAL_UNCERTAINTY_ASSIGNED_CONTEXT ( ( #225 ) ) GLOBAL_UNIT_ASSIGNED_CONTEXT ( ( #195, #270, #149 ) ) REPRESENTATION_CONTEXT ( 'NONE', 'WORKASPACE' ) );
#153 =( CONVERSION_BASED_UNIT ( 'INCH', #298 ) LENGTH_UNIT ( ) NAMED_UNIT ( #242 ) );
#154 =( NAMED_UNIT ( * ) SI_UNIT ( $, .STERADIAN. ) SOLID_ANGLE_UNIT ( ) );
#155 = DIRECTION ( 'NONE',  ( 1.000000000000000000, -1.574545884618025728E-16, 0.000000000000000000 ) ) ;
#156 = DIRECTION ( 'NONE',  ( -0.000000000000000000, -1.000000000000000000, -0.000000000000000000 ) ) ;
#157 = AXIS2_PLACEMENT_3D ( 'NONE', #179, #161, #22 ) ;
#158 = EDGE_LOOP ( 'NONE', ( #48, #14 ) ) ;
#159 =( NAMED_UNIT ( * ) SI_UNIT ( $, .STERADIAN. ) SOLID_ANGLE_UNIT ( ) );
#160 = ORIENTED_EDGE ( 'NONE', *, *, #118, .F. ) ;
#161 = DIRECTION ( 'NONE',  ( 0.000000000000000000, 1.000000000000000000, 0.000000000000000000 ) ) ;
#162 = UNCERTAINTY_MEASURE_WITH_UNIT (LENGTH_MEASURE( 1.000000000000000082E-05 ), #60, 'distance_accuracy_value', 'NONE');
#163 = CARTESIAN_POINT ( 'NONE',  ( 0.2187499999999999167, 1.000000000000000000, 2.678914873134833523E-17 ) ) ;
#164 = EDGE_LOOP ( 'NONE', ( #160, #306, #116, #39 ) ) ;
#165 = AXIS2_PLACEMENT_3D ( 'NONE', #190, #92, #259 ) ;
#166 = MECHANICAL_DESIGN_GEOMETRIC_PRESENTATION_REPRESENTATION (  '', ( #303 ), #36 ) ;
#167 = CARTESIAN_POINT ( 'NONE',  ( 0.000000000000000000, 0.000000000000000000, -0.2187500000000000000 ) ) ;
#168 = CARTESIAN_POINT ( 'NONE',  ( 0.2187499999999999167, 2.750000000000000000, 2.678914873134833523E-17 ) ) ;
#169 = ORIENTED_EDGE ( 'NONE', *, *, #37, .F. ) ;
#170 = SURFACE_STYLE_FILL_AREA ( #100 ) ;
#171 = DIMENSIONAL_EXPONENTS ( 1.000000000000000000, 0.000000000000000000, 0.000000000000000000, 0.000000000000000000, 0.000000000000000000, 0.000000000000000000, 0.000000000000000000 ) ;
#172 = COLOUR_RGB ( '',1.000000000000000000, 0.000000000000000000, 0.000000000000000000 ) ;
#173 = CIRCLE ( 'NONE', #59, 0.2187499999999999445 ) ;
#174 = PRODUCT_RELATED_PRODUCT_CATEGORY ( 'part', '', ( #189 ) ) ;
#175 = SHAPE_DEFINITION_REPRESENTATION ( #96, #105 ) ;
#176 = CARTESIAN_POINT ( 'NONE',  ( 2.755455298081544778E-16, 2.750000000000000000, 0.000000000000000000 ) ) ;
#177 = DIRECTION ( 'NONE',  ( -1.574545884618025728E-16, -1.000000000000000000, 0.000000000000000000 ) ) ;
#178 =( LENGTH_UNIT ( ) NAMED_UNIT ( * ) SI_UNIT ( $, .METRE. ) );
#179 = CARTESIAN_POINT ( 'NONE',  ( 0.000000000000000000, 1.000000000000000000, 0.000000000000000000 ) ) ;
#180 = CARTESIAN_POINT ( 'NONE',  ( 0.000000000000000000, 0.000000000000000000, 0.000000000000000000 ) ) ;
#181 = FILL_AREA_STYLE_COLOUR ( '', #122 ) ;
#182 =( LENGTH_UNIT ( ) NAMED_UNIT ( * ) SI_UNIT ( $, .METRE. ) );
#183 = DIRECTION ( 'NONE',  ( -1.000000000000000000, 1.574545884618025728E-16, 0.000000000000000000 ) ) ;
#184 = FILL_AREA_STYLE_COLOUR ( '', #103 ) ;
#185 = EDGE_LOOP ( 'NONE', ( #16, #307 ) ) ;
#186 = PRESENTATION_LAYER_ASSIGNMENT (  '', '', ( #303 ) ) ;
#187 = SURFACE_SIDE_STYLE ('',( #21 ) ) ;
#188 = SURFACE_SIDE_STYLE ('',( #207 ) ) ;
#189 = PRODUCT ( '24257', '24257', '', ( #295 ) ) ;
#190 = CARTESIAN_POINT ( 'NONE',  ( 0.000000000000000000, 1.000000000000000000, 0.000000000000000000 ) ) ;
#191 = CARTESIAN_POINT ( 'NONE',  ( 2.678914873134834756E-17, 0.000000000000000000, 0.2187499999999999445 ) ) ;
#192 = ORIENTED_EDGE ( 'NONE', *, *, #62, .T. ) ;
#193 = DIMENSIONAL_EXPONENTS ( 1.000000000000000000, 0.000000000000000000, 0.000000000000000000, 0.000000000000000000, 0.000000000000000000, 0.000000000000000000, 0.000000000000000000 ) ;
#194 = DIRECTION ( 'NONE',  ( -1.000000000000000000, 0.000000000000000000, 0.000000000000000000 ) ) ;
#195 =( CONVERSION_BASED_UNIT ( 'INCH', #76 ) LENGTH_UNIT ( ) NAMED_UNIT ( #193 ) );
#196 = COLOUR_RGB ( '',0.7921568627450980005, 0.8196078431372548767, 0.9333333333333333481 ) ;
#197 = SURFACE_STYLE_FILL_AREA ( #246 ) ;
#198 = ADVANCED_FACE ( 'NONE', ( #86 ), #7, .T. ) ;
#199 = ADVANCED_FACE ( 'NONE', ( #93 ), #45, .F. ) ;
#200 = VECTOR ( 'NONE', #215, 39.37007874015748143 ) ;
#201 = ORIENTED_EDGE ( 'NONE', *, *, #264, .T. ) ;
#202 = LENGTH_MEASURE_WITH_UNIT ( LENGTH_MEASURE( 0.02539999999999999897 ), #182 );
#203 = ADVANCED_FACE ( 'NONE', ( #90 ), #232, .F. ) ;
#204 = UNCERTAINTY_MEASURE_WITH_UNIT (LENGTH_MEASURE( 1.000000000000000082E-05 ), #112, 'distance_accuracy_value', 'NONE');
#205 = LINE ( 'NONE', #219, #69 ) ;
#206 = EDGE_LOOP ( 'NONE', ( #68, #95 ) ) ;
#207 = SURFACE_STYLE_FILL_AREA ( #19 ) ;
#208 = ORIENTED_EDGE ( 'NONE', *, *, #118, .T. ) ;
#209 = CLOSED_SHELL ( 'NONE', ( #234, #56, #293, #198 ) ) ;
#210 = MECHANICAL_DESIGN_GEOMETRIC_PRESENTATION_REPRESENTATION (  '', ( #226 ), #218 ) ;
#211 = CARTESIAN_POINT ( 'NONE',  ( 0.000000000000000000, 1.000000000000000000, -0.2187499999999999445 ) ) ;
#212 = DIRECTION ( 'NONE',  ( 1.574545884618025728E-16, 1.000000000000000000, -0.000000000000000000 ) ) ;
#213 = SURFACE_SIDE_STYLE ('',( #170 ) ) ;
#214 = DIRECTION ( 'NONE',  ( -1.000000000000000000, 0.000000000000000000, 0.000000000000000000 ) ) ;
#215 = DIRECTION ( 'NONE',  ( 1.574545884618025728E-16, 1.000000000000000000, -0.000000000000000000 ) ) ;
#216 = LENGTH_MEASURE_WITH_UNIT ( LENGTH_MEASURE( 0.02539999999999999897 ), #222 );
#217 = PRESENTATION_STYLE_ASSIGNMENT (( #2 ) ) ;
#218 =( GEOMETRIC_REPRESENTATION_CONTEXT ( 3 ) GLOBAL_UNCERTAINTY_ASSIGNED_CONTEXT ( ( #304 ) ) GLOBAL_UNIT_ASSIGNED_CONTEXT ( ( #55, #291, #154 ) ) REPRESENTATION_CONTEXT ( 'NONE', 'WORKASPACE' ) );
#219 = CARTESIAN_POINT ( 'NONE',  ( -0.2187499999999995559, 2.750000000000000000, 0.000000000000000000 ) ) ;
#220 = EDGE_CURVE ( 'NONE', #126, #248, #83, .T. ) ;
#221 = DIRECTION ( 'NONE',  ( -0.000000000000000000, -1.000000000000000000, -0.000000000000000000 ) ) ;
#222 =( LENGTH_UNIT ( ) NAMED_UNIT ( * ) SI_UNIT ( $, .METRE. ) );
#223 = PRESENTATION_LAYER_ASSIGNMENT (  '', '', ( #47 ) ) ;
#224 =( NAMED_UNIT ( * ) SI_UNIT ( $, .STERADIAN. ) SOLID_ANGLE_UNIT ( ) );
#225 = UNCERTAINTY_MEASURE_WITH_UNIT (LENGTH_MEASURE( 1.000000000000000082E-05 ), #195, 'distance_accuracy_value', 'NONE');
#226 = STYLED_ITEM ( 'NONE', ( #217 ), #288 ) ;
#227 = EDGE_LOOP ( 'NONE', ( #305, #75 ) ) ;
#228 = LENGTH_MEASURE_WITH_UNIT ( LENGTH_MEASURE( 0.02539999999999999897 ), #61 );
#229 =( LENGTH_UNIT ( ) NAMED_UNIT ( * ) SI_UNIT ( $, .METRE. ) );
#230 = CYLINDRICAL_SURFACE ( 'NONE', #35, 0.2187499999999998057 ) ;
#231 = CIRCLE ( 'NONE', #4, 0.2187499999999996947 ) ;
#232 = PLANE ( 'NONE',  #273 ) ;
#233 = CARTESIAN_POINT ( 'NONE',  ( 0.000000000000000000, 1.000000000000000000, 0.000000000000000000 ) ) ;
#234 = ADVANCED_FACE ( 'NONE', ( #17 ), #250, .T. ) ;
#235 = ADVANCED_FACE ( 'NONE', ( #141 ), #78, .T. ) ;
#236 =( GEOMETRIC_REPRESENTATION_CONTEXT ( 3 ) GLOBAL_UNCERTAINTY_ASSIGNED_CONTEXT ( ( #204 ) ) GLOBAL_UNIT_ASSIGNED_CONTEXT ( ( #112, #272, #32 ) ) REPRESENTATION_CONTEXT ( 'NONE', 'WORKASPACE' ) );
#237 = CARTESIAN_POINT ( 'NONE',  ( 0.000000000000000000, 0.000000000000000000, -0.2187499999999999445 ) ) ;
#238 = VERTEX_POINT ( 'NONE', #168 ) ;
#239 = CARTESIAN_POINT ( 'NONE',  ( 0.000000000000000000, 1.000000000000000000, 0.000000000000000000 ) ) ;
#240 = ORIENTED_EDGE ( 'NONE', *, *, #264, .F. ) ;
#241 = CARTESIAN_POINT ( 'NONE',  ( -0.2187499999999994171, 2.750000000000000000, 0.000000000000000000 ) ) ;
#242 = DIMENSIONAL_EXPONENTS ( 1.000000000000000000, 0.000000000000000000, 0.000000000000000000, 0.000000000000000000, 0.000000000000000000, 0.000000000000000000, 0.000000000000000000 ) ;
#243 = DIRECTION ( 'NONE',  ( -0.000000000000000000, -1.000000000000000000, -0.000000000000000000 ) ) ;
#244 =( CONVERSION_BASED_UNIT ( 'INCH', #216 ) LENGTH_UNIT ( ) NAMED_UNIT ( #285 ) );
#245 = STYLED_ITEM ( 'NONE', ( #108 ), #290 ) ;
#246 = FILL_AREA_STYLE ('',( #51 ) ) ;
#247 = PRESENTATION_LAYER_ASSIGNMENT (  '', '', ( #226 ) ) ;
#248 = VERTEX_POINT ( 'NONE', #147 ) ;
#249 = ORIENTED_EDGE ( 'NONE', *, *, #128, .T. ) ;
#250 = CYLINDRICAL_SURFACE ( 'NONE', #24, 0.2187499999999999445 ) ;
#251 = APPLICATION_CONTEXT ( 'automotive_design' ) ;
#252 = DIRECTION ( 'NONE',  ( 0.000000000000000000, 0.000000000000000000, -1.000000000000000000 ) ) ;
#253 = PLANE ( 'NONE',  #157 ) ;
#254 = AXIS2_PLACEMENT_3D ( 'NONE', #150, #52, #50 ) ;
#255 = PRODUCT_DEFINITION_FORMATION_WITH_SPECIFIED_SOURCE ( 'ANY', '', #189, .NOT_KNOWN. ) ;
#256 = UNCERTAINTY_MEASURE_WITH_UNIT (LENGTH_MEASURE( 1.000000000000000082E-05 ), #109, 'distance_accuracy_value', 'NONE');
#257 = EDGE_LOOP ( 'NONE', ( #297, #201, #169, #279 ) ) ;
#258 = PRESENTATION_STYLE_ASSIGNMENT (( #300 ) ) ;
#259 = DIRECTION ( 'NONE',  ( -1.000000000000000000, 0.000000000000000000, 0.000000000000000000 ) ) ;
#260 = ORIENTED_EDGE ( 'NONE', *, *, #144, .F. ) ;
#261 = AXIS2_PLACEMENT_3D ( 'NONE', #5, #101, #289 ) ;
#262 = DIRECTION ( 'NONE',  ( 1.574545884618025728E-16, 1.000000000000000000, -0.000000000000000000 ) ) ;
#263 = EDGE_LOOP ( 'NONE', ( #138, #208, #260, #70 ) ) ;
#264 = EDGE_CURVE ( 'NONE', #114, #71, #309, .T. ) ;
#265 = DIRECTION ( 'NONE',  ( 1.574545884618025728E-16, 1.000000000000000000, -0.000000000000000000 ) ) ;
#266 = EDGE_LOOP ( 'NONE', ( #240, #249, #192, #58 ) ) ;
#267 = COLOUR_RGB ( '',1.000000000000000000, 0.000000000000000000, 0.000000000000000000 ) ;
#268 =( LENGTH_UNIT ( ) NAMED_UNIT ( * ) SI_UNIT ( $, .METRE. ) );
#269 = AXIS2_PLACEMENT_3D ( 'NONE', #27, #243, #29 ) ;
#270 =( NAMED_UNIT ( * ) PLANE_ANGLE_UNIT ( ) SI_UNIT ( $, .RADIAN. ) );
#271 = DIMENSIONAL_EXPONENTS ( 1.000000000000000000, 0.000000000000000000, 0.000000000000000000, 0.000000000000000000, 0.000000000000000000, 0.000000000000000000, 0.000000000000000000 ) ;
#272 =( NAMED_UNIT ( * ) PLANE_ANGLE_UNIT ( ) SI_UNIT ( $, .RADIAN. ) );
#273 = AXIS2_PLACEMENT_3D ( 'NONE', #299, #177, #155 ) ;
#274 = LENGTH_MEASURE_WITH_UNIT ( LENGTH_MEASURE( 0.02539999999999999897 ), #178 );
#275 = CARTESIAN_POINT ( 'NONE',  ( 0.000000000000000000, 0.000000000000000000, 0.000000000000000000 ) ) ;
#276 = FILL_AREA_STYLE_COLOUR ( '', #267 ) ;
#277 = DIRECTION ( 'NONE',  ( 0.000000000000000000, -1.000000000000000000, -0.000000000000000000 ) ) ;
#278 =( NAMED_UNIT ( * ) PLANE_ANGLE_UNIT ( ) SI_UNIT ( $, .RADIAN. ) );
#279 = ORIENTED_EDGE ( 'NONE', *, *, #62, .F. ) ;
#280 = DIRECTION ( 'NONE',  ( 1.574545884618025728E-16, 1.000000000000000000, -0.000000000000000000 ) ) ;
#281 = VERTEX_POINT ( 'NONE', #241 ) ;
#282 = STYLED_ITEM ( 'NONE', ( #40 ), #234 ) ;
#283 = SURFACE_STYLE_FILL_AREA ( #73 ) ;
#284 = UNCERTAINTY_MEASURE_WITH_UNIT (LENGTH_MEASURE( 1.000000000000000082E-05 ), #244, 'distance_accuracy_value', 'NONE');
#285 = DIMENSIONAL_EXPONENTS ( 1.000000000000000000, 0.000000000000000000, 0.000000000000000000, 0.000000000000000000, 0.000000000000000000, 0.000000000000000000, 0.000000000000000000 ) ;
#286 = AXIS2_PLACEMENT_3D ( 'NONE', #180, #277, #8 ) ;
#287 = DIRECTION ( 'NONE',  ( -0.000000000000000000, -1.000000000000000000, -0.000000000000000000 ) ) ;
#288 = MANIFOLD_SOLID_BREP ( 'Revolve - Cutting Edge', #209 ) ;
#289 = DIRECTION ( 'NONE',  ( 0.000000000000000000, 0.000000000000000000, -1.000000000000000000 ) ) ;
#290 = MANIFOLD_SOLID_BREP ( 'Revolve - Tool Body (Straight Shanked)', #23 ) ;
#291 =( NAMED_UNIT ( * ) PLANE_ANGLE_UNIT ( ) SI_UNIT ( $, .RADIAN. ) );
#292 = PRESENTATION_LAYER_ASSIGNMENT (  '', '', ( #245 ) ) ;
#293 = ADVANCED_FACE ( 'NONE', ( #142 ), #64, .T. ) ;
#294 = PRESENTATION_LAYER_ASSIGNMENT (  '', '', ( #102 ) ) ;
#295 = PRODUCT_CONTEXT ( 'NONE', #33, 'mechanical' ) ;
#296 =( NAMED_UNIT ( * ) PLANE_ANGLE_UNIT ( ) SI_UNIT ( $, .RADIAN. ) );
#297 = ORIENTED_EDGE ( 'NONE', *, *, #6, .T. ) ;
#298 = LENGTH_MEASURE_WITH_UNIT ( LENGTH_MEASURE( 0.02539999999999999897 ), #63 );
#299 = CARTESIAN_POINT ( 'NONE',  ( 0.2187499999999999445, 2.750000000000000000, 0.000000000000000000 ) ) ;
#300 = SURFACE_STYLE_USAGE ( .BOTH. , #20 ) ;
#301 = VECTOR ( 'NONE', #287, 39.37007874015748143 ) ;
#302 = FACE_OUTER_BOUND ( 'NONE', #263, .T. ) ;
#303 = STYLED_ITEM ( 'NONE', ( #34 ), #198 ) ;
#304 = UNCERTAINTY_MEASURE_WITH_UNIT (LENGTH_MEASURE( 1.000000000000000082E-05 ), #55, 'distance_accuracy_value', 'NONE');
#305 = ORIENTED_EDGE ( 'NONE', *, *, #37, .T. ) ;
#306 = ORIENTED_EDGE ( 'NONE', *, *, #220, .T. ) ;
#307 = ORIENTED_EDGE ( 'NONE', *, *, #128, .F. ) ;
#308 = LINE ( 'NONE', #237, #301 ) ;
#309 = LINE ( 'NONE', #191, #12 ) ;
ENDSEC;
END-ISO-10303-21;
