ISO-10303-21;
HEADER;
FILE_DESCRIPTION (( 'STEP AP214' ),
    '1' );
FILE_NAME ('Micro_BEM-312-04X.STEP',
    '2021-09-03T13:11:46',
    ( '' ),
    ( '' ),
    'SwSTEP 2.0',
    'SolidWorks 2020',
    '' );
FILE_SCHEMA (( 'AUTOMOTIVE_DESIGN' ));
ENDSEC;

DATA;
#1 = DIRECTION ( 'NONE',  ( 1.224646799147353207E-16, 0.0000000000000000000, 1.000000000000000000 ) ) ;
#2 = EDGE_CURVE ( 'NONE', #213, #191, #57, .T. ) ;
#3 = DIRECTION ( 'NONE',  ( 1.000000000000000000, 0.0000000000000000000, 0.0000000000000000000 ) ) ;
#4 = CARTESIAN_POINT ( 'NONE',  ( 1.911597113044071690E-17, 0.0000000000000000000, 0.1560937499999999756 ) ) ;
#5 = ADVANCED_FACE ( 'NONE', ( #251 ), #199, .T. ) ;
#6 = CONICAL_SURFACE ( 'NONE', #14, 0.1560937499999999756, 0.1745329251994338915 ) ;
#7 = DIRECTION ( 'NONE',  ( -1.224646799147353207E-16, -0.0000000000000000000, -1.000000000000000000 ) ) ;
#8 = SURFACE_STYLE_FILL_AREA ( #140 ) ;
#9 = EDGE_LOOP ( 'NONE', ( #243, #122, #288, #193 ) ) ;
#10 = DIRECTION ( 'NONE',  ( 0.1736481776669313859, 0.0000000000000000000, 0.9848077530122077983 ) ) ;
#11 = EDGE_LOOP ( 'NONE', ( #316, #178, #119 ) ) ;
#12 = DIRECTION ( 'NONE',  ( -1.000000000000000000, 0.0000000000000000000, 1.224646799147353454E-16 ) ) ;
#13 = ORIENTED_EDGE ( 'NONE', *, *, #124, .F. ) ;
#14 = AXIS2_PLACEMENT_3D ( 'NONE', #245, #173, #153 ) ;
#15 =( GEOMETRIC_REPRESENTATION_CONTEXT ( 3 ) GLOBAL_UNCERTAINTY_ASSIGNED_CONTEXT ( ( #61 ) ) GLOBAL_UNIT_ASSIGNED_CONTEXT ( ( #313, #309, #264 ) ) REPRESENTATION_CONTEXT ( 'NONE', 'WORKASPACE' ) );
#16 = EDGE_LOOP ( 'NONE', ( #221, #215 ) ) ;
#17 = APPLICATION_CONTEXT ( 'automotive_design' ) ;
#18 = ADVANCED_FACE ( 'NONE', ( #297 ), #6, .T. ) ;
#19 = CLOSED_SHELL ( 'NONE', ( #159, #325, #179, #284, #303, #108, #222, #5, #18, #268, #211 ) ) ;
#20 = DIRECTION ( 'NONE',  ( -1.000000000000000000, 0.0000000000000000000, 0.0000000000000000000 ) ) ;
#21 = AXIS2_PLACEMENT_3D ( 'NONE', #160, #278, #33 ) ;
#22 = AXIS2_PLACEMENT_3D ( 'NONE', #212, #144, #12 ) ;
#23 = PRESENTATION_STYLE_ASSIGNMENT (( #274 ) ) ;
#24 = CARTESIAN_POINT ( 'NONE',  ( 0.1560937499999999756, 1.911597113044071690E-17, -1.911597113044071690E-17 ) ) ;
#25 = ORIENTED_EDGE ( 'NONE', *, *, #252, .T. ) ;
#26 = CONICAL_SURFACE ( 'NONE', #127, 0.1412499999999994871, 0.7853981633974391752 ) ;
#27 = LENGTH_MEASURE_WITH_UNIT ( LENGTH_MEASURE( 0.02539999999999999897 ), #51 );
#28 = CARTESIAN_POINT ( 'NONE',  ( 1.911597113044071690E-17, 0.0000000000000000000, 0.1560937499999999756 ) ) ;
#29 = FACE_OUTER_BOUND ( 'NONE', #16, .T. ) ;
#30 = MECHANICAL_DESIGN_GEOMETRIC_PRESENTATION_REPRESENTATION (  '', ( #294 ), #317 ) ;
#31 = AXIS2_PLACEMENT_3D ( 'NONE', #72, #311, #310 ) ;
#32 = CARTESIAN_POINT ( 'NONE',  ( 2.867395669566107843E-17, 0.0000000000000000000, 0.0000000000000000000 ) ) ;
#33 = DIRECTION ( 'NONE',  ( 1.000000000000000000, 0.0000000000000000000, 0.0000000000000000000 ) ) ;
#34 = FACE_OUTER_BOUND ( 'NONE', #266, .T. ) ;
#35 = EDGE_CURVE ( 'NONE', #123, #170, #281, .T. ) ;
#36 = SURFACE_SIDE_STYLE ('',( #8 ) ) ;
#37 = CIRCLE ( 'NONE', #282, 0.1412499999999994871 ) ;
#38 = ORIENTED_EDGE ( 'NONE', *, *, #164, .T. ) ;
#39 = DIRECTION ( 'NONE',  ( -0.7071067811865410224, 0.0000000000000000000, -0.7071067811865539010 ) ) ;
#40 = ORIENTED_EDGE ( 'NONE', *, *, #164, .F. ) ;
#41 = ORIENTED_EDGE ( 'NONE', *, *, #117, .T. ) ;
#42 = DIRECTION ( 'NONE',  ( 0.0000000000000000000, 0.0000000000000000000, -1.000000000000000000 ) ) ;
#43 = EDGE_LOOP ( 'NONE', ( #71, #105, #77, #94 ) ) ;
#44 = CARTESIAN_POINT ( 'NONE',  ( -0.1412499999999994871, 0.0000000000000000000, 2.500000000000000000 ) ) ;
#45 = EDGE_CURVE ( 'NONE', #67, #138, #257, .T. ) ;
#46 = ORIENTED_EDGE ( 'NONE', *, *, #148, .F. ) ;
#47 = DIRECTION ( 'NONE',  ( -0.0000000000000000000, -0.0000000000000000000, -1.000000000000000000 ) ) ;
#48 = DIRECTION ( 'NONE',  ( 1.000000000000000000, 0.0000000000000000000, 0.0000000000000000000 ) ) ;
#49 = ORIENTED_EDGE ( 'NONE', *, *, #172, .T. ) ;
#50 = CARTESIAN_POINT ( 'NONE',  ( 9.967230535079632947E-17, 0.0000000000000000000, 0.8138861377843152889 ) ) ;
#51 =( LENGTH_UNIT ( ) NAMED_UNIT ( * ) SI_UNIT ( $, .METRE. ) );
#52 = AXIS2_PLACEMENT_3D ( 'NONE', #322, #301, #107 ) ;
#53 = CARTESIAN_POINT ( 'NONE',  ( -0.1562499999999999167, 0.0000000000000000000, 0.8138861377843152889 ) ) ;
#54 = EDGE_CURVE ( 'NONE', #170, #191, #270, .T. ) ;
#55 = DIRECTION ( 'NONE',  ( 0.0000000000000000000, -1.000000000000000000, 0.0000000000000000000 ) ) ;
#56 = DIRECTION ( 'NONE',  ( 0.0000000000000000000, 1.000000000000000000, 0.0000000000000000000 ) ) ;
#57 = CIRCLE ( 'NONE', #73, 0.1562500000000000000 ) ;
#58 = AXIS2_PLACEMENT_3D ( 'NONE', #112, #304, #279 ) ;
#59 = CIRCLE ( 'NONE', #90, 0.1560937499999999756 ) ;
#60 = DIRECTION ( 'NONE',  ( -1.000000000000000000, 0.0000000000000000000, 2.187666060992403218E-16 ) ) ;
#61 = UNCERTAINTY_MEASURE_WITH_UNIT (LENGTH_MEASURE( 1.000000000000000082E-05 ), #313, 'distance_accuracy_value', 'NONE');
#62 = PRODUCT_DEFINITION_SHAPE ( 'NONE', 'NONE',  #246 ) ;
#63 = EDGE_CURVE ( 'NONE', #191, #213, #120, .T. ) ;
#64 = CARTESIAN_POINT ( 'NONE',  ( 9.956378477067980482E-17, 0.0000000000000000000, 0.8129999999999999449 ) ) ;
#65 = CARTESIAN_POINT ( 'NONE',  ( 0.0000000000000000000, 0.0000000000000000000, 2.500000000000000000 ) ) ;
#66 = EDGE_CURVE ( 'NONE', #229, #138, #250, .T. ) ;
#67 = VERTEX_POINT ( 'NONE', #196 ) ;
#68 =( LENGTH_UNIT ( ) NAMED_UNIT ( * ) SI_UNIT ( $, .METRE. ) );
#69 = ORIENTED_EDGE ( 'NONE', *, *, #139, .T. ) ;
#70 = FACE_OUTER_BOUND ( 'NONE', #9, .T. ) ;
#71 = ORIENTED_EDGE ( 'NONE', *, *, #172, .F. ) ;
#72 = CARTESIAN_POINT ( 'NONE',  ( 0.0000000000000000000, 0.0000000000000000000, 0.0000000000000000000 ) ) ;
#73 = AXIS2_PLACEMENT_3D ( 'NONE', #272, #248, #48 ) ;
#74 = VERTEX_POINT ( 'NONE', #156 ) ;
#75 = AXIS2_PLACEMENT_3D ( 'NONE', #232, #55, #254 ) ;
#76 =( NAMED_UNIT ( * ) SI_UNIT ( $, .STERADIAN. ) SOLID_ANGLE_UNIT ( ) );
#77 = ORIENTED_EDGE ( 'NONE', *, *, #230, .T. ) ;
#78 = ORIENTED_EDGE ( 'NONE', *, *, #139, .F. ) ;
#79 = ORIENTED_EDGE ( 'NONE', *, *, #35, .T. ) ;
#80 = LENGTH_MEASURE_WITH_UNIT ( LENGTH_MEASURE( 0.02539999999999999897 ), #121 );
#81 = SURFACE_STYLE_FILL_AREA ( #125 ) ;
#82 = DIMENSIONAL_EXPONENTS ( 1.000000000000000000, 0.0000000000000000000, 0.0000000000000000000, 0.0000000000000000000, 0.0000000000000000000, 0.0000000000000000000, 0.0000000000000000000 ) ;
#83 = DIRECTION ( 'NONE',  ( 1.000000000000000000, 0.0000000000000000000, 0.0000000000000000000 ) ) ;
#84 = CIRCLE ( 'NONE', #58, 0.1560937499999999756 ) ;
#85 = CARTESIAN_POINT ( 'NONE',  ( 0.1562500000000000000, 1.913510623667739463E-17, 2.484999999999999432 ) ) ;
#86 = MANIFOLD_SOLID_BREP ( 'Fillet1', #19 ) ;
#87 = DIRECTION ( 'NONE',  ( 1.000000000000000000, 0.0000000000000000000, -0.0000000000000000000 ) ) ;
#88 = PRODUCT_RELATED_PRODUCT_CATEGORY ( 'part', '', ( #231 ) ) ;
#89 = DIRECTION ( 'NONE',  ( -1.000000000000000000, 0.0000000000000000000, 0.0000000000000000000 ) ) ;
#90 = AXIS2_PLACEMENT_3D ( 'NONE', #276, #181, #132 ) ;
#91 = CARTESIAN_POINT ( 'NONE',  ( -0.1560937499999998923, 1.911597113044071690E-17, 0.8129999999999999449 ) ) ;
#92 = DIRECTION ( 'NONE',  ( -1.000000000000000000, 0.0000000000000000000, 0.0000000000000000000 ) ) ;
#93 = DIRECTION ( 'NONE',  ( -0.0000000000000000000, -0.0000000000000000000, -1.000000000000000000 ) ) ;
#94 = ORIENTED_EDGE ( 'NONE', *, *, #63, .T. ) ;
#95 = VECTOR ( 'NONE', #47, 39.37007874015748143 ) ;
#96 = DIRECTION ( 'NONE',  ( 1.000000000000000000, 0.0000000000000000000, 0.0000000000000000000 ) ) ;
#97 = VERTEX_POINT ( 'NONE', #165 ) ;
#98 = DIRECTION ( 'NONE',  ( -1.000000000000000000, 0.0000000000000000000, 0.0000000000000000000 ) ) ;
#99 = ORIENTED_EDGE ( 'NONE', *, *, #273, .F. ) ;
#100 = LENGTH_MEASURE_WITH_UNIT ( LENGTH_MEASURE( 0.02539999999999999897 ), #68 );
#101 = ORIENTED_EDGE ( 'NONE', *, *, #35, .F. ) ;
#102 = AXIS2_PLACEMENT_3D ( 'NONE', #50, #151, #202 ) ;
#103 = VECTOR ( 'NONE', #130, 39.37007874015747433 ) ;
#104 = EDGE_LOOP ( 'NONE', ( #79, #293, #290, #78 ) ) ;
#105 = ORIENTED_EDGE ( 'NONE', *, *, #198, .F. ) ;
#106 =( NAMED_UNIT ( * ) SI_UNIT ( $, .STERADIAN. ) SOLID_ANGLE_UNIT ( ) );
#107 = DIRECTION ( 'NONE',  ( 1.000000000000000000, 0.0000000000000000000, 0.0000000000000000000 ) ) ;
#108 = ADVANCED_FACE ( 'NONE', ( #174 ), #158, .T. ) ;
#109 = DIRECTION ( 'NONE',  ( 1.000000000000000000, 0.0000000000000000000, 0.0000000000000000000 ) ) ;
#110 = CARTESIAN_POINT ( 'NONE',  ( 0.0000000000000000000, 0.0000000000000000000, 2.500000000000000000 ) ) ;
#111 = AXIS2_PLACEMENT_3D ( 'NONE', #28, #256, #3 ) ;
#112 = CARTESIAN_POINT ( 'NONE',  ( 1.911597113044071690E-17, 0.0000000000000000000, 0.1560937499999999756 ) ) ;
#113 = CARTESIAN_POINT ( 'NONE',  ( 0.1562500000000001110, 1.913510623667740388E-17, 0.8138861377843152889 ) ) ;
#114 = CARTESIAN_POINT ( 'NONE',  ( 0.1412499999999994871, 1.729813603795630110E-17, 2.500000000000000000 ) ) ;
#115 = VECTOR ( 'NONE', #302, 39.37007874015748143 ) ;
#116 = CYLINDRICAL_SURFACE ( 'NONE', #162, 0.1562500000000000000 ) ;
#117 = EDGE_CURVE ( 'NONE', #228, #67, #84, .T. ) ;
#118 = FACE_OUTER_BOUND ( 'NONE', #244, .T. ) ;
#119 = ORIENTED_EDGE ( 'NONE', *, *, #45, .F. ) ;
#120 = CIRCLE ( 'NONE', #102, 0.1562500000000000000 ) ;
#121 =( LENGTH_UNIT ( ) NAMED_UNIT ( * ) SI_UNIT ( $, .METRE. ) );
#122 = ORIENTED_EDGE ( 'NONE', *, *, #66, .T. ) ;
#123 = VERTEX_POINT ( 'NONE', #163 ) ;
#124 = EDGE_CURVE ( 'NONE', #170, #123, #143, .T. ) ;
#125 = FILL_AREA_STYLE ('',( #296 ) ) ;
#126 = EDGE_LOOP ( 'NONE', ( #217, #241, #69, #150 ) ) ;
#127 = AXIS2_PLACEMENT_3D ( 'NONE', #188, #42, #92 ) ;
#128 = CARTESIAN_POINT ( 'NONE',  ( 0.1412499999999994871, 1.821662113731684786E-17, 2.500000000000000000 ) ) ;
#129 = EDGE_CURVE ( 'NONE', #97, #219, #205, .T. ) ;
#130 = DIRECTION ( 'NONE',  ( -0.1736481776669311916, 2.126576849575783316E-17, 0.9848077530122080203 ) ) ;
#131 = AXIS2_PLACEMENT_3D ( 'NONE', #249, #320, #20 ) ;
#132 = DIRECTION ( 'NONE',  ( -1.000000000000000000, 0.0000000000000000000, 0.0000000000000000000 ) ) ;
#133 = CARTESIAN_POINT ( 'NONE',  ( 1.911597113044071690E-17, 0.0000000000000000000, 0.1560937499999999756 ) ) ;
#134 = DIRECTION ( 'NONE',  ( -0.0000000000000000000, -0.0000000000000000000, -1.000000000000000000 ) ) ;
#135 =( GEOMETRIC_REPRESENTATION_CONTEXT ( 3 ) GLOBAL_UNCERTAINTY_ASSIGNED_CONTEXT ( ( #261 ) ) GLOBAL_UNIT_ASSIGNED_CONTEXT ( ( #149, #195, #76 ) ) REPRESENTATION_CONTEXT ( 'NONE', 'WORKASPACE' ) );
#136 = PRODUCT_DEFINITION_CONTEXT ( 'detailed design', #17, 'design' ) ;
#137 = SURFACE_STYLE_USAGE ( .BOTH. , #36 ) ;
#138 = VERTEX_POINT ( 'NONE', #305 ) ;
#139 = EDGE_CURVE ( 'NONE', #123, #213, #260, .T. ) ;
#140 = FILL_AREA_STYLE ('',( #240 ) ) ;
#141 = EDGE_LOOP ( 'NONE', ( #40, #167, #200, #13 ) ) ;
#142 = PRESENTATION_LAYER_ASSIGNMENT (  '', '', ( #294 ) ) ;
#143 = CIRCLE ( 'NONE', #21, 0.1562500000000000000 ) ;
#144 = DIRECTION ( 'NONE',  ( -1.224646799147353207E-16, -0.0000000000000000000, -1.000000000000000000 ) ) ;
#145 = PRESENTATION_LAYER_ASSIGNMENT (  '', '', ( #210 ) ) ;
#146 = DIMENSIONAL_EXPONENTS ( 1.000000000000000000, 0.0000000000000000000, 0.0000000000000000000, 0.0000000000000000000, 0.0000000000000000000, 0.0000000000000000000, 0.0000000000000000000 ) ;
#147 = ORIENTED_EDGE ( 'NONE', *, *, #230, .F. ) ;
#148 = EDGE_CURVE ( 'NONE', #138, #67, #185, .T. ) ;
#149 =( CONVERSION_BASED_UNIT ( 'INCH', #80 ) LENGTH_UNIT ( ) NAMED_UNIT ( #154 ) );
#150 = ORIENTED_EDGE ( 'NONE', *, *, #63, .F. ) ;
#151 = DIRECTION ( 'NONE',  ( -1.224646799147353207E-16, -0.0000000000000000000, -1.000000000000000000 ) ) ;
#152 = AXIS2_PLACEMENT_3D ( 'NONE', #133, #56, #83 ) ;
#153 = DIRECTION ( 'NONE',  ( 1.000000000000000000, 0.0000000000000000000, 0.0000000000000000000 ) ) ;
#154 = DIMENSIONAL_EXPONENTS ( 1.000000000000000000, 0.0000000000000000000, 0.0000000000000000000, 0.0000000000000000000, 0.0000000000000000000, 0.0000000000000000000, 0.0000000000000000000 ) ;
#155 = DIRECTION ( 'NONE',  ( 1.224646799147353207E-16, 0.0000000000000000000, 1.000000000000000000 ) ) ;
#156 = CARTESIAN_POINT ( 'NONE',  ( -0.1560937499999998923, 1.912553868355905422E-17, 0.8129999999999999449 ) ) ;
#157 = AXIS2_PLACEMENT_3D ( 'NONE', #64, #1, #109 ) ;
#158 = CYLINDRICAL_SURFACE ( 'NONE', #161, 0.1562500000000000000 ) ;
#159 = ADVANCED_FACE ( 'NONE', ( #34 ), #306, .T. ) ;
#160 = CARTESIAN_POINT ( 'NONE',  ( 0.0000000000000000000, 0.0000000000000000000, 2.484999999999999432 ) ) ;
#161 = AXIS2_PLACEMENT_3D ( 'NONE', #110, #183, #89 ) ;
#162 = AXIS2_PLACEMENT_3D ( 'NONE', #65, #93, #192 ) ;
#163 = CARTESIAN_POINT ( 'NONE',  ( -0.1562500000000000000, 0.0000000000000000000, 2.484999999999999432 ) ) ;
#164 = EDGE_CURVE ( 'NONE', #219, #170, #180, .T. ) ;
#165 = CARTESIAN_POINT ( 'NONE',  ( -0.1412499999999994871, 0.0000000000000000000, 2.500000000000000000 ) ) ;
#166 = CYLINDRICAL_SURFACE ( 'NONE', #22, 0.1560937499999999756 ) ;
#167 = ORIENTED_EDGE ( 'NONE', *, *, #129, .F. ) ;
#168 = DIRECTION ( 'NONE',  ( -1.224646799147353207E-16, -0.0000000000000000000, -1.000000000000000000 ) ) ;
#169 = EDGE_LOOP ( 'NONE', ( #312, #38, #101, #239 ) ) ;
#170 = VERTEX_POINT ( 'NONE', #85 ) ;
#171 = APPLICATION_PROTOCOL_DEFINITION ( 'draft international standard', 'automotive_design', 1998, #17 ) ;
#172 = EDGE_CURVE ( 'NONE', #74, #213, #209, .T. ) ;
#173 = DIRECTION ( 'NONE',  ( 1.224646799147353207E-16, 0.0000000000000000000, 1.000000000000000000 ) ) ;
#174 = FACE_OUTER_BOUND ( 'NONE', #126, .T. ) ;
#175 = VECTOR ( 'NONE', #168, 39.37007874015748143 ) ;
#176 = DIRECTION ( 'NONE',  ( 1.000000000000000000, 0.0000000000000000000, 0.0000000000000000000 ) ) ;
#177 = CARTESIAN_POINT ( 'NONE',  ( 0.1562500000000000000, 1.913510623667739463E-17, 2.500000000000000000 ) ) ;
#178 = ORIENTED_EDGE ( 'NONE', *, *, #220, .T. ) ;
#179 = ADVANCED_FACE ( 'NONE', ( #283 ), #300, .T. ) ;
#180 = LINE ( 'NONE', #114, #259 ) ;
#181 = DIRECTION ( 'NONE',  ( -1.224646799147353207E-16, -0.0000000000000000000, -1.000000000000000000 ) ) ;
#182 = CARTESIAN_POINT ( 'NONE',  ( 0.0000000000000000000, 0.0000000000000000000, 2.500000000000000000 ) ) ;
#183 = DIRECTION ( 'NONE',  ( -0.0000000000000000000, -0.0000000000000000000, -1.000000000000000000 ) ) ;
#184 = UNCERTAINTY_MEASURE_WITH_UNIT (LENGTH_MEASURE( 1.000000000000000082E-05 ), #321, 'distance_accuracy_value', 'NONE');
#185 = CIRCLE ( 'NONE', #289, 0.1560937499999999756 ) ;
#186 = AXIS2_PLACEMENT_3D ( 'NONE', #225, #224, #176 ) ;
#187 = DIRECTION ( 'NONE',  ( 0.7071067811865410224, 8.659560562354852739E-17, -0.7071067811865539010 ) ) ;
#188 = CARTESIAN_POINT ( 'NONE',  ( 0.0000000000000000000, 0.0000000000000000000, 2.500000000000000000 ) ) ;
#189 = ORIENTED_EDGE ( 'NONE', *, *, #66, .F. ) ;
#190 = LINE ( 'NONE', #44, #194 ) ;
#191 = VERTEX_POINT ( 'NONE', #113 ) ;
#192 = DIRECTION ( 'NONE',  ( -1.000000000000000000, 0.0000000000000000000, 0.0000000000000000000 ) ) ;
#193 = ORIENTED_EDGE ( 'NONE', *, *, #252, .F. ) ;
#194 = VECTOR ( 'NONE', #39, 39.37007874015748854 ) ;
#195 =( NAMED_UNIT ( * ) PLANE_ANGLE_UNIT ( ) SI_UNIT ( $, .RADIAN. ) );
#196 = CARTESIAN_POINT ( 'NONE',  ( -0.1560937499999999478, 0.0000000000000000000, 0.1560937500000000311 ) ) ;
#197 = ORIENTED_EDGE ( 'NONE', *, *, #45, .T. ) ;
#198 = EDGE_CURVE ( 'NONE', #229, #74, #59, .T. ) ;
#199 = CONICAL_SURFACE ( 'NONE', #131, 0.1412499999999994871, 0.7853981633974391752 ) ;
#200 = ORIENTED_EDGE ( 'NONE', *, *, #255, .T. ) ;
#201 = COLOUR_RGB ( '',0.7921568627450980005, 0.8196078431372548767, 0.9333333333333333481 ) ;
#202 = DIRECTION ( 'NONE',  ( 1.000000000000000000, 0.0000000000000000000, 0.0000000000000000000 ) ) ;
#203 = FACE_OUTER_BOUND ( 'NONE', #11, .T. ) ;
#204 = DIRECTION ( 'NONE',  ( 0.0000000000000000000, 0.0000000000000000000, 1.000000000000000000 ) ) ;
#205 = CIRCLE ( 'NONE', #247, 0.1412499999999994871 ) ;
#206 = AXIS2_PLACEMENT_3D ( 'NONE', #182, #207, #87 ) ;
#207 = DIRECTION ( 'NONE',  ( 0.0000000000000000000, 0.0000000000000000000, 1.000000000000000000 ) ) ;
#208 = CARTESIAN_POINT ( 'NONE',  ( 0.1560937500000000866, 0.0000000000000000000, 0.8129999999999999449 ) ) ;
#209 = LINE ( 'NONE', #91, #103 ) ;
#210 = STYLED_ITEM ( 'NONE', ( #218 ), #258 ) ;
#211 = ADVANCED_FACE ( 'NONE', ( #203 ), #253, .T. ) ;
#212 = CARTESIAN_POINT ( 'NONE',  ( 0.0000000000000000000, 0.0000000000000000000, 0.0000000000000000000 ) ) ;
#213 = VERTEX_POINT ( 'NONE', #53 ) ;
#214 = CARTESIAN_POINT ( 'NONE',  ( 0.0000000000000000000, 0.0000000000000000000, 2.500000000000000000 ) ) ;
#215 = ORIENTED_EDGE ( 'NONE', *, *, #277, .T. ) ;
#216 = CIRCLE ( 'NONE', #242, 0.1560937499999999756 ) ;
#217 = ORIENTED_EDGE ( 'NONE', *, *, #54, .F. ) ;
#218 = PRESENTATION_STYLE_ASSIGNMENT (( #137 ) ) ;
#219 = VERTEX_POINT ( 'NONE', #128 ) ;
#220 = EDGE_CURVE ( 'NONE', #228, #138, #295, .T. ) ;
#221 = ORIENTED_EDGE ( 'NONE', *, *, #129, .T. ) ;
#222 = ADVANCED_FACE ( 'NONE', ( #29 ), #233, .T. ) ;
#223 = AXIS2_PLACEMENT_3D ( 'NONE', #324, #155, #226 ) ;
#224 = DIRECTION ( 'NONE',  ( 0.0000000000000000000, 0.0000000000000000000, 1.000000000000000000 ) ) ;
#225 = CARTESIAN_POINT ( 'NONE',  ( 0.0000000000000000000, 0.0000000000000000000, 0.0000000000000000000 ) ) ;
#226 = DIRECTION ( 'NONE',  ( -1.000000000000000000, 0.0000000000000000000, 2.187666060992403218E-16 ) ) ;
#227 = APPLICATION_CONTEXT ( 'automotive_design' ) ;
#228 = VERTEX_POINT ( 'NONE', #32 ) ;
#229 = VERTEX_POINT ( 'NONE', #208 ) ;
#230 = EDGE_CURVE ( 'NONE', #229, #191, #234, .T. ) ;
#231 = PRODUCT ( 'Micro_BEM-312-04X', 'Micro_BEM-312-04X', '', ( #298 ) ) ;
#232 = CARTESIAN_POINT ( 'NONE',  ( 1.911597113044071690E-17, 0.0000000000000000000, 0.1560937499999999756 ) ) ;
#233 = PLANE ( 'NONE',  #206 ) ;
#234 = LINE ( 'NONE', #307, #267 ) ;
#235 = DIRECTION ( 'NONE',  ( 1.000000000000000000, 0.0000000000000000000, 0.0000000000000000000 ) ) ;
#236 = FACE_OUTER_BOUND ( 'NONE', #169, .T. ) ;
#237 = CYLINDRICAL_SURFACE ( 'NONE', #31, 0.1560937499999999756 ) ;
#238 = LINE ( 'NONE', #265, #175 ) ;
#239 = ORIENTED_EDGE ( 'NONE', *, *, #255, .F. ) ;
#240 = FILL_AREA_STYLE_COLOUR ( '', #201 ) ;
#241 = ORIENTED_EDGE ( 'NONE', *, *, #124, .T. ) ;
#242 = AXIS2_PLACEMENT_3D ( 'NONE', #291, #7, #98 ) ;
#243 = ORIENTED_EDGE ( 'NONE', *, *, #273, .T. ) ;
#244 = EDGE_LOOP ( 'NONE', ( #189, #314, #25, #197 ) ) ;
#245 = CARTESIAN_POINT ( 'NONE',  ( 9.956378477067980482E-17, 0.0000000000000000000, 0.8129999999999999449 ) ) ;
#246 = PRODUCT_DEFINITION ( 'UNKNOWN', '', #318, #136 ) ;
#247 = AXIS2_PLACEMENT_3D ( 'NONE', #262, #204, #235 ) ;
#248 = DIRECTION ( 'NONE',  ( -1.224646799147353207E-16, -0.0000000000000000000, -1.000000000000000000 ) ) ;
#249 = CARTESIAN_POINT ( 'NONE',  ( 0.0000000000000000000, 0.0000000000000000000, 2.500000000000000000 ) ) ;
#250 = LINE ( 'NONE', #24, #115 ) ;
#251 = FACE_OUTER_BOUND ( 'NONE', #141, .T. ) ;
#252 = EDGE_CURVE ( 'NONE', #74, #67, #238, .T. ) ;
#253 = SPHERICAL_SURFACE ( 'NONE', #111, 0.1560937499999999756 ) ;
#254 = DIRECTION ( 'NONE',  ( 0.0000000000000000000, 0.0000000000000000000, -1.000000000000000000 ) ) ;
#255 = EDGE_CURVE ( 'NONE', #97, #123, #190, .T. ) ;
#256 = DIRECTION ( 'NONE',  ( 0.0000000000000000000, 1.000000000000000000, 0.0000000000000000000 ) ) ;
#257 = CIRCLE ( 'NONE', #223, 0.1560937499999999756 ) ;
#258 = ADVANCED_BREP_SHAPE_REPRESENTATION ( 'Micro_BEM-312-04X', ( #86, #186 ), #15 ) ;
#259 = VECTOR ( 'NONE', #187, 39.37007874015748854 ) ;
#260 = LINE ( 'NONE', #280, #323 ) ;
#261 = UNCERTAINTY_MEASURE_WITH_UNIT (LENGTH_MEASURE( 1.000000000000000082E-05 ), #149, 'distance_accuracy_value', 'NONE');
#262 = CARTESIAN_POINT ( 'NONE',  ( 0.0000000000000000000, 0.0000000000000000000, 2.500000000000000000 ) ) ;
#263 = EDGE_LOOP ( 'NONE', ( #99, #49, #286, #147 ) ) ;
#264 =( NAMED_UNIT ( * ) SI_UNIT ( $, .STERADIAN. ) SOLID_ANGLE_UNIT ( ) );
#265 = CARTESIAN_POINT ( 'NONE',  ( -0.1560937499999999756, 0.0000000000000000000, 1.911597113044071690E-17 ) ) ;
#266 = EDGE_LOOP ( 'NONE', ( #315, #41, #46 ) ) ;
#267 = VECTOR ( 'NONE', #10, 39.37007874015748143 ) ;
#268 = ADVANCED_FACE ( 'NONE', ( #118 ), #237, .T. ) ;
#269 = SURFACE_SIDE_STYLE ('',( #81 ) ) ;
#270 = LINE ( 'NONE', #177, #95 ) ;
#271 = COLOUR_RGB ( '',0.7921568627450980005, 0.8196078431372548767, 0.9333333333333333481 ) ;
#272 = CARTESIAN_POINT ( 'NONE',  ( 9.967230535079632947E-17, 0.0000000000000000000, 0.8138861377843152889 ) ) ;
#273 = EDGE_CURVE ( 'NONE', #74, #229, #216, .T. ) ;
#274 = SURFACE_STYLE_USAGE ( .BOTH. , #269 ) ;
#275 = MECHANICAL_DESIGN_GEOMETRIC_PRESENTATION_REPRESENTATION (  '', ( #210 ), #135 ) ;
#276 = CARTESIAN_POINT ( 'NONE',  ( 9.956378477067980482E-17, 0.0000000000000000000, 0.8129999999999999449 ) ) ;
#277 = EDGE_CURVE ( 'NONE', #219, #97, #37, .T. ) ;
#278 = DIRECTION ( 'NONE',  ( 0.0000000000000000000, 0.0000000000000000000, -1.000000000000000000 ) ) ;
#279 = DIRECTION ( 'NONE',  ( -1.000000000000000000, 1.224646799147353454E-16, 0.0000000000000000000 ) ) ;
#280 = CARTESIAN_POINT ( 'NONE',  ( -0.1562500000000000000, 0.0000000000000000000, 2.500000000000000000 ) ) ;
#281 = CIRCLE ( 'NONE', #52, 0.1562500000000000000 ) ;
#282 = AXIS2_PLACEMENT_3D ( 'NONE', #214, #287, #96 ) ;
#283 = FACE_OUTER_BOUND ( 'NONE', #263, .T. ) ;
#284 = ADVANCED_FACE ( 'NONE', ( #236 ), #26, .T. ) ;
#285 = FACE_OUTER_BOUND ( 'NONE', #104, .T. ) ;
#286 = ORIENTED_EDGE ( 'NONE', *, *, #2, .T. ) ;
#287 = DIRECTION ( 'NONE',  ( 0.0000000000000000000, 0.0000000000000000000, 1.000000000000000000 ) ) ;
#288 = ORIENTED_EDGE ( 'NONE', *, *, #148, .T. ) ;
#289 = AXIS2_PLACEMENT_3D ( 'NONE', #4, #308, #60 ) ;
#290 = ORIENTED_EDGE ( 'NONE', *, *, #2, .F. ) ;
#291 = CARTESIAN_POINT ( 'NONE',  ( 9.956378477067980482E-17, 0.0000000000000000000, 0.8129999999999999449 ) ) ;
#292 = APPLICATION_PROTOCOL_DEFINITION ( 'draft international standard', 'automotive_design', 1998, #227 ) ;
#293 = ORIENTED_EDGE ( 'NONE', *, *, #54, .T. ) ;
#294 = STYLED_ITEM ( 'NONE', ( #23 ), #86 ) ;
#295 = CIRCLE ( 'NONE', #75, 0.1560937499999999756 ) ;
#296 = FILL_AREA_STYLE_COLOUR ( '', #271 ) ;
#297 = FACE_OUTER_BOUND ( 'NONE', #43, .T. ) ;
#298 = PRODUCT_CONTEXT ( 'NONE', #227, 'mechanical' ) ;
#299 =( NAMED_UNIT ( * ) PLANE_ANGLE_UNIT ( ) SI_UNIT ( $, .RADIAN. ) );
#300 = CONICAL_SURFACE ( 'NONE', #157, 0.1560937499999999756, 0.1745329251994338915 ) ;
#301 = DIRECTION ( 'NONE',  ( 0.0000000000000000000, 0.0000000000000000000, -1.000000000000000000 ) ) ;
#302 = DIRECTION ( 'NONE',  ( -1.224646799147353207E-16, -0.0000000000000000000, -1.000000000000000000 ) ) ;
#303 = ADVANCED_FACE ( 'NONE', ( #285 ), #116, .T. ) ;
#304 = DIRECTION ( 'NONE',  ( 1.224646799147353207E-16, 1.000000000000000000, -0.0000000000000000000 ) ) ;
#305 = CARTESIAN_POINT ( 'NONE',  ( 0.1560937500000000311, 1.911597113044071690E-17, 0.1560937499999999478 ) ) ;
#306 = SPHERICAL_SURFACE ( 'NONE', #152, 0.1560937499999999756 ) ;
#307 = CARTESIAN_POINT ( 'NONE',  ( 0.1560937500000000866, 0.0000000000000000000, 0.8129999999999999449 ) ) ;
#308 = DIRECTION ( 'NONE',  ( 1.224646799147353207E-16, 0.0000000000000000000, 1.000000000000000000 ) ) ;
#309 =( NAMED_UNIT ( * ) PLANE_ANGLE_UNIT ( ) SI_UNIT ( $, .RADIAN. ) );
#310 = DIRECTION ( 'NONE',  ( -1.000000000000000000, 0.0000000000000000000, 1.224646799147353454E-16 ) ) ;
#311 = DIRECTION ( 'NONE',  ( -1.224646799147353207E-16, -0.0000000000000000000, -1.000000000000000000 ) ) ;
#312 = ORIENTED_EDGE ( 'NONE', *, *, #277, .F. ) ;
#313 =( CONVERSION_BASED_UNIT ( 'INCH', #100 ) LENGTH_UNIT ( ) NAMED_UNIT ( #82 ) );
#314 = ORIENTED_EDGE ( 'NONE', *, *, #198, .T. ) ;
#315 = ORIENTED_EDGE ( 'NONE', *, *, #220, .F. ) ;
#316 = ORIENTED_EDGE ( 'NONE', *, *, #117, .F. ) ;
#317 =( GEOMETRIC_REPRESENTATION_CONTEXT ( 3 ) GLOBAL_UNCERTAINTY_ASSIGNED_CONTEXT ( ( #184 ) ) GLOBAL_UNIT_ASSIGNED_CONTEXT ( ( #321, #299, #106 ) ) REPRESENTATION_CONTEXT ( 'NONE', 'WORKASPACE' ) );
#318 = PRODUCT_DEFINITION_FORMATION_WITH_SPECIFIED_SOURCE ( 'ANY', '', #231, .NOT_KNOWN. ) ;
#319 = SHAPE_DEFINITION_REPRESENTATION ( #62, #258 ) ;
#320 = DIRECTION ( 'NONE',  ( 0.0000000000000000000, 0.0000000000000000000, -1.000000000000000000 ) ) ;
#321 =( CONVERSION_BASED_UNIT ( 'INCH', #27 ) LENGTH_UNIT ( ) NAMED_UNIT ( #146 ) );
#322 = CARTESIAN_POINT ( 'NONE',  ( 0.0000000000000000000, 0.0000000000000000000, 2.484999999999999432 ) ) ;
#323 = VECTOR ( 'NONE', #134, 39.37007874015748143 ) ;
#324 = CARTESIAN_POINT ( 'NONE',  ( 1.911597113044071690E-17, 0.0000000000000000000, 0.1560937499999999756 ) ) ;
#325 = ADVANCED_FACE ( 'NONE', ( #70 ), #166, .T. ) ;
ENDSEC;
END-ISO-10303-21;
