ISO-10303-21;
HEADER;
FILE_DESCRIPTION (( 'STEP AP214' ),
    '1' );
FILE_NAME ('Micro_SBM-250-3.STEP',
    '2021-09-02T17:01:37',
    ( '' ),
    ( '' ),
    'SwSTEP 2.0',
    'SolidWorks 2020',
    '' );
FILE_SCHEMA (( 'AUTOMOTIVE_DESIGN' ));
ENDSEC;

DATA;
#1 = DIRECTION ( 'NONE',  ( -1.000000000000000000, 0.0000000000000000000, 0.0000000000000000000 ) ) ;
#2 = CYLINDRICAL_SURFACE ( 'NONE', #327, 0.1250000000000000000 ) ;
#3 = AXIS2_PLACEMENT_3D ( 'NONE', #230, #306, #170 ) ;
#4 = FACE_OUTER_BOUND ( 'NONE', #312, .T. ) ;
#5 = FACE_OUTER_BOUND ( 'NONE', #203, .T. ) ;
#6 = FACE_OUTER_BOUND ( 'NONE', #229, .T. ) ;
#7 = AXIS2_PLACEMENT_3D ( 'NONE', #99, #129, #25 ) ;
#8 = AXIS2_PLACEMENT_3D ( 'NONE', #241, #248, #242 ) ;
#9 = ORIENTED_EDGE ( 'NONE', *, *, #307, .T. ) ;
#10 = EDGE_CURVE ( 'NONE', #283, #90, #279, .T. ) ;
#11 = DIRECTION ( 'NONE',  ( 0.0000000000000000000, 0.0000000000000000000, 1.000000000000000000 ) ) ;
#12 = ORIENTED_EDGE ( 'NONE', *, *, #52, .F. ) ;
#13 = CARTESIAN_POINT ( 'NONE',  ( 0.0000000000000000000, 0.0000000000000000000, 3.000000000000000444 ) ) ;
#14 = APPLICATION_CONTEXT ( 'automotive_design' ) ;
#15 = CARTESIAN_POINT ( 'NONE',  ( 0.0000000000000000000, 0.0000000000000000000, 1.199999999999999956 ) ) ;
#16 = VECTOR ( 'NONE', #51, 39.37007874015748143 ) ;
#17 = EDGE_CURVE ( 'NONE', #91, #222, #264, .T. ) ;
#18 = DIRECTION ( 'NONE',  ( -1.000000000000000000, 0.0000000000000000000, 0.0000000000000000000 ) ) ;
#19 = UNCERTAINTY_MEASURE_WITH_UNIT (LENGTH_MEASURE( 1.000000000000000082E-05 ), #167, 'distance_accuracy_value', 'NONE');
#20 = DIRECTION ( 'NONE',  ( -0.0000000000000000000, -0.0000000000000000000, -1.000000000000000000 ) ) ;
#21 = ORIENTED_EDGE ( 'NONE', *, *, #130, .F. ) ;
#22 = PRODUCT_CONTEXT ( 'NONE', #339, 'mechanical' ) ;
#23 = ORIENTED_EDGE ( 'NONE', *, *, #130, .T. ) ;
#24 = CARTESIAN_POINT ( 'NONE',  ( -0.1250000000000000000, 0.0000000000000000000, 3.000000000000000444 ) ) ;
#25 = DIRECTION ( 'NONE',  ( 0.0000000000000000000, 0.0000000000000000000, 1.000000000000000000 ) ) ;
#26 = EDGE_CURVE ( 'NONE', #222, #91, #127, .T. ) ;
#27 = FILL_AREA_STYLE ('',( #286 ) ) ;
#28 = CONICAL_SURFACE ( 'NONE', #246, 0.1100000000000004446, 0.7853981633974613796 ) ;
#29 = CARTESIAN_POINT ( 'NONE',  ( 0.09999999999999996392, 1.224646799147352807E-17, 0.0000000000000000000 ) ) ;
#30 = DIRECTION ( 'NONE',  ( -0.0000000000000000000, -0.0000000000000000000, -1.000000000000000000 ) ) ;
#31 = SPHERICAL_SURFACE ( 'NONE', #309, 0.1249999999999999861 ) ;
#32 = AXIS2_PLACEMENT_3D ( 'NONE', #66, #116, #253 ) ;
#33 = DIRECTION ( 'NONE',  ( 1.000000000000000000, 0.0000000000000000000, -0.0000000000000000000 ) ) ;
#34 = ADVANCED_FACE ( 'NONE', ( #169 ), #282, .T. ) ;
#35 = CARTESIAN_POINT ( 'NONE',  ( 0.0000000000000000000, 0.0000000000000000000, 0.1999999999999999833 ) ) ;
#36 = ORIENTED_EDGE ( 'NONE', *, *, #52, .T. ) ;
#37 = DIRECTION ( 'NONE',  ( -1.000000000000000000, 0.0000000000000000000, 0.0000000000000000000 ) ) ;
#38 = EDGE_LOOP ( 'NONE', ( #272, #36, #120, #336, #69 ) ) ;
#39 = CARTESIAN_POINT ( 'NONE',  ( 0.0000000000000000000, 0.0000000000000000000, 3.000000000000000444 ) ) ;
#40 = CIRCLE ( 'NONE', #192, 0.09999999999999997780 ) ;
#41 = ORIENTED_EDGE ( 'NONE', *, *, #26, .T. ) ;
#42 = DIRECTION ( 'NONE',  ( -0.0000000000000000000, -0.0000000000000000000, -1.000000000000000000 ) ) ;
#43 = CONICAL_SURFACE ( 'NONE', #139, 0.1100000000000004446, 0.7853981633974613796 ) ;
#44 = CARTESIAN_POINT ( 'NONE',  ( 0.0000000000000000000, 0.0000000000000000000, 3.000000000000000444 ) ) ;
#45 = CARTESIAN_POINT ( 'NONE',  ( 0.0000000000000000000, 0.0000000000000000000, 0.5000000000000000000 ) ) ;
#46 = VERTEX_POINT ( 'NONE', #141 ) ;
#47 = VECTOR ( 'NONE', #30, 39.37007874015748143 ) ;
#48 = AXIS2_PLACEMENT_3D ( 'NONE', #105, #112, #245 ) ;
#49 = PRESENTATION_STYLE_ASSIGNMENT (( #125 ) ) ;
#50 = ORIENTED_EDGE ( 'NONE', *, *, #165, .T. ) ;
#51 = DIRECTION ( 'NONE',  ( -0.03569153051241254898, 4.370951859869611905E-18, 0.9993628543475495674 ) ) ;
#52 = EDGE_CURVE ( 'NONE', #117, #171, #180, .T. ) ;
#53 = DIRECTION ( 'NONE',  ( 0.0000000000000000000, 0.0000000000000000000, 1.000000000000000000 ) ) ;
#54 = AXIS2_PLACEMENT_3D ( 'NONE', #39, #325, #65 ) ;
#55 = CARTESIAN_POINT ( 'NONE',  ( 0.0000000000000000000, 0.0000000000000000000, 3.000000000000000444 ) ) ;
#56 = DIRECTION ( 'NONE',  ( 1.000000000000000000, 0.0000000000000000000, 0.0000000000000000000 ) ) ;
#57 = EDGE_CURVE ( 'NONE', #171, #91, #119, .T. ) ;
#58 = LINE ( 'NONE', #221, #304 ) ;
#59 = STYLED_ITEM ( 'NONE', ( #49 ), #344 ) ;
#60 = CARTESIAN_POINT ( 'NONE',  ( 0.0000000000000000000, 0.0000000000000000000, 0.1999999999999999833 ) ) ;
#61 = ORIENTED_EDGE ( 'NONE', *, *, #155, .F. ) ;
#62 = DIRECTION ( 'NONE',  ( 0.0000000000000000000, 0.0000000000000000000, -1.000000000000000000 ) ) ;
#63 = ORIENTED_EDGE ( 'NONE', *, *, #297, .F. ) ;
#64 = ADVANCED_FACE ( 'NONE', ( #124 ), #234, .T. ) ;
#65 = DIRECTION ( 'NONE',  ( 1.000000000000000000, 0.0000000000000000000, 0.0000000000000000000 ) ) ;
#66 = CARTESIAN_POINT ( 'NONE',  ( 0.0000000000000000000, 0.0000000000000000000, 1.199999999999999956 ) ) ;
#67 = AXIS2_PLACEMENT_3D ( 'NONE', #55, #343, #153 ) ;
#68 = CARTESIAN_POINT ( 'NONE',  ( -0.1374999999999998168, 1.683889348827608472E-17, 1.549999999999994049 ) ) ;
#69 = ORIENTED_EDGE ( 'NONE', *, *, #321, .F. ) ;
#70 = ADVANCED_FACE ( 'NONE', ( #267 ), #2, .T. ) ;
#71 = UNCERTAINTY_MEASURE_WITH_UNIT (LENGTH_MEASURE( 1.000000000000000082E-05 ), #152, 'distance_accuracy_value', 'NONE');
#72 = ORIENTED_EDGE ( 'NONE', *, *, #324, .F. ) ;
#73 = ORIENTED_EDGE ( 'NONE', *, *, #113, .F. ) ;
#74 = DIRECTION ( 'NONE',  ( -1.000000000000000000, 0.0000000000000000000, 0.0000000000000000000 ) ) ;
#75 = EDGE_CURVE ( 'NONE', #109, #314, #232, .T. ) ;
#76 = DIRECTION ( 'NONE',  ( -0.0000000000000000000, -0.0000000000000000000, -1.000000000000000000 ) ) ;
#77 = CARTESIAN_POINT ( 'NONE',  ( 0.0000000000000000000, 0.0000000000000000000, 0.1250000000000000000 ) ) ;
#78 = CARTESIAN_POINT ( 'NONE',  ( 0.0000000000000000000, 0.0000000000000000000, 0.0000000000000000000 ) ) ;
#79 = LINE ( 'NONE', #24, #47 ) ;
#80 = DIRECTION ( 'NONE',  ( 0.03569153051241254898, 0.0000000000000000000, 0.9993628543475495674 ) ) ;
#81 = CARTESIAN_POINT ( 'NONE',  ( -0.09999999999999997780, 0.0000000000000000000, 0.1999999999999999833 ) ) ;
#82 = AXIS2_PLACEMENT_3D ( 'NONE', #186, #11, #110 ) ;
#83 = SURFACE_SIDE_STYLE ('',( #161 ) ) ;
#84 = ORIENTED_EDGE ( 'NONE', *, *, #212, .F. ) ;
#85 =( NAMED_UNIT ( * ) SI_UNIT ( $, .STERADIAN. ) SOLID_ANGLE_UNIT ( ) );
#86 = DIRECTION ( 'NONE',  ( -0.0000000000000000000, -0.0000000000000000000, -1.000000000000000000 ) ) ;
#87 = CARTESIAN_POINT ( 'NONE',  ( -0.1100000000000004446, 0.0000000000000000000, 3.000000000000000444 ) ) ;
#88 = CIRCLE ( 'NONE', #291, 0.1250000000000000000 ) ;
#89 = ORIENTED_EDGE ( 'NONE', *, *, #307, .F. ) ;
#90 = VERTEX_POINT ( 'NONE', #178 ) ;
#91 = VERTEX_POINT ( 'NONE', #156 ) ;
#92 = PRESENTATION_LAYER_ASSIGNMENT (  '', '', ( #333 ) ) ;
#93 = EDGE_LOOP ( 'NONE', ( #173, #338, #41, #73 ) ) ;
#94 = ORIENTED_EDGE ( 'NONE', *, *, #118, .F. ) ;
#95 = CARTESIAN_POINT ( 'NONE',  ( -0.09999999999999996392, 1.377727649040772081E-17, 0.5000000000000000000 ) ) ;
#96 = VECTOR ( 'NONE', #179, 39.37007874015748854 ) ;
#97 = CARTESIAN_POINT ( 'NONE',  ( 0.0000000000000000000, 0.0000000000000000000, 0.0000000000000000000 ) ) ;
#98 = DIRECTION ( 'NONE',  ( 1.000000000000000000, 0.0000000000000000000, 0.0000000000000000000 ) ) ;
#99 = CARTESIAN_POINT ( 'NONE',  ( 0.0000000000000000000, 0.0000000000000000000, 0.1250000000000000000 ) ) ;
#100 = CARTESIAN_POINT ( 'NONE',  ( 0.0000000000000000000, 0.0000000000000000000, 3.000000000000000444 ) ) ;
#101 = EDGE_CURVE ( 'NONE', #117, #162, #237, .T. ) ;
#102 = COLOUR_RGB ( '',0.7921568627450980005, 0.8196078431372548767, 0.9333333333333333481 ) ;
#103 = DIRECTION ( 'NONE',  ( 1.000000000000000000, 0.0000000000000000000, 0.0000000000000000000 ) ) ;
#104 = DIRECTION ( 'NONE',  ( -1.000000000000000000, 0.0000000000000000000, 0.0000000000000000000 ) ) ;
#105 = CARTESIAN_POINT ( 'NONE',  ( 0.0000000000000000000, 0.0000000000000000000, 0.5000000000000000000 ) ) ;
#106 = EDGE_LOOP ( 'NONE', ( #301, #328, #72, #84, #340 ) ) ;
#107 = AXIS2_PLACEMENT_3D ( 'NONE', #183, #262, #322 ) ;
#108 = DIRECTION ( 'NONE',  ( 0.0000000000000000000, 0.0000000000000000000, 1.000000000000000000 ) ) ;
#109 = VERTEX_POINT ( 'NONE', #209 ) ;
#110 = DIRECTION ( 'NONE',  ( 1.000000000000000000, 0.0000000000000000000, 0.0000000000000000000 ) ) ;
#111 = ORIENTED_EDGE ( 'NONE', *, *, #57, .F. ) ;
#112 = DIRECTION ( 'NONE',  ( -0.0000000000000000000, -0.0000000000000000000, -1.000000000000000000 ) ) ;
#113 = EDGE_CURVE ( 'NONE', #200, #91, #79, .T. ) ;
#114 =( NAMED_UNIT ( * ) PLANE_ANGLE_UNIT ( ) SI_UNIT ( $, .RADIAN. ) );
#115 = AXIS2_PLACEMENT_3D ( 'NONE', #345, #53, #98 ) ;
#116 = DIRECTION ( 'NONE',  ( 0.0000000000000000000, 0.0000000000000000000, 1.000000000000000000 ) ) ;
#117 = VERTEX_POINT ( 'NONE', #296 ) ;
#118 = EDGE_CURVE ( 'NONE', #109, #46, #252, .T. ) ;
#119 = LINE ( 'NONE', #68, #16 ) ;
#120 = ORIENTED_EDGE ( 'NONE', *, *, #189, .T. ) ;
#121 = CIRCLE ( 'NONE', #48, 0.09999999999999996392 ) ;
#122 = ORIENTED_EDGE ( 'NONE', *, *, #155, .T. ) ;
#123 =( CONVERSION_BASED_UNIT ( 'INCH', #201 ) LENGTH_UNIT ( ) NAMED_UNIT ( #140 ) );
#124 = FACE_OUTER_BOUND ( 'NONE', #195, .T. ) ;
#125 = SURFACE_STYLE_USAGE ( .BOTH. , #258 ) ;
#126 = FACE_OUTER_BOUND ( 'NONE', #164, .T. ) ;
#127 = CIRCLE ( 'NONE', #32, 0.1250000000000000000 ) ;
#128 =( LENGTH_UNIT ( ) NAMED_UNIT ( * ) SI_UNIT ( $, .METRE. ) );
#129 = DIRECTION ( 'NONE',  ( -1.000000000000000000, 0.0000000000000000000, 0.0000000000000000000 ) ) ;
#130 = EDGE_CURVE ( 'NONE', #314, #200, #287, .T. ) ;
#131 = CARTESIAN_POINT ( 'NONE',  ( 0.0000000000000000000, 0.0000000000000000000, 0.1250000000000000000 ) ) ;
#132 = CARTESIAN_POINT ( 'NONE',  ( 0.1100000000000004446, 1.347111479062094019E-17, 3.000000000000000444 ) ) ;
#133 = DIRECTION ( 'NONE',  ( -0.0000000000000000000, -0.0000000000000000000, -1.000000000000000000 ) ) ;
#134 = ADVANCED_FACE ( 'NONE', ( #4 ), #31, .T. ) ;
#135 = FILL_AREA_STYLE ('',( #137 ) ) ;
#136 = ORIENTED_EDGE ( 'NONE', *, *, #17, .T. ) ;
#137 = FILL_AREA_STYLE_COLOUR ( '', #102 ) ;
#138 = VECTOR ( 'NONE', #76, 39.37007874015748143 ) ;
#139 = AXIS2_PLACEMENT_3D ( 'NONE', #315, #206, #74 ) ;
#140 = DIMENSIONAL_EXPONENTS ( 1.000000000000000000, 0.0000000000000000000, 0.0000000000000000000, 0.0000000000000000000, 0.0000000000000000000, 0.0000000000000000000, 0.0000000000000000000 ) ;
#141 = CARTESIAN_POINT ( 'NONE',  ( -0.1100000000000004446, 0.0000000000000000000, 3.000000000000000444 ) ) ;
#142 = PRODUCT_RELATED_PRODUCT_CATEGORY ( 'part', '', ( #254 ) ) ;
#143 = ORIENTED_EDGE ( 'NONE', *, *, #17, .F. ) ;
#144 = VERTEX_POINT ( 'NONE', #182 ) ;
#145 = SURFACE_STYLE_FILL_AREA ( #27 ) ;
#146 = AXIS2_PLACEMENT_3D ( 'NONE', #77, #56, #176 ) ;
#147 = ORIENTED_EDGE ( 'NONE', *, *, #297, .T. ) ;
#148 = AXIS2_PLACEMENT_3D ( 'NONE', #13, #108, #33 ) ;
#149 = DIRECTION ( 'NONE',  ( -1.000000000000000000, 0.0000000000000000000, 0.0000000000000000000 ) ) ;
#150 = EDGE_CURVE ( 'NONE', #200, #314, #88, .T. ) ;
#151 = DIRECTION ( 'NONE',  ( 0.0000000000000000000, 1.000000000000000000, 0.0000000000000000000 ) ) ;
#152 =( CONVERSION_BASED_UNIT ( 'INCH', #318 ) LENGTH_UNIT ( ) NAMED_UNIT ( #187 ) );
#153 = DIRECTION ( 'NONE',  ( 1.000000000000000000, 0.0000000000000000000, 0.0000000000000000000 ) ) ;
#154 = CIRCLE ( 'NONE', #7, 0.1250000000000000000 ) ;
#155 = EDGE_CURVE ( 'NONE', #144, #90, #154, .T. ) ;
#156 = CARTESIAN_POINT ( 'NONE',  ( -0.1250000000000000000, 1.530808498934191509E-17, 1.199999999999999956 ) ) ;
#157 =( LENGTH_UNIT ( ) NAMED_UNIT ( * ) SI_UNIT ( $, .METRE. ) );
#158 = AXIS2_PLACEMENT_3D ( 'NONE', #45, #20, #18 ) ;
#159 = DIRECTION ( 'NONE',  ( -0.0000000000000000000, -0.0000000000000000000, -1.000000000000000000 ) ) ;
#160 = ORIENTED_EDGE ( 'NONE', *, *, #324, .T. ) ;
#161 = SURFACE_STYLE_FILL_AREA ( #135 ) ;
#162 = VERTEX_POINT ( 'NONE', #211 ) ;
#163 = CARTESIAN_POINT ( 'NONE',  ( 0.0000000000000000000, 0.0000000000000000000, 0.1999999999999999833 ) ) ;
#164 = EDGE_LOOP ( 'NONE', ( #111, #12, #50, #143 ) ) ;
#165 = EDGE_CURVE ( 'NONE', #117, #222, #317, .T. ) ;
#166 = AXIS2_PLACEMENT_3D ( 'NONE', #97, #177, #204 ) ;
#167 =( CONVERSION_BASED_UNIT ( 'INCH', #188 ) LENGTH_UNIT ( ) NAMED_UNIT ( #243 ) );
#168 = PRODUCT_DEFINITION ( 'UNKNOWN', '', #240, #196 ) ;
#169 = FACE_OUTER_BOUND ( 'NONE', #300, .T. ) ;
#170 = DIRECTION ( 'NONE',  ( -1.224646799147353207E-16, 1.000000000000000000, 0.0000000000000000000 ) ) ;
#171 = VERTEX_POINT ( 'NONE', #95 ) ;
#172 = EDGE_LOOP ( 'NONE', ( #94, #225, #249, #89 ) ) ;
#173 = ORIENTED_EDGE ( 'NONE', *, *, #150, .T. ) ;
#174 =( GEOMETRIC_REPRESENTATION_CONTEXT ( 3 ) GLOBAL_UNCERTAINTY_ASSIGNED_CONTEXT ( ( #281 ) ) GLOBAL_UNIT_ASSIGNED_CONTEXT ( ( #123, #313, #342 ) ) REPRESENTATION_CONTEXT ( 'NONE', 'WORKASPACE' ) );
#175 = FACE_OUTER_BOUND ( 'NONE', #172, .T. ) ;
#176 = DIRECTION ( 'NONE',  ( 0.0000000000000000000, 1.000000000000000000, 0.0000000000000000000 ) ) ;
#177 = DIRECTION ( 'NONE',  ( 0.0000000000000000000, 0.0000000000000000000, 1.000000000000000000 ) ) ;
#178 = CARTESIAN_POINT ( 'NONE',  ( 0.0000000000000000000, 7.654042494670956004E-18, 1.707404996040164512E-17 ) ) ;
#179 = DIRECTION ( 'NONE',  ( 0.7071067811865566766, 8.659560562355046257E-17, -0.7071067811865382469 ) ) ;
#180 = CIRCLE ( 'NONE', #158, 0.09999999999999996392 ) ;
#181 = MECHANICAL_DESIGN_GEOMETRIC_PRESENTATION_REPRESENTATION (  '', ( #59 ), #174 ) ;
#182 = CARTESIAN_POINT ( 'NONE',  ( 0.0000000000000000000, 0.09999999999999999167, 0.1999999999999999833 ) ) ;
#183 = CARTESIAN_POINT ( 'NONE',  ( 0.0000000000000000000, 0.0000000000000000000, 2.985000000000001208 ) ) ;
#184 = CARTESIAN_POINT ( 'NONE',  ( 0.1250000000000000000, 1.530808498934191201E-17, 2.985000000000001208 ) ) ;
#185 = MECHANICAL_DESIGN_GEOMETRIC_PRESENTATION_REPRESENTATION (  '', ( #333 ), #274 ) ;
#186 = CARTESIAN_POINT ( 'NONE',  ( 0.0000000000000000000, 0.0000000000000000000, 1.549999999999994049 ) ) ;
#187 = DIMENSIONAL_EXPONENTS ( 1.000000000000000000, 0.0000000000000000000, 0.0000000000000000000, 0.0000000000000000000, 0.0000000000000000000, 0.0000000000000000000, 0.0000000000000000000 ) ;
#188 = LENGTH_MEASURE_WITH_UNIT ( LENGTH_MEASURE( 0.02539999999999999897 ), #157 );
#189 = EDGE_CURVE ( 'NONE', #171, #311, #205, .T. ) ;
#190 = CARTESIAN_POINT ( 'NONE',  ( 1.224646799147353115E-17, -0.09999999999999999167, 0.1999999999999999833 ) ) ;
#191 = CLOSED_SHELL ( 'NONE', ( #341, #70, #233, #294, #64, #134, #194, #228, #34, #239, #256 ) ) ;
#192 = AXIS2_PLACEMENT_3D ( 'NONE', #319, #290, #1 ) ;
#193 = DIRECTION ( 'NONE',  ( -0.7071067811865566766, 0.0000000000000000000, -0.7071067811865382469 ) ) ;
#194 = ADVANCED_FACE ( 'NONE', ( #126 ), #227, .T. ) ;
#195 = EDGE_LOOP ( 'NONE', ( #160, #202, #224, #61 ) ) ;
#196 = PRODUCT_DEFINITION_CONTEXT ( 'detailed design', #14, 'design' ) ;
#197 = EDGE_LOOP ( 'NONE', ( #251, #215, #257, #260 ) ) ;
#198 = VECTOR ( 'NONE', #80, 39.37007874015748143 ) ;
#199 = CIRCLE ( 'NONE', #223, 0.09999999999999997780 ) ;
#200 = VERTEX_POINT ( 'NONE', #207 ) ;
#201 = LENGTH_MEASURE_WITH_UNIT ( LENGTH_MEASURE( 0.02539999999999999897 ), #128 );
#202 = ORIENTED_EDGE ( 'NONE', *, *, #321, .T. ) ;
#203 = EDGE_LOOP ( 'NONE', ( #147, #226 ) ) ;
#204 = DIRECTION ( 'NONE',  ( 1.000000000000000000, 0.0000000000000000000, 0.0000000000000000000 ) ) ;
#205 = LINE ( 'NONE', #265, #138 ) ;
#206 = DIRECTION ( 'NONE',  ( 0.0000000000000000000, 0.0000000000000000000, -1.000000000000000000 ) ) ;
#207 = CARTESIAN_POINT ( 'NONE',  ( -0.1250000000000000000, 0.0000000000000000000, 2.985000000000001208 ) ) ;
#208 = FACE_OUTER_BOUND ( 'NONE', #38, .T. ) ;
#209 = CARTESIAN_POINT ( 'NONE',  ( 0.1100000000000004446, 1.438959988998142687E-17, 3.000000000000000444 ) ) ;
#210 = COLOUR_RGB ( '',0.7921568627450980005, 0.8196078431372548767, 0.9333333333333333481 ) ;
#211 = CARTESIAN_POINT ( 'NONE',  ( 0.09999999999999997780, 1.224646799147352961E-17, 0.1999999999999999833 ) ) ;
#212 = EDGE_CURVE ( 'NONE', #311, #144, #40, .T. ) ;
#213 = CARTESIAN_POINT ( 'NONE',  ( 0.0000000000000000000, 0.0000000000000000000, 3.000000000000000444 ) ) ;
#214 =( NAMED_UNIT ( * ) PLANE_ANGLE_UNIT ( ) SI_UNIT ( $, .RADIAN. ) );
#215 = ORIENTED_EDGE ( 'NONE', *, *, #57, .T. ) ;
#216 = VECTOR ( 'NONE', #238, 39.37007874015748143 ) ;
#217 = AXIS2_PLACEMENT_3D ( 'NONE', #60, #159, #269 ) ;
#218 = VECTOR ( 'NONE', #193, 39.37007874015748854 ) ;
#219 = SURFACE_STYLE_USAGE ( .BOTH. , #83 ) ;
#220 = ORIENTED_EDGE ( 'NONE', *, *, #276, .T. ) ;
#221 = CARTESIAN_POINT ( 'NONE',  ( 0.1250000000000000000, 1.530808498934191201E-17, 3.000000000000000444 ) ) ;
#222 = VERTEX_POINT ( 'NONE', #236 ) ;
#223 = AXIS2_PLACEMENT_3D ( 'NONE', #163, #247, #104 ) ;
#224 = ORIENTED_EDGE ( 'NONE', *, *, #10, .T. ) ;
#225 = ORIENTED_EDGE ( 'NONE', *, *, #75, .T. ) ;
#226 = ORIENTED_EDGE ( 'NONE', *, *, #118, .T. ) ;
#227 = CONICAL_SURFACE ( 'NONE', #115, 0.1374999999999998168, 0.03569911267932403265 ) ;
#228 = ADVANCED_FACE ( 'NONE', ( #208 ), #320, .T. ) ;
#229 = EDGE_LOOP ( 'NONE', ( #285, #63, #9, #21 ) ) ;
#230 = CARTESIAN_POINT ( 'NONE',  ( 0.0000000000000000000, 0.0000000000000000000, 0.1250000000000000000 ) ) ;
#231 = DIRECTION ( 'NONE',  ( -0.0000000000000000000, -0.0000000000000000000, -1.000000000000000000 ) ) ;
#232 = LINE ( 'NONE', #132, #96 ) ;
#233 = ADVANCED_FACE ( 'NONE', ( #299 ), #330, .T. ) ;
#234 = SPHERICAL_SURFACE ( 'NONE', #146, 0.1249999999999999861 ) ;
#235 =( NAMED_UNIT ( * ) SI_UNIT ( $, .STERADIAN. ) SOLID_ANGLE_UNIT ( ) );
#236 = CARTESIAN_POINT ( 'NONE',  ( 0.1250000000000000000, 0.0000000000000000000, 1.199999999999999956 ) ) ;
#237 = LINE ( 'NONE', #29, #216 ) ;
#238 = DIRECTION ( 'NONE',  ( -0.0000000000000000000, -0.0000000000000000000, -1.000000000000000000 ) ) ;
#239 = ADVANCED_FACE ( 'NONE', ( #5 ), #326, .T. ) ;
#240 = PRODUCT_DEFINITION_FORMATION_WITH_SPECIFIED_SOURCE ( 'ANY', '', #254, .NOT_KNOWN. ) ;
#241 = CARTESIAN_POINT ( 'NONE',  ( 0.0000000000000000000, 0.0000000000000000000, 0.0000000000000000000 ) ) ;
#242 = DIRECTION ( 'NONE',  ( -1.000000000000000000, 0.0000000000000000000, 0.0000000000000000000 ) ) ;
#243 = DIMENSIONAL_EXPONENTS ( 1.000000000000000000, 0.0000000000000000000, 0.0000000000000000000, 0.0000000000000000000, 0.0000000000000000000, 0.0000000000000000000, 0.0000000000000000000 ) ;
#244 = EDGE_CURVE ( 'NONE', #171, #117, #121, .T. ) ;
#245 = DIRECTION ( 'NONE',  ( -1.000000000000000000, 0.0000000000000000000, 0.0000000000000000000 ) ) ;
#246 = AXIS2_PLACEMENT_3D ( 'NONE', #213, #62, #275 ) ;
#247 = DIRECTION ( 'NONE',  ( -0.0000000000000000000, -0.0000000000000000000, -1.000000000000000000 ) ) ;
#248 = DIRECTION ( 'NONE',  ( -0.0000000000000000000, -0.0000000000000000000, -1.000000000000000000 ) ) ;
#249 = ORIENTED_EDGE ( 'NONE', *, *, #150, .F. ) ;
#250 = APPLICATION_PROTOCOL_DEFINITION ( 'draft international standard', 'automotive_design', 1998, #14 ) ;
#251 = ORIENTED_EDGE ( 'NONE', *, *, #244, .F. ) ;
#252 = CIRCLE ( 'NONE', #67, 0.1100000000000004446 ) ;
#253 = DIRECTION ( 'NONE',  ( 1.000000000000000000, 0.0000000000000000000, 0.0000000000000000000 ) ) ;
#254 = PRODUCT ( 'Micro_SBM-250-3', 'Micro_SBM-250-3', '', ( #22 ) ) ;
#255 = DIRECTION ( 'NONE',  ( 1.000000000000000000, 0.0000000000000000000, 0.0000000000000000000 ) ) ;
#256 = ADVANCED_FACE ( 'NONE', ( #6 ), #28, .T. ) ;
#257 = ORIENTED_EDGE ( 'NONE', *, *, #26, .F. ) ;
#258 = SURFACE_SIDE_STYLE ('',( #145 ) ) ;
#259 = AXIS2_PLACEMENT_3D ( 'NONE', #35, #231, #149 ) ;
#260 = ORIENTED_EDGE ( 'NONE', *, *, #165, .F. ) ;
#261 = DIRECTION ( 'NONE',  ( -0.0000000000000000000, -0.0000000000000000000, -1.000000000000000000 ) ) ;
#262 = DIRECTION ( 'NONE',  ( 0.0000000000000000000, 0.0000000000000000000, -1.000000000000000000 ) ) ;
#263 = SHAPE_DEFINITION_REPRESENTATION ( #316, #344 ) ;
#264 = CIRCLE ( 'NONE', #332, 0.1250000000000000000 ) ;
#265 = CARTESIAN_POINT ( 'NONE',  ( -0.09999999999999996392, 0.0000000000000000000, 0.0000000000000000000 ) ) ;
#266 = DIRECTION ( 'NONE',  ( -1.000000000000000000, 0.0000000000000000000, 0.0000000000000000000 ) ) ;
#267 = FACE_OUTER_BOUND ( 'NONE', #93, .T. ) ;
#268 = CIRCLE ( 'NONE', #54, 0.1100000000000004446 ) ;
#269 = DIRECTION ( 'NONE',  ( -1.000000000000000000, 0.0000000000000000000, 0.0000000000000000000 ) ) ;
#270 = ORIENTED_EDGE ( 'NONE', *, *, #113, .T. ) ;
#271 = MANIFOLD_SOLID_BREP ( 'Cut-Revolve3', #191 ) ;
#272 = ORIENTED_EDGE ( 'NONE', *, *, #101, .F. ) ;
#273 = FACE_OUTER_BOUND ( 'NONE', #197, .T. ) ;
#274 =( GEOMETRIC_REPRESENTATION_CONTEXT ( 3 ) GLOBAL_UNCERTAINTY_ASSIGNED_CONTEXT ( ( #19 ) ) GLOBAL_UNIT_ASSIGNED_CONTEXT ( ( #167, #214, #85 ) ) REPRESENTATION_CONTEXT ( 'NONE', 'WORKASPACE' ) );
#275 = DIRECTION ( 'NONE',  ( -1.000000000000000000, 0.0000000000000000000, 0.0000000000000000000 ) ) ;
#276 = EDGE_CURVE ( 'NONE', #283, #311, #199, .T. ) ;
#277 = APPLICATION_PROTOCOL_DEFINITION ( 'draft international standard', 'automotive_design', 1998, #339 ) ;
#278 = ORIENTED_EDGE ( 'NONE', *, *, #10, .F. ) ;
#279 = CIRCLE ( 'NONE', #3, 0.1249999999999999861 ) ;
#280 = CONICAL_SURFACE ( 'NONE', #82, 0.1374999999999998168, 0.03569911267932403265 ) ;
#281 = UNCERTAINTY_MEASURE_WITH_UNIT (LENGTH_MEASURE( 1.000000000000000082E-05 ), #123, 'distance_accuracy_value', 'NONE');
#282 = CYLINDRICAL_SURFACE ( 'NONE', #303, 0.1250000000000000000 ) ;
#283 = VERTEX_POINT ( 'NONE', #190 ) ;
#284 =( LENGTH_UNIT ( ) NAMED_UNIT ( * ) SI_UNIT ( $, .METRE. ) );
#285 = ORIENTED_EDGE ( 'NONE', *, *, #75, .F. ) ;
#286 = FILL_AREA_STYLE_COLOUR ( '', #210 ) ;
#287 = CIRCLE ( 'NONE', #107, 0.1250000000000000000 ) ;
#288 = ORIENTED_EDGE ( 'NONE', *, *, #305, .F. ) ;
#289 = CARTESIAN_POINT ( 'NONE',  ( 0.0000000000000000000, 0.0000000000000000000, 2.985000000000001208 ) ) ;
#290 = DIRECTION ( 'NONE',  ( -0.0000000000000000000, -0.0000000000000000000, -1.000000000000000000 ) ) ;
#291 = AXIS2_PLACEMENT_3D ( 'NONE', #289, #295, #103 ) ;
#292 = CIRCLE ( 'NONE', #217, 0.09999999999999997780 ) ;
#293 = DIRECTION ( 'NONE',  ( 1.000000000000000000, 0.0000000000000000000, 0.0000000000000000000 ) ) ;
#294 = ADVANCED_FACE ( 'NONE', ( #273 ), #280, .T. ) ;
#295 = DIRECTION ( 'NONE',  ( 0.0000000000000000000, 0.0000000000000000000, -1.000000000000000000 ) ) ;
#296 = CARTESIAN_POINT ( 'NONE',  ( 0.09999999999999996392, 0.0000000000000000000, 0.5000000000000000000 ) ) ;
#297 = EDGE_CURVE ( 'NONE', #46, #109, #268, .T. ) ;
#298 = PRESENTATION_LAYER_ASSIGNMENT (  '', '', ( #59 ) ) ;
#299 = FACE_OUTER_BOUND ( 'NONE', #106, .T. ) ;
#300 = EDGE_LOOP ( 'NONE', ( #288, #23, #270, #136 ) ) ;
#301 = ORIENTED_EDGE ( 'NONE', *, *, #244, .T. ) ;
#302 = PRESENTATION_STYLE_ASSIGNMENT (( #219 ) ) ;
#303 = AXIS2_PLACEMENT_3D ( 'NONE', #44, #42, #335 ) ;
#304 = VECTOR ( 'NONE', #86, 39.37007874015748143 ) ;
#305 = EDGE_CURVE ( 'NONE', #314, #222, #58, .T. ) ;
#306 = DIRECTION ( 'NONE',  ( 1.000000000000000000, 1.224646799147353207E-16, -0.0000000000000000000 ) ) ;
#307 = EDGE_CURVE ( 'NONE', #46, #200, #331, .T. ) ;
#308 = DIRECTION ( 'NONE',  ( 0.0000000000000000000, 0.0000000000000000000, 1.000000000000000000 ) ) ;
#309 = AXIS2_PLACEMENT_3D ( 'NONE', #131, #293, #151 ) ;
#310 = AXIS2_PLACEMENT_3D ( 'NONE', #78, #133, #37 ) ;
#311 = VERTEX_POINT ( 'NONE', #81 ) ;
#312 = EDGE_LOOP ( 'NONE', ( #278, #220, #334, #122 ) ) ;
#313 =( NAMED_UNIT ( * ) PLANE_ANGLE_UNIT ( ) SI_UNIT ( $, .RADIAN. ) );
#314 = VERTEX_POINT ( 'NONE', #184 ) ;
#315 = CARTESIAN_POINT ( 'NONE',  ( 0.0000000000000000000, 0.0000000000000000000, 3.000000000000000444 ) ) ;
#316 = PRODUCT_DEFINITION_SHAPE ( 'NONE', 'NONE',  #168 ) ;
#317 = LINE ( 'NONE', #323, #198 ) ;
#318 = LENGTH_MEASURE_WITH_UNIT ( LENGTH_MEASURE( 0.02539999999999999897 ), #284 );
#319 = CARTESIAN_POINT ( 'NONE',  ( 0.0000000000000000000, 0.0000000000000000000, 0.1999999999999999833 ) ) ;
#320 = CYLINDRICAL_SURFACE ( 'NONE', #310, 0.09999999999999996392 ) ;
#321 = EDGE_CURVE ( 'NONE', #162, #283, #292, .T. ) ;
#322 = DIRECTION ( 'NONE',  ( 1.000000000000000000, 0.0000000000000000000, 0.0000000000000000000 ) ) ;
#323 = CARTESIAN_POINT ( 'NONE',  ( 0.1374999999999998168, 0.0000000000000000000, 1.549999999999994049 ) ) ;
#324 = EDGE_CURVE ( 'NONE', #144, #162, #329, .T. ) ;
#325 = DIRECTION ( 'NONE',  ( 0.0000000000000000000, 0.0000000000000000000, 1.000000000000000000 ) ) ;
#326 = PLANE ( 'NONE',  #148 ) ;
#327 = AXIS2_PLACEMENT_3D ( 'NONE', #100, #261, #266 ) ;
#328 = ORIENTED_EDGE ( 'NONE', *, *, #101, .T. ) ;
#329 = CIRCLE ( 'NONE', #259, 0.09999999999999997780 ) ;
#330 = CYLINDRICAL_SURFACE ( 'NONE', #8, 0.09999999999999996392 ) ;
#331 = LINE ( 'NONE', #87, #218 ) ;
#332 = AXIS2_PLACEMENT_3D ( 'NONE', #15, #308, #255 ) ;
#333 = STYLED_ITEM ( 'NONE', ( #302 ), #271 ) ;
#334 = ORIENTED_EDGE ( 'NONE', *, *, #212, .T. ) ;
#335 = DIRECTION ( 'NONE',  ( -1.000000000000000000, 0.0000000000000000000, 0.0000000000000000000 ) ) ;
#336 = ORIENTED_EDGE ( 'NONE', *, *, #276, .F. ) ;
#337 =( GEOMETRIC_REPRESENTATION_CONTEXT ( 3 ) GLOBAL_UNCERTAINTY_ASSIGNED_CONTEXT ( ( #71 ) ) GLOBAL_UNIT_ASSIGNED_CONTEXT ( ( #152, #114, #235 ) ) REPRESENTATION_CONTEXT ( 'NONE', 'WORKASPACE' ) );
#338 = ORIENTED_EDGE ( 'NONE', *, *, #305, .T. ) ;
#339 = APPLICATION_CONTEXT ( 'automotive_design' ) ;
#340 = ORIENTED_EDGE ( 'NONE', *, *, #189, .F. ) ;
#341 = ADVANCED_FACE ( 'NONE', ( #175 ), #43, .T. ) ;
#342 =( NAMED_UNIT ( * ) SI_UNIT ( $, .STERADIAN. ) SOLID_ANGLE_UNIT ( ) );
#343 = DIRECTION ( 'NONE',  ( 0.0000000000000000000, 0.0000000000000000000, 1.000000000000000000 ) ) ;
#344 = ADVANCED_BREP_SHAPE_REPRESENTATION ( 'Micro_SBM-250-3', ( #271, #166 ), #337 ) ;
#345 = CARTESIAN_POINT ( 'NONE',  ( 0.0000000000000000000, 0.0000000000000000000, 1.549999999999994049 ) ) ;
ENDSEC;
END-ISO-10303-21;
