ISO-10303-21;
HEADER;
FILE_DESCRIPTION (( 'STEP AP214' ),
    '1' );
FILE_NAME ('Micro_RNC-125-23.STEP',
    '2021-09-03T17:33:35',
    ( '' ),
    ( '' ),
    'SwSTEP 2.0',
    'SolidWorks 2020',
    '' );
FILE_SCHEMA (( 'AUTOMOTIVE_DESIGN' ));
ENDSEC;

DATA;
#1 = LENGTH_MEASURE_WITH_UNIT ( LENGTH_MEASURE( 0.02539999999999999897 ), #52 );
#2 = DIRECTION ( 'NONE',  ( 1.000000000000000000, 0.0000000000000000000, 0.0000000000000000000 ) ) ;
#3 = EDGE_CURVE ( 'NONE', #7, #200, #24, .T. ) ;
#4 = PRODUCT_CONTEXT ( 'NONE', #71, 'mechanical' ) ;
#5 = ORIENTED_EDGE ( 'NONE', *, *, #94, .T. ) ;
#6 = ORIENTED_EDGE ( 'NONE', *, *, #149, .T. ) ;
#7 = VERTEX_POINT ( 'NONE', #236 ) ;
#8 = EDGE_LOOP ( 'NONE', ( #9, #6, #180, #39 ) ) ;
#9 = ORIENTED_EDGE ( 'NONE', *, *, #106, .T. ) ;
#10 = UNCERTAINTY_MEASURE_WITH_UNIT (LENGTH_MEASURE( 1.000000000000000082E-05 ), #116, 'distance_accuracy_value', 'NONE');
#11 = DIRECTION ( 'NONE',  ( -0.0000000000000000000, -0.0000000000000000000, -1.000000000000000000 ) ) ;
#12 = EDGE_CURVE ( 'NONE', #163, #79, #23, .T. ) ;
#13 = CARTESIAN_POINT ( 'NONE',  ( 0.0000000000000000000, 0.0000000000000000000, 3.000000000000000444 ) ) ;
#14 = DIRECTION ( 'NONE',  ( -0.0000000000000000000, -0.0000000000000000000, -1.000000000000000000 ) ) ;
#15 = LINE ( 'NONE', #85, #199 ) ;
#16 = FACE_OUTER_BOUND ( 'NONE', #75, .T. ) ;
#17 = DIMENSIONAL_EXPONENTS ( 1.000000000000000000, 0.0000000000000000000, 0.0000000000000000000, 0.0000000000000000000, 0.0000000000000000000, 0.0000000000000000000, 0.0000000000000000000 ) ;
#18 = CIRCLE ( 'NONE', #225, 0.06250000000000000000 ) ;
#19 = PRESENTATION_STYLE_ASSIGNMENT (( #173 ) ) ;
#20 = AXIS2_PLACEMENT_3D ( 'NONE', #13, #190, #68 ) ;
#21 = ORIENTED_EDGE ( 'NONE', *, *, #149, .F. ) ;
#22 = UNCERTAINTY_MEASURE_WITH_UNIT (LENGTH_MEASURE( 1.000000000000000082E-05 ), #114, 'distance_accuracy_value', 'NONE');
#23 = LINE ( 'NONE', #99, #88 ) ;
#24 = CIRCLE ( 'NONE', #104, 0.004000000000000000083 ) ;
#25 = PRESENTATION_LAYER_ASSIGNMENT (  '', '', ( #137 ) ) ;
#26 = DIRECTION ( 'NONE',  ( 0.0000000000000000000, 0.0000000000000000000, 1.000000000000000000 ) ) ;
#27 = DIRECTION ( 'NONE',  ( -1.000000000000000000, 0.0000000000000000000, 0.0000000000000000000 ) ) ;
#28 = DIRECTION ( 'NONE',  ( 1.000000000000000000, 0.0000000000000000000, -0.0000000000000000000 ) ) ;
#29 = AXIS2_PLACEMENT_3D ( 'NONE', #204, #243, #43 ) ;
#30 = DIRECTION ( 'NONE',  ( 0.0000000000000000000, 0.0000000000000000000, -1.000000000000000000 ) ) ;
#31 = ADVANCED_FACE ( 'NONE', ( #185 ), #191, .T. ) ;
#32 = CARTESIAN_POINT ( 'NONE',  ( 0.0000000000000000000, 0.0000000000000000000, 0.0000000000000000000 ) ) ;
#33 = FILL_AREA_STYLE_COLOUR ( '', #213 ) ;
#34 =( GEOMETRIC_REPRESENTATION_CONTEXT ( 3 ) GLOBAL_UNCERTAINTY_ASSIGNED_CONTEXT ( ( #22 ) ) GLOBAL_UNIT_ASSIGNED_CONTEXT ( ( #114, #233, #195 ) ) REPRESENTATION_CONTEXT ( 'NONE', 'WORKASPACE' ) );
#35 = EDGE_CURVE ( 'NONE', #239, #147, #240, .T. ) ;
#36 = FACE_OUTER_BOUND ( 'NONE', #96, .T. ) ;
#37 = COLOUR_RGB ( '',0.7921568627450980005, 0.8196078431372548767, 0.9333333333333333481 ) ;
#38 = SHAPE_DEFINITION_REPRESENTATION ( #227, #56 ) ;
#39 = ORIENTED_EDGE ( 'NONE', *, *, #12, .F. ) ;
#40 = ORIENTED_EDGE ( 'NONE', *, *, #47, .F. ) ;
#41 = DIRECTION ( 'NONE',  ( 1.000000000000000000, 0.0000000000000000000, 0.0000000000000000000 ) ) ;
#42 = EDGE_LOOP ( 'NONE', ( #148, #76, #55, #161 ) ) ;
#43 = DIRECTION ( 'NONE',  ( -1.000000000000000000, 0.0000000000000000000, 0.0000000000000000000 ) ) ;
#44 = CARTESIAN_POINT ( 'NONE',  ( 0.0000000000000000000, 0.0000000000000000000, 3.000000000000000444 ) ) ;
#45 = DIRECTION ( 'NONE',  ( -0.0000000000000000000, -0.0000000000000000000, -1.000000000000000000 ) ) ;
#46 = DIRECTION ( 'NONE',  ( -1.000000000000000000, 0.0000000000000000000, 0.0000000000000000000 ) ) ;
#47 = EDGE_CURVE ( 'NONE', #220, #147, #109, .T. ) ;
#48 = CARTESIAN_POINT ( 'NONE',  ( 0.06250000000000000000, 7.654042494670956004E-18, 2.941500000000000448 ) ) ;
#49 = SURFACE_SIDE_STYLE ('',( #72 ) ) ;
#50 = AXIS2_PLACEMENT_3D ( 'NONE', #188, #14, #245 ) ;
#51 = CARTESIAN_POINT ( 'NONE',  ( 0.0000000000000000000, 0.0000000000000000000, 0.0000000000000000000 ) ) ;
#52 =( LENGTH_UNIT ( ) NAMED_UNIT ( * ) SI_UNIT ( $, .METRE. ) );
#53 =( LENGTH_UNIT ( ) NAMED_UNIT ( * ) SI_UNIT ( $, .METRE. ) );
#54 = DIRECTION ( 'NONE',  ( 0.0000000000000000000, 0.0000000000000000000, 1.000000000000000000 ) ) ;
#55 = ORIENTED_EDGE ( 'NONE', *, *, #146, .T. ) ;
#56 = ADVANCED_BREP_SHAPE_REPRESENTATION ( 'Micro_RNC-125-23', ( #244, #179 ), #192 ) ;
#57 = ORIENTED_EDGE ( 'NONE', *, *, #126, .T. ) ;
#58 = ORIENTED_EDGE ( 'NONE', *, *, #112, .F. ) ;
#59 = ADVANCED_FACE ( 'NONE', ( #64 ), #150, .T. ) ;
#60 = ORIENTED_EDGE ( 'NONE', *, *, #94, .F. ) ;
#61 = UNCERTAINTY_MEASURE_WITH_UNIT (LENGTH_MEASURE( 1.000000000000000082E-05 ), #134, 'distance_accuracy_value', 'NONE');
#62 = FACE_OUTER_BOUND ( 'NONE', #216, .T. ) ;
#63 = VECTOR ( 'NONE', #87, 39.37007874015748143 ) ;
#64 = FACE_OUTER_BOUND ( 'NONE', #162, .T. ) ;
#65 = LINE ( 'NONE', #101, #91 ) ;
#66 = DIRECTION ( 'NONE',  ( -0.7071067811865487940, 8.659560562354948882E-17, 0.7071067811865462405 ) ) ;
#67 = VECTOR ( 'NONE', #168, 39.37007874015748143 ) ;
#68 = DIRECTION ( 'NONE',  ( 1.000000000000000000, 0.0000000000000000000, 0.0000000000000000000 ) ) ;
#69 = DIRECTION ( 'NONE',  ( 1.000000000000000000, 0.0000000000000000000, -0.0000000000000000000 ) ) ;
#70 = CARTESIAN_POINT ( 'NONE',  ( 0.0000000000000000000, 0.0000000000000000000, 0.0000000000000000000 ) ) ;
#71 = APPLICATION_CONTEXT ( 'automotive_design' ) ;
#72 = SURFACE_STYLE_FILL_AREA ( #141 ) ;
#73 = AXIS2_PLACEMENT_3D ( 'NONE', #89, #156, #231 ) ;
#74 = DIRECTION ( 'NONE',  ( 0.7071067811865487940, 0.0000000000000000000, -0.7071067811865462405 ) ) ;
#75 = EDGE_LOOP ( 'NONE', ( #5, #57, #182, #164 ) ) ;
#76 = ORIENTED_EDGE ( 'NONE', *, *, #214, .T. ) ;
#77 = CIRCLE ( 'NONE', #247, 0.004000000000000000083 ) ;
#78 = EDGE_CURVE ( 'NONE', #7, #220, #224, .T. ) ;
#79 = VERTEX_POINT ( 'NONE', #48 ) ;
#80 = ORIENTED_EDGE ( 'NONE', *, *, #35, .T. ) ;
#81 = CARTESIAN_POINT ( 'NONE',  ( -0.004000000000000000083, -4.071950607164948872E-18, 3.000000000000000444 ) ) ;
#82 = DIRECTION ( 'NONE',  ( -1.000000000000000000, 0.0000000000000000000, 0.0000000000000000000 ) ) ;
#83 = AXIS2_PLACEMENT_3D ( 'NONE', #102, #132, #82 ) ;
#84 = CARTESIAN_POINT ( 'NONE',  ( 0.06250000000000000000, 7.654042494670956004E-18, 3.000000000000000444 ) ) ;
#85 = CARTESIAN_POINT ( 'NONE',  ( -0.004000000000000000083, 4.898587196589413537E-19, 0.0000000000000000000 ) ) ;
#86 = PRODUCT ( 'Micro_RNC-125-23', 'Micro_RNC-125-23', '', ( #4 ) ) ;
#87 = DIRECTION ( 'NONE',  ( 0.7071067811865487940, 0.0000000000000000000, 0.7071067811865462405 ) ) ;
#88 = VECTOR ( 'NONE', #74, 39.37007874015748143 ) ;
#89 = CARTESIAN_POINT ( 'NONE',  ( 0.0000000000000000000, 0.0000000000000000000, 3.000000000000000444 ) ) ;
#90 = DIRECTION ( 'NONE',  ( 0.0000000000000000000, 0.0000000000000000000, 1.000000000000000000 ) ) ;
#91 = VECTOR ( 'NONE', #152, 39.37007874015748143 ) ;
#92 = LENGTH_MEASURE_WITH_UNIT ( LENGTH_MEASURE( 0.02539999999999999897 ), #53 );
#93 = CARTESIAN_POINT ( 'NONE',  ( 0.0000000000000000000, 0.0000000000000000000, 0.0000000000000000000 ) ) ;
#94 = EDGE_CURVE ( 'NONE', #239, #79, #130, .T. ) ;
#95 = AXIS2_PLACEMENT_3D ( 'NONE', #158, #212, #69 ) ;
#96 = EDGE_LOOP ( 'NONE', ( #97, #197, #121, #117 ) ) ;
#97 = ORIENTED_EDGE ( 'NONE', *, *, #214, .F. ) ;
#98 = CIRCLE ( 'NONE', #50, 0.06250000000000000000 ) ;
#99 = CARTESIAN_POINT ( 'NONE',  ( 0.004000000000000000083, 0.0000000000000000000, 3.000000000000000444 ) ) ;
#100 = CONICAL_SURFACE ( 'NONE', #172, 0.004000000000000000083, 0.7853981633974501664 ) ;
#101 = CARTESIAN_POINT ( 'NONE',  ( -0.004000000000000000083, -4.898587196589413537E-19, 3.000000000000000444 ) ) ;
#102 = CARTESIAN_POINT ( 'NONE',  ( 0.0000000000000000000, 0.0000000000000000000, 3.000000000000000444 ) ) ;
#103 = DIRECTION ( 'NONE',  ( -1.000000000000000000, 0.0000000000000000000, 0.0000000000000000000 ) ) ;
#104 = AXIS2_PLACEMENT_3D ( 'NONE', #93, #123, #178 ) ;
#105 = CARTESIAN_POINT ( 'NONE',  ( -0.06250000000000000000, 0.0000000000000000000, 0.05849999999999978134 ) ) ;
#106 = EDGE_CURVE ( 'NONE', #163, #219, #207, .T. ) ;
#107 = DIRECTION ( 'NONE',  ( 0.0000000000000000000, 0.0000000000000000000, -1.000000000000000000 ) ) ;
#108 = SURFACE_STYLE_USAGE ( .BOTH. , #49 ) ;
#109 = CIRCLE ( 'NONE', #241, 0.06250000000000000000 ) ;
#110 = FACE_OUTER_BOUND ( 'NONE', #183, .T. ) ;
#111 = FILL_AREA_STYLE ('',( #33 ) ) ;
#112 = EDGE_CURVE ( 'NONE', #219, #163, #198, .T. ) ;
#113 = CONICAL_SURFACE ( 'NONE', #73, 0.004000000000000000083, 0.7853981633974501664 ) ;
#114 =( CONVERSION_BASED_UNIT ( 'INCH', #138 ) LENGTH_UNIT ( ) NAMED_UNIT ( #133 ) );
#115 = ADVANCED_FACE ( 'NONE', ( #62 ), #136, .T. ) ;
#116 =( CONVERSION_BASED_UNIT ( 'INCH', #92 ) LENGTH_UNIT ( ) NAMED_UNIT ( #181 ) );
#117 = ORIENTED_EDGE ( 'NONE', *, *, #47, .T. ) ;
#118 = ORIENTED_EDGE ( 'NONE', *, *, #155, .T. ) ;
#119 =( NAMED_UNIT ( * ) PLANE_ANGLE_UNIT ( ) SI_UNIT ( $, .RADIAN. ) );
#120 = ORIENTED_EDGE ( 'NONE', *, *, #112, .T. ) ;
#121 = ORIENTED_EDGE ( 'NONE', *, *, #78, .T. ) ;
#122 = APPLICATION_CONTEXT ( 'automotive_design' ) ;
#123 = DIRECTION ( 'NONE',  ( -0.0000000000000000000, -0.0000000000000000000, -1.000000000000000000 ) ) ;
#124 = CARTESIAN_POINT ( 'NONE',  ( -0.06250000000000000000, 0.0000000000000000000, 3.000000000000000444 ) ) ;
#125 = MECHANICAL_DESIGN_GEOMETRIC_PRESENTATION_REPRESENTATION (  '', ( #142 ), #242 ) ;
#126 = EDGE_CURVE ( 'NONE', #79, #220, #209, .T. ) ;
#127 = CARTESIAN_POINT ( 'NONE',  ( 0.0000000000000000000, 0.0000000000000000000, 0.05849999999999978134 ) ) ;
#128 = DIRECTION ( 'NONE',  ( 1.000000000000000000, 0.0000000000000000000, 0.0000000000000000000 ) ) ;
#129 = DIRECTION ( 'NONE',  ( 0.0000000000000000000, 0.0000000000000000000, -1.000000000000000000 ) ) ;
#130 = CIRCLE ( 'NONE', #157, 0.06250000000000000000 ) ;
#131 = ADVANCED_FACE ( 'NONE', ( #16 ), #154, .T. ) ;
#132 = DIRECTION ( 'NONE',  ( -0.0000000000000000000, -0.0000000000000000000, -1.000000000000000000 ) ) ;
#133 = DIMENSIONAL_EXPONENTS ( 1.000000000000000000, 0.0000000000000000000, 0.0000000000000000000, 0.0000000000000000000, 0.0000000000000000000, 0.0000000000000000000, 0.0000000000000000000 ) ;
#134 =( CONVERSION_BASED_UNIT ( 'INCH', #1 ) LENGTH_UNIT ( ) NAMED_UNIT ( #17 ) );
#135 = CARTESIAN_POINT ( 'NONE',  ( -0.06250000000000000000, 0.0000000000000000000, 2.941500000000000448 ) ) ;
#136 = CONICAL_SURFACE ( 'NONE', #20, 0.004000000000000000083, 0.7853981633974501664 ) ;
#137 = STYLED_ITEM ( 'NONE', ( #19 ), #244 ) ;
#138 = LENGTH_MEASURE_WITH_UNIT ( LENGTH_MEASURE( 0.02539999999999999897 ), #229 );
#139 = ADVANCED_FACE ( 'NONE', ( #206 ), #187, .F. ) ;
#140 =( NAMED_UNIT ( * ) SI_UNIT ( $, .STERADIAN. ) SOLID_ANGLE_UNIT ( ) );
#141 = FILL_AREA_STYLE ('',( #176 ) ) ;
#142 = STYLED_ITEM ( 'NONE', ( #143 ), #56 ) ;
#143 = PRESENTATION_STYLE_ASSIGNMENT (( #108 ) ) ;
#144 = ORIENTED_EDGE ( 'NONE', *, *, #159, .T. ) ;
#145 = ORIENTED_EDGE ( 'NONE', *, *, #12, .T. ) ;
#146 = EDGE_CURVE ( 'NONE', #147, #220, #98, .T. ) ;
#147 = VERTEX_POINT ( 'NONE', #105 ) ;
#148 = ORIENTED_EDGE ( 'NONE', *, *, #159, .F. ) ;
#149 = EDGE_CURVE ( 'NONE', #219, #239, #65, .T. ) ;
#150 = CYLINDRICAL_SURFACE ( 'NONE', #29, 0.06250000000000000000 ) ;
#151 = CARTESIAN_POINT ( 'NONE',  ( 0.004000000000000000083, 0.0000000000000000000, 0.0000000000000000000 ) ) ;
#152 = DIRECTION ( 'NONE',  ( -0.7071067811865487940, -8.659560562354948882E-17, -0.7071067811865462405 ) ) ;
#153 = DIRECTION ( 'NONE',  ( 0.0000000000000000000, 0.0000000000000000000, 1.000000000000000000 ) ) ;
#154 = CYLINDRICAL_SURFACE ( 'NONE', #83, 0.06250000000000000000 ) ;
#155 = EDGE_CURVE ( 'NONE', #79, #239, #18, .T. ) ;
#156 = DIRECTION ( 'NONE',  ( 0.0000000000000000000, 0.0000000000000000000, -1.000000000000000000 ) ) ;
#157 = AXIS2_PLACEMENT_3D ( 'NONE', #249, #30, #103 ) ;
#158 = CARTESIAN_POINT ( 'NONE',  ( 0.0000000000000000000, 0.0000000000000000000, 3.000000000000000444 ) ) ;
#159 = EDGE_CURVE ( 'NONE', #200, #7, #77, .T. ) ;
#160 = PRODUCT_DEFINITION_FORMATION_WITH_SPECIFIED_SOURCE ( 'ANY', '', #86, .NOT_KNOWN. ) ;
#161 = ORIENTED_EDGE ( 'NONE', *, *, #78, .F. ) ;
#162 = EDGE_LOOP ( 'NONE', ( #196, #118, #80, #40 ) ) ;
#163 = VERTEX_POINT ( 'NONE', #189 ) ;
#164 = ORIENTED_EDGE ( 'NONE', *, *, #35, .F. ) ;
#165 = PRODUCT_RELATED_PRODUCT_CATEGORY ( 'part', '', ( #86 ) ) ;
#166 = CARTESIAN_POINT ( 'NONE',  ( 0.06250000000000000000, 7.654042494670956004E-18, 0.05849999999999978134 ) ) ;
#167 = DIRECTION ( 'NONE',  ( -1.000000000000000000, 0.0000000000000000000, 0.0000000000000000000 ) ) ;
#168 = DIRECTION ( 'NONE',  ( -0.0000000000000000000, -0.0000000000000000000, -1.000000000000000000 ) ) ;
#169 = DIRECTION ( 'NONE',  ( -1.000000000000000000, 0.0000000000000000000, 0.0000000000000000000 ) ) ;
#170 = CARTESIAN_POINT ( 'NONE',  ( 0.0000000000000000000, 0.0000000000000000000, 2.941500000000000448 ) ) ;
#171 = VECTOR ( 'NONE', #45, 39.37007874015748143 ) ;
#172 = AXIS2_PLACEMENT_3D ( 'NONE', #70, #90, #2 ) ;
#173 = SURFACE_STYLE_USAGE ( .BOTH. , #210 ) ;
#174 = PRODUCT_DEFINITION ( 'UNKNOWN', '', #160, #205 ) ;
#175 = PLANE ( 'NONE',  #95 ) ;
#176 = FILL_AREA_STYLE_COLOUR ( '', #37 ) ;
#177 =( NAMED_UNIT ( * ) PLANE_ANGLE_UNIT ( ) SI_UNIT ( $, .RADIAN. ) );
#178 = DIRECTION ( 'NONE',  ( -1.000000000000000000, 0.0000000000000000000, 0.0000000000000000000 ) ) ;
#179 = AXIS2_PLACEMENT_3D ( 'NONE', #51, #54, #41 ) ;
#180 = ORIENTED_EDGE ( 'NONE', *, *, #155, .F. ) ;
#181 = DIMENSIONAL_EXPONENTS ( 1.000000000000000000, 0.0000000000000000000, 0.0000000000000000000, 0.0000000000000000000, 0.0000000000000000000, 0.0000000000000000000, 0.0000000000000000000 ) ;
#182 = ORIENTED_EDGE ( 'NONE', *, *, #146, .F. ) ;
#183 = EDGE_LOOP ( 'NONE', ( #235, #58 ) ) ;
#184 = AXIS2_PLACEMENT_3D ( 'NONE', #44, #246, #27 ) ;
#185 = FACE_OUTER_BOUND ( 'NONE', #42, .T. ) ;
#186 = DIRECTION ( 'NONE',  ( -1.000000000000000000, 0.0000000000000000000, 0.0000000000000000000 ) ) ;
#187 = PLANE ( 'NONE',  #237 ) ;
#188 = CARTESIAN_POINT ( 'NONE',  ( 0.0000000000000000000, 0.0000000000000000000, 0.05849999999999978134 ) ) ;
#189 = CARTESIAN_POINT ( 'NONE',  ( 0.004000000000000000083, 0.0000000000000000000, 3.000000000000000444 ) ) ;
#190 = DIRECTION ( 'NONE',  ( 0.0000000000000000000, 0.0000000000000000000, -1.000000000000000000 ) ) ;
#191 = CONICAL_SURFACE ( 'NONE', #218, 0.004000000000000000083, 0.7853981633974501664 ) ;
#192 =( GEOMETRIC_REPRESENTATION_CONTEXT ( 3 ) GLOBAL_UNCERTAINTY_ASSIGNED_CONTEXT ( ( #61 ) ) GLOBAL_UNIT_ASSIGNED_CONTEXT ( ( #134, #177, #140 ) ) REPRESENTATION_CONTEXT ( 'NONE', 'WORKASPACE' ) );
#193 = FACE_OUTER_BOUND ( 'NONE', #8, .T. ) ;
#194 = APPLICATION_PROTOCOL_DEFINITION ( 'draft international standard', 'automotive_design', 1998, #71 ) ;
#195 =( NAMED_UNIT ( * ) SI_UNIT ( $, .STERADIAN. ) SOLID_ANGLE_UNIT ( ) );
#196 = ORIENTED_EDGE ( 'NONE', *, *, #126, .F. ) ;
#197 = ORIENTED_EDGE ( 'NONE', *, *, #3, .F. ) ;
#198 = CIRCLE ( 'NONE', #211, 0.004000000000000000083 ) ;
#199 = VECTOR ( 'NONE', #66, 39.37007874015748143 ) ;
#200 = VERTEX_POINT ( 'NONE', #221 ) ;
#201 = CLOSED_SHELL ( 'NONE', ( #232, #31, #131, #59, #228, #139, #115, #222 ) ) ;
#202 = PRESENTATION_LAYER_ASSIGNMENT (  '', '', ( #142 ) ) ;
#203 = CARTESIAN_POINT ( 'NONE',  ( 0.0000000000000000000, 0.0000000000000000000, 0.0000000000000000000 ) ) ;
#204 = CARTESIAN_POINT ( 'NONE',  ( 0.0000000000000000000, 0.0000000000000000000, 3.000000000000000444 ) ) ;
#205 = PRODUCT_DEFINITION_CONTEXT ( 'detailed design', #122, 'design' ) ;
#206 = FACE_OUTER_BOUND ( 'NONE', #217, .T. ) ;
#207 = CIRCLE ( 'NONE', #184, 0.004000000000000000083 ) ;
#208 = CARTESIAN_POINT ( 'NONE',  ( 0.0000000000000000000, 0.0000000000000000000, 0.0000000000000000000 ) ) ;
#209 = LINE ( 'NONE', #84, #67 ) ;
#210 = SURFACE_SIDE_STYLE ('',( #230 ) ) ;
#211 = AXIS2_PLACEMENT_3D ( 'NONE', #223, #107, #46 ) ;
#212 = DIRECTION ( 'NONE',  ( 0.0000000000000000000, 0.0000000000000000000, 1.000000000000000000 ) ) ;
#213 = COLOUR_RGB ( '',0.7921568627450980005, 0.8196078431372548767, 0.9333333333333333481 ) ;
#214 = EDGE_CURVE ( 'NONE', #200, #147, #15, .T. ) ;
#215 = APPLICATION_PROTOCOL_DEFINITION ( 'draft international standard', 'automotive_design', 1998, #122 ) ;
#216 = EDGE_LOOP ( 'NONE', ( #21, #120, #145, #60 ) ) ;
#217 = EDGE_LOOP ( 'NONE', ( #238, #144 ) ) ;
#218 = AXIS2_PLACEMENT_3D ( 'NONE', #32, #153, #128 ) ;
#219 = VERTEX_POINT ( 'NONE', #81 ) ;
#220 = VERTEX_POINT ( 'NONE', #166 ) ;
#221 = CARTESIAN_POINT ( 'NONE',  ( -0.004000000000000000083, 4.071950607164948872E-18, 0.0000000000000000000 ) ) ;
#222 = ADVANCED_FACE ( 'NONE', ( #110 ), #175, .T. ) ;
#223 = CARTESIAN_POINT ( 'NONE',  ( 0.0000000000000000000, 0.0000000000000000000, 3.000000000000000444 ) ) ;
#224 = LINE ( 'NONE', #151, #63 ) ;
#225 = AXIS2_PLACEMENT_3D ( 'NONE', #170, #129, #186 ) ;
#226 = DIRECTION ( 'NONE',  ( -0.0000000000000000000, -0.0000000000000000000, -1.000000000000000000 ) ) ;
#227 = PRODUCT_DEFINITION_SHAPE ( 'NONE', 'NONE',  #174 ) ;
#228 = ADVANCED_FACE ( 'NONE', ( #36 ), #100, .T. ) ;
#229 =( LENGTH_UNIT ( ) NAMED_UNIT ( * ) SI_UNIT ( $, .METRE. ) );
#230 = SURFACE_STYLE_FILL_AREA ( #111 ) ;
#231 = DIRECTION ( 'NONE',  ( 1.000000000000000000, 0.0000000000000000000, 0.0000000000000000000 ) ) ;
#232 = ADVANCED_FACE ( 'NONE', ( #193 ), #113, .T. ) ;
#233 =( NAMED_UNIT ( * ) PLANE_ANGLE_UNIT ( ) SI_UNIT ( $, .RADIAN. ) );
#234 =( NAMED_UNIT ( * ) SI_UNIT ( $, .STERADIAN. ) SOLID_ANGLE_UNIT ( ) );
#235 = ORIENTED_EDGE ( 'NONE', *, *, #106, .F. ) ;
#236 = CARTESIAN_POINT ( 'NONE',  ( 0.004000000000000000083, 0.0000000000000000000, 0.0000000000000000000 ) ) ;
#237 = AXIS2_PLACEMENT_3D ( 'NONE', #203, #26, #28 ) ;
#238 = ORIENTED_EDGE ( 'NONE', *, *, #3, .T. ) ;
#239 = VERTEX_POINT ( 'NONE', #135 ) ;
#240 = LINE ( 'NONE', #124, #171 ) ;
#241 = AXIS2_PLACEMENT_3D ( 'NONE', #127, #226, #167 ) ;
#242 =( GEOMETRIC_REPRESENTATION_CONTEXT ( 3 ) GLOBAL_UNCERTAINTY_ASSIGNED_CONTEXT ( ( #10 ) ) GLOBAL_UNIT_ASSIGNED_CONTEXT ( ( #116, #119, #234 ) ) REPRESENTATION_CONTEXT ( 'NONE', 'WORKASPACE' ) );
#243 = DIRECTION ( 'NONE',  ( -0.0000000000000000000, -0.0000000000000000000, -1.000000000000000000 ) ) ;
#244 = MANIFOLD_SOLID_BREP ( 'Mirror1', #201 ) ;
#245 = DIRECTION ( 'NONE',  ( -1.000000000000000000, 0.0000000000000000000, 0.0000000000000000000 ) ) ;
#246 = DIRECTION ( 'NONE',  ( 0.0000000000000000000, 0.0000000000000000000, -1.000000000000000000 ) ) ;
#247 = AXIS2_PLACEMENT_3D ( 'NONE', #208, #11, #169 ) ;
#248 = MECHANICAL_DESIGN_GEOMETRIC_PRESENTATION_REPRESENTATION (  '', ( #137 ), #34 ) ;
#249 = CARTESIAN_POINT ( 'NONE',  ( 0.0000000000000000000, 0.0000000000000000000, 2.941500000000000448 ) ) ;
ENDSEC;
END-ISO-10303-21;
