ISO-10303-21;
HEADER;
FILE_DESCRIPTION (( 'STEP AP214' ),
    '1' );
FILE_NAME ('Micro_SEM-093-02X.STEP',
    '2021-09-02T01:06:58',
    ( '' ),
    ( '' ),
    'SwSTEP 2.0',
    'SolidWorks 2020',
    '' );
FILE_SCHEMA (( 'AUTOMOTIVE_DESIGN' ));
ENDSEC;

DATA;
#1 = DIRECTION ( 'NONE',  ( -1.000000000000000000, 0.0000000000000000000, 0.0000000000000000000 ) ) ;
#2 = ORIENTED_EDGE ( 'NONE', *, *, #250, .F. ) ;
#3 = FACE_OUTER_BOUND ( 'NONE', #283, .T. ) ;
#4 = VECTOR ( 'NONE', #150, 39.37007874015748143 ) ;
#5 = CIRCLE ( 'NONE', #267, 0.06250000000000000000 ) ;
#6 =( GEOMETRIC_REPRESENTATION_CONTEXT ( 3 ) GLOBAL_UNCERTAINTY_ASSIGNED_CONTEXT ( ( #279 ) ) GLOBAL_UNIT_ASSIGNED_CONTEXT ( ( #159, #67, #16 ) ) REPRESENTATION_CONTEXT ( 'NONE', 'WORKASPACE' ) );
#7 = EDGE_LOOP ( 'NONE', ( #103, #81 ) ) ;
#8 = ORIENTED_EDGE ( 'NONE', *, *, #160, .T. ) ;
#9 = AXIS2_PLACEMENT_3D ( 'NONE', #195, #234, #57 ) ;
#10 = EDGE_CURVE ( 'NONE', #128, #168, #272, .T. ) ;
#11 = CARTESIAN_POINT ( 'NONE',  ( 0.04685310000000000169, 5.737849894513085128E-18, -5.737849894513086668E-18 ) ) ;
#12 = SURFACE_SIDE_STYLE ('',( #200 ) ) ;
#13 = MECHANICAL_DESIGN_GEOMETRIC_PRESENTATION_REPRESENTATION (  '', ( #189 ), #116 ) ;
#14 =( CONVERSION_BASED_UNIT ( 'INCH', #135 ) LENGTH_UNIT ( ) NAMED_UNIT ( #228 ) );
#15 = DIRECTION ( 'NONE',  ( -0.0000000000000000000, -0.0000000000000000000, -1.000000000000000000 ) ) ;
#16 =( NAMED_UNIT ( * ) SI_UNIT ( $, .STERADIAN. ) SOLID_ANGLE_UNIT ( ) );
#17 = CONICAL_SURFACE ( 'NONE', #9, 0.04685310000000000863, 0.1745329251994339192 ) ;
#18 = CARTESIAN_POINT ( 'NONE',  ( 7.026839507303431300E-34, 0.0000000000000000000, 5.737849894513086668E-18 ) ) ;
#19 = DIRECTION ( 'NONE',  ( -1.224646799147353454E-16, -0.0000000000000000000, -1.000000000000000000 ) ) ;
#20 = EDGE_CURVE ( 'NONE', #216, #128, #243, .T. ) ;
#21 = CARTESIAN_POINT ( 'NONE',  ( 0.06250000000000000000, 7.654042494670956004E-18, 1.485000000000000764 ) ) ;
#22 = AXIS2_PLACEMENT_3D ( 'NONE', #170, #220, #262 ) ;
#23 = APPLICATION_PROTOCOL_DEFINITION ( 'draft international standard', 'automotive_design', 1998, #231 ) ;
#24 = EDGE_CURVE ( 'NONE', #192, #122, #5, .T. ) ;
#25 = ORIENTED_EDGE ( 'NONE', *, *, #20, .F. ) ;
#26 = ADVANCED_FACE ( 'NONE', ( #256 ), #17, .T. ) ;
#27 = CIRCLE ( 'NONE', #275, 0.04750000000000064587 ) ;
#28 = VECTOR ( 'NONE', #89, 39.37007874015748143 ) ;
#29 = CARTESIAN_POINT ( 'NONE',  ( -0.04685309999999998087, 5.737849894513086668E-18, 0.1880000000000000282 ) ) ;
#30 = DIRECTION ( 'NONE',  ( 0.0000000000000000000, 0.0000000000000000000, 1.000000000000000000 ) ) ;
#31 = DIRECTION ( 'NONE',  ( -0.1736481776669312194, 2.126576849575783625E-17, 0.9848077530122080203 ) ) ;
#32 = LINE ( 'NONE', #286, #134 ) ;
#33 = CARTESIAN_POINT ( 'NONE',  ( 0.0000000000000000000, 0.0000000000000000000, 1.500000000000000222 ) ) ;
#34 = CARTESIAN_POINT ( 'NONE',  ( 3.389062808013151311E-17, 0.0000000000000000000, 0.2767379795033758083 ) ) ;
#35 = DIRECTION ( 'NONE',  ( 1.224646799147353454E-16, 0.0000000000000000000, 1.000000000000000000 ) ) ;
#36 = CARTESIAN_POINT ( 'NONE',  ( -0.06249999999999996531, 0.0000000000000000000, 0.2767379795033758083 ) ) ;
#37 = DIRECTION ( 'NONE',  ( 1.000000000000000000, 0.0000000000000000000, 0.0000000000000000000 ) ) ;
#38 = DIRECTION ( 'NONE',  ( 1.000000000000000000, 0.0000000000000000000, -0.0000000000000000000 ) ) ;
#39 = DIRECTION ( 'NONE',  ( 0.0000000000000000000, 0.0000000000000000000, -1.000000000000000000 ) ) ;
#40 = MANIFOLD_SOLID_BREP ( 'Cut-Revolve1', #43 ) ;
#41 = ADVANCED_FACE ( 'NONE', ( #90 ), #129, .T. ) ;
#42 = VECTOR ( 'NONE', #155, 39.37007874015748143 ) ;
#43 = CLOSED_SHELL ( 'NONE', ( #191, #26, #124, #174, #156, #41, #261, #178, #126, #108 ) ) ;
#44 = DIRECTION ( 'NONE',  ( -1.224646799147353454E-16, -0.0000000000000000000, -1.000000000000000000 ) ) ;
#45 = EDGE_CURVE ( 'NONE', #192, #168, #158, .T. ) ;
#46 = CARTESIAN_POINT ( 'NONE',  ( 0.04750000000000064587, 5.817072295950006528E-18, 1.500000000000000222 ) ) ;
#47 = PRODUCT_DEFINITION ( 'UNKNOWN', '', #83, #130 ) ;
#48 = EDGE_CURVE ( 'NONE', #74, #149, #77, .T. ) ;
#49 = STYLED_ITEM ( 'NONE', ( #143 ), #214 ) ;
#50 = ORIENTED_EDGE ( 'NONE', *, *, #45, .T. ) ;
#51 =( NAMED_UNIT ( * ) SI_UNIT ( $, .STERADIAN. ) SOLID_ANGLE_UNIT ( ) );
#52 = EDGE_CURVE ( 'NONE', #171, #149, #133, .T. ) ;
#53 = CONICAL_SURFACE ( 'NONE', #271, 0.04750000000000064587, 0.7853981633974457255 ) ;
#54 = DIRECTION ( 'NONE',  ( 0.0000000000000000000, 0.0000000000000000000, 1.000000000000000000 ) ) ;
#55 = PRODUCT_DEFINITION_SHAPE ( 'NONE', 'NONE',  #47 ) ;
#56 = EDGE_LOOP ( 'NONE', ( #218, #146, #161, #71 ) ) ;
#57 = DIRECTION ( 'NONE',  ( 1.000000000000000000, 0.0000000000000000000, 0.0000000000000000000 ) ) ;
#58 = CIRCLE ( 'NONE', #166, 0.06250000000000000000 ) ;
#59 = EDGE_LOOP ( 'NONE', ( #76, #162, #284, #278 ) ) ;
#60 = CARTESIAN_POINT ( 'NONE',  ( 0.0000000000000000000, 0.0000000000000000000, 1.500000000000000222 ) ) ;
#61 = ORIENTED_EDGE ( 'NONE', *, *, #106, .T. ) ;
#62 = DIRECTION ( 'NONE',  ( 0.0000000000000000000, 0.0000000000000000000, 1.000000000000000000 ) ) ;
#63 = CARTESIAN_POINT ( 'NONE',  ( 0.06250000000000002776, 7.654042494670959086E-18, 0.2767379795033758083 ) ) ;
#64 = FILL_AREA_STYLE ('',( #87 ) ) ;
#65 = CARTESIAN_POINT ( 'NONE',  ( 7.026839507303431300E-34, 0.0000000000000000000, 5.737849894513086668E-18 ) ) ;
#66 = AXIS2_PLACEMENT_3D ( 'NONE', #18, #179, #246 ) ;
#67 =( NAMED_UNIT ( * ) PLANE_ANGLE_UNIT ( ) SI_UNIT ( $, .RADIAN. ) );
#68 =( NAMED_UNIT ( * ) PLANE_ANGLE_UNIT ( ) SI_UNIT ( $, .RADIAN. ) );
#69 = CARTESIAN_POINT ( 'NONE',  ( -0.04685310000000000169, 0.0000000000000000000, 5.737849894513086668E-18 ) ) ;
#70 = DIRECTION ( 'NONE',  ( -1.000000000000000000, 0.0000000000000000000, 0.0000000000000000000 ) ) ;
#71 = ORIENTED_EDGE ( 'NONE', *, *, #241, .F. ) ;
#72 = VECTOR ( 'NONE', #268, 39.37007874015748143 ) ;
#73 = UNCERTAINTY_MEASURE_WITH_UNIT (LENGTH_MEASURE( 1.000000000000000082E-05 ), #14, 'distance_accuracy_value', 'NONE');
#74 = VERTEX_POINT ( 'NONE', #270 ) ;
#75 =( NAMED_UNIT ( * ) PLANE_ANGLE_UNIT ( ) SI_UNIT ( $, .RADIAN. ) );
#76 = ORIENTED_EDGE ( 'NONE', *, *, #296, .F. ) ;
#77 = CIRCLE ( 'NONE', #215, 0.04685310000000000169 ) ;
#78 =( LENGTH_UNIT ( ) NAMED_UNIT ( * ) SI_UNIT ( $, .METRE. ) );
#79 = ORIENTED_EDGE ( 'NONE', *, *, #45, .F. ) ;
#80 = ORIENTED_EDGE ( 'NONE', *, *, #91, .T. ) ;
#81 = ORIENTED_EDGE ( 'NONE', *, *, #241, .T. ) ;
#82 = CARTESIAN_POINT ( 'NONE',  ( 0.04685310000000000169, 5.737849894513085128E-18, 0.0000000000000000000 ) ) ;
#83 = PRODUCT_DEFINITION_FORMATION_WITH_SPECIFIED_SOURCE ( 'ANY', '', #142, .NOT_KNOWN. ) ;
#84 = VERTEX_POINT ( 'NONE', #180 ) ;
#85 = CARTESIAN_POINT ( 'NONE',  ( 0.0000000000000000000, 0.0000000000000000000, 0.0000000000000000000 ) ) ;
#86 = CARTESIAN_POINT ( 'NONE',  ( 0.04750000000000064587, 6.735557395310482421E-18, 1.500000000000000222 ) ) ;
#87 = FILL_AREA_STYLE_COLOUR ( '', #277 ) ;
#88 = CARTESIAN_POINT ( 'NONE',  ( 2.302335982397024786E-17, 0.0000000000000000000, 0.1880000000000000282 ) ) ;
#89 = DIRECTION ( 'NONE',  ( 0.7071067811865456854, 8.659560562354911904E-17, -0.7071067811865493491 ) ) ;
#90 = FACE_OUTER_BOUND ( 'NONE', #237, .T. ) ;
#91 = EDGE_CURVE ( 'NONE', #164, #192, #145, .T. ) ;
#92 = SURFACE_STYLE_FILL_AREA ( #297 ) ;
#93 = DIMENSIONAL_EXPONENTS ( 1.000000000000000000, 0.0000000000000000000, 0.0000000000000000000, 0.0000000000000000000, 0.0000000000000000000, 0.0000000000000000000, 0.0000000000000000000 ) ;
#94 = CARTESIAN_POINT ( 'NONE',  ( 0.0000000000000000000, 0.0000000000000000000, 1.500000000000000222 ) ) ;
#95 = AXIS2_PLACEMENT_3D ( 'NONE', #299, #15, #292 ) ;
#96 = DIRECTION ( 'NONE',  ( -1.000000000000000000, 0.0000000000000000000, 1.224646799147353454E-16 ) ) ;
#97 = CARTESIAN_POINT ( 'NONE',  ( -0.04685309999999998087, 6.695946194592021721E-18, 0.1880000000000000282 ) ) ;
#98 =( CONVERSION_BASED_UNIT ( 'INCH', #282 ) LENGTH_UNIT ( ) NAMED_UNIT ( #93 ) );
#99 = EDGE_LOOP ( 'NONE', ( #79, #258, #211, #230 ) ) ;
#100 = MECHANICAL_DESIGN_GEOMETRIC_PRESENTATION_REPRESENTATION (  '', ( #49 ), #186 ) ;
#101 = ORIENTED_EDGE ( 'NONE', *, *, #265, .T. ) ;
#102 = ORIENTED_EDGE ( 'NONE', *, *, #182, .F. ) ;
#103 = ORIENTED_EDGE ( 'NONE', *, *, #48, .T. ) ;
#104 = ORIENTED_EDGE ( 'NONE', *, *, #52, .T. ) ;
#105 = APPLICATION_CONTEXT ( 'automotive_design' ) ;
#106 = EDGE_CURVE ( 'NONE', #84, #164, #27, .T. ) ;
#107 = DIRECTION ( 'NONE',  ( -1.000000000000000000, 0.0000000000000000000, 0.0000000000000000000 ) ) ;
#108 = ADVANCED_FACE ( 'NONE', ( #176 ), #236, .F. ) ;
#109 = SURFACE_STYLE_USAGE ( .BOTH. , #12 ) ;
#110 = VECTOR ( 'NONE', #217, 39.37007874015748143 ) ;
#111 = ORIENTED_EDGE ( 'NONE', *, *, #48, .F. ) ;
#112 = CARTESIAN_POINT ( 'NONE',  ( 0.0000000000000000000, 0.0000000000000000000, 0.0000000000000000000 ) ) ;
#113 = ORIENTED_EDGE ( 'NONE', *, *, #91, .F. ) ;
#114 = CARTESIAN_POINT ( 'NONE',  ( -0.06250000000000000000, 0.0000000000000000000, 1.485000000000000764 ) ) ;
#115 = FACE_OUTER_BOUND ( 'NONE', #188, .T. ) ;
#116 =( GEOMETRIC_REPRESENTATION_CONTEXT ( 3 ) GLOBAL_UNCERTAINTY_ASSIGNED_CONTEXT ( ( #73 ) ) GLOBAL_UNIT_ASSIGNED_CONTEXT ( ( #14, #68, #264 ) ) REPRESENTATION_CONTEXT ( 'NONE', 'WORKASPACE' ) );
#117 = CARTESIAN_POINT ( 'NONE',  ( 2.302335982397024786E-17, 0.0000000000000000000, 0.1880000000000000282 ) ) ;
#118 = LENGTH_MEASURE_WITH_UNIT ( LENGTH_MEASURE( 0.02539999999999999897 ), #203 );
#119 = DIRECTION ( 'NONE',  ( -1.000000000000000000, 0.0000000000000000000, 1.224646799147353454E-16 ) ) ;
#120 = LINE ( 'NONE', #139, #42 ) ;
#121 = VECTOR ( 'NONE', #273, 39.37007874015748143 ) ;
#122 = VERTEX_POINT ( 'NONE', #114 ) ;
#123 = ORIENTED_EDGE ( 'NONE', *, *, #106, .F. ) ;
#124 = ADVANCED_FACE ( 'NONE', ( #138 ), #53, .T. ) ;
#125 = EDGE_CURVE ( 'NONE', #122, #192, #58, .T. ) ;
#126 = ADVANCED_FACE ( 'NONE', ( #173 ), #294, .T. ) ;
#127 = DIRECTION ( 'NONE',  ( 1.000000000000000000, 0.0000000000000000000, 0.0000000000000000000 ) ) ;
#128 = VERTEX_POINT ( 'NONE', #36 ) ;
#129 = PLANE ( 'NONE',  #152 ) ;
#130 = PRODUCT_DEFINITION_CONTEXT ( 'detailed design', #105, 'design' ) ;
#131 = CARTESIAN_POINT ( 'NONE',  ( 0.0000000000000000000, 0.0000000000000000000, 0.0000000000000000000 ) ) ;
#132 = DIRECTION ( 'NONE',  ( -1.224646799147353454E-16, -0.0000000000000000000, -1.000000000000000000 ) ) ;
#133 = LINE ( 'NONE', #11, #4 ) ;
#134 = VECTOR ( 'NONE', #147, 39.37007874015748143 ) ;
#135 = LENGTH_MEASURE_WITH_UNIT ( LENGTH_MEASURE( 0.02539999999999999897 ), #151 );
#136 = DIRECTION ( 'NONE',  ( 0.0000000000000000000, 0.0000000000000000000, -1.000000000000000000 ) ) ;
#137 = DIRECTION ( 'NONE',  ( 1.000000000000000000, 0.0000000000000000000, 0.0000000000000000000 ) ) ;
#138 = FACE_OUTER_BOUND ( 'NONE', #285, .T. ) ;
#139 = CARTESIAN_POINT ( 'NONE',  ( -0.06250000000000000000, 0.0000000000000000000, 1.500000000000000222 ) ) ;
#140 = AXIS2_PLACEMENT_3D ( 'NONE', #117, #229, #210 ) ;
#141 = ORIENTED_EDGE ( 'NONE', *, *, #24, .F. ) ;
#142 = PRODUCT ( 'Micro_SEM-093-02X', 'Micro_SEM-093-02X', '', ( #239 ) ) ;
#143 = PRESENTATION_STYLE_ASSIGNMENT (( #276 ) ) ;
#144 = ORIENTED_EDGE ( 'NONE', *, *, #125, .F. ) ;
#145 = LINE ( 'NONE', #46, #28 ) ;
#146 = ORIENTED_EDGE ( 'NONE', *, *, #213, .T. ) ;
#147 = DIRECTION ( 'NONE',  ( -0.7071067811865456854, 0.0000000000000000000, -0.7071067811865493491 ) ) ;
#148 = DIRECTION ( 'NONE',  ( 0.0000000000000000000, 0.0000000000000000000, 1.000000000000000000 ) ) ;
#149 = VERTEX_POINT ( 'NONE', #82 ) ;
#150 = DIRECTION ( 'NONE',  ( -1.224646799147353454E-16, -0.0000000000000000000, -1.000000000000000000 ) ) ;
#151 =( LENGTH_UNIT ( ) NAMED_UNIT ( * ) SI_UNIT ( $, .METRE. ) );
#152 = AXIS2_PLACEMENT_3D ( 'NONE', #33, #62, #199 ) ;
#153 = DIRECTION ( 'NONE',  ( 1.000000000000000000, 0.0000000000000000000, 0.0000000000000000000 ) ) ;
#154 = DIRECTION ( 'NONE',  ( -1.224646799147353454E-16, -0.0000000000000000000, -1.000000000000000000 ) ) ;
#155 = DIRECTION ( 'NONE',  ( -0.0000000000000000000, -0.0000000000000000000, -1.000000000000000000 ) ) ;
#156 = ADVANCED_FACE ( 'NONE', ( #242 ), #206, .T. ) ;
#157 = AXIS2_PLACEMENT_3D ( 'NONE', #60, #148, #240 ) ;
#158 = LINE ( 'NONE', #293, #110 ) ;
#159 =( CONVERSION_BASED_UNIT ( 'INCH', #118 ) LENGTH_UNIT ( ) NAMED_UNIT ( #245 ) );
#160 = EDGE_CURVE ( 'NONE', #164, #84, #289, .T. ) ;
#161 = ORIENTED_EDGE ( 'NONE', *, *, #274, .T. ) ;
#162 = ORIENTED_EDGE ( 'NONE', *, *, #20, .T. ) ;
#163 = AXIS2_PLACEMENT_3D ( 'NONE', #34, #132, #197 ) ;
#164 = VERTEX_POINT ( 'NONE', #86 ) ;
#165 = ORIENTED_EDGE ( 'NONE', *, *, #182, .T. ) ;
#166 = AXIS2_PLACEMENT_3D ( 'NONE', #201, #196, #287 ) ;
#167 = EDGE_LOOP ( 'NONE', ( #113, #123, #165, #141 ) ) ;
#168 = VERTEX_POINT ( 'NONE', #63 ) ;
#169 = APPLICATION_PROTOCOL_DEFINITION ( 'draft international standard', 'automotive_design', 1998, #105 ) ;
#170 = CARTESIAN_POINT ( 'NONE',  ( 0.0000000000000000000, 0.0000000000000000000, 1.500000000000000222 ) ) ;
#171 = VERTEX_POINT ( 'NONE', #185 ) ;
#172 = AXIS2_PLACEMENT_3D ( 'NONE', #88, #35, #202 ) ;
#173 = FACE_OUTER_BOUND ( 'NONE', #56, .T. ) ;
#174 = ADVANCED_FACE ( 'NONE', ( #3 ), #207, .T. ) ;
#175 = ORIENTED_EDGE ( 'NONE', *, *, #296, .T. ) ;
#176 = FACE_OUTER_BOUND ( 'NONE', #7, .T. ) ;
#177 = COLOUR_RGB ( '',0.7921568627450980005, 0.8196078431372548767, 0.9333333333333333481 ) ;
#178 = ADVANCED_FACE ( 'NONE', ( #115 ), #254, .T. ) ;
#179 = DIRECTION ( 'NONE',  ( -1.224646799147353454E-16, -0.0000000000000000000, -1.000000000000000000 ) ) ;
#180 = CARTESIAN_POINT ( 'NONE',  ( -0.04750000000000064587, 0.0000000000000000000, 1.500000000000000222 ) ) ;
#181 = AXIS2_PLACEMENT_3D ( 'NONE', #131, #244, #38 ) ;
#182 = EDGE_CURVE ( 'NONE', #84, #122, #32, .T. ) ;
#183 = LINE ( 'NONE', #184, #72 ) ;
#184 = CARTESIAN_POINT ( 'NONE',  ( 0.04685310000000002945, 0.0000000000000000000, 0.1880000000000000282 ) ) ;
#185 = CARTESIAN_POINT ( 'NONE',  ( 0.04685310000000002945, 0.0000000000000000000, 0.1880000000000000282 ) ) ;
#186 =( GEOMETRIC_REPRESENTATION_CONTEXT ( 3 ) GLOBAL_UNCERTAINTY_ASSIGNED_CONTEXT ( ( #238 ) ) GLOBAL_UNIT_ASSIGNED_CONTEXT ( ( #98, #75, #51 ) ) REPRESENTATION_CONTEXT ( 'NONE', 'WORKASPACE' ) );
#187 = EDGE_LOOP ( 'NONE', ( #175, #104, #111, #255 ) ) ;
#188 = EDGE_LOOP ( 'NONE', ( #25, #232, #101, #190 ) ) ;
#189 = STYLED_ITEM ( 'NONE', ( #224 ), #40 ) ;
#190 = ORIENTED_EDGE ( 'NONE', *, *, #233, .T. ) ;
#191 = ADVANCED_FACE ( 'NONE', ( #219 ), #263, .T. ) ;
#192 = VERTEX_POINT ( 'NONE', #21 ) ;
#193 = AXIS2_PLACEMENT_3D ( 'NONE', #112, #222, #96 ) ;
#194 = ORIENTED_EDGE ( 'NONE', *, *, #125, .T. ) ;
#195 = CARTESIAN_POINT ( 'NONE',  ( 2.302335982397024786E-17, 0.0000000000000000000, 0.1880000000000000282 ) ) ;
#196 = DIRECTION ( 'NONE',  ( 0.0000000000000000000, 0.0000000000000000000, -1.000000000000000000 ) ) ;
#197 = DIRECTION ( 'NONE',  ( 1.000000000000000000, 0.0000000000000000000, 0.0000000000000000000 ) ) ;
#198 = ORIENTED_EDGE ( 'NONE', *, *, #160, .F. ) ;
#199 = DIRECTION ( 'NONE',  ( 1.000000000000000000, 0.0000000000000000000, -0.0000000000000000000 ) ) ;
#200 = SURFACE_STYLE_FILL_AREA ( #64 ) ;
#201 = CARTESIAN_POINT ( 'NONE',  ( 0.0000000000000000000, 0.0000000000000000000, 1.485000000000000764 ) ) ;
#202 = DIRECTION ( 'NONE',  ( 1.000000000000000000, 0.0000000000000000000, 0.0000000000000000000 ) ) ;
#203 =( LENGTH_UNIT ( ) NAMED_UNIT ( * ) SI_UNIT ( $, .METRE. ) );
#204 = VECTOR ( 'NONE', #31, 39.37007874015747433 ) ;
#205 = FILL_AREA_STYLE_COLOUR ( '', #177 ) ;
#206 = CYLINDRICAL_SURFACE ( 'NONE', #22, 0.06250000000000000000 ) ;
#207 = CYLINDRICAL_SURFACE ( 'NONE', #95, 0.06250000000000000000 ) ;
#208 = CIRCLE ( 'NONE', #259, 0.06250000000000000000 ) ;
#209 = FACE_OUTER_BOUND ( 'NONE', #167, .T. ) ;
#210 = DIRECTION ( 'NONE',  ( -1.000000000000000000, 0.0000000000000000000, 0.0000000000000000000 ) ) ;
#211 = ORIENTED_EDGE ( 'NONE', *, *, #250, .T. ) ;
#212 = AXIS2_PLACEMENT_3D ( 'NONE', #85, #54, #127 ) ;
#213 = EDGE_CURVE ( 'NONE', #171, #216, #247, .T. ) ;
#214 = ADVANCED_BREP_SHAPE_REPRESENTATION ( 'Micro_SEM-093-02X', ( #40, #212 ), #6 ) ;
#215 = AXIS2_PLACEMENT_3D ( 'NONE', #65, #249, #225 ) ;
#216 = VERTEX_POINT ( 'NONE', #97 ) ;
#217 = DIRECTION ( 'NONE',  ( -0.0000000000000000000, -0.0000000000000000000, -1.000000000000000000 ) ) ;
#218 = ORIENTED_EDGE ( 'NONE', *, *, #52, .F. ) ;
#219 = FACE_OUTER_BOUND ( 'NONE', #187, .T. ) ;
#220 = DIRECTION ( 'NONE',  ( -0.0000000000000000000, -0.0000000000000000000, -1.000000000000000000 ) ) ;
#221 = DIRECTION ( 'NONE',  ( 0.0000000000000000000, 0.0000000000000000000, -1.000000000000000000 ) ) ;
#222 = DIRECTION ( 'NONE',  ( -1.224646799147353454E-16, -0.0000000000000000000, -1.000000000000000000 ) ) ;
#223 = CONICAL_SURFACE ( 'NONE', #295, 0.04750000000000064587, 0.7853981633974457255 ) ;
#224 = PRESENTATION_STYLE_ASSIGNMENT (( #109 ) ) ;
#225 = DIRECTION ( 'NONE',  ( -1.000000000000000000, 0.0000000000000000000, 1.224646799147353454E-16 ) ) ;
#226 = CIRCLE ( 'NONE', #281, 0.04685310000000000863 ) ;
#227 = CARTESIAN_POINT ( 'NONE',  ( 0.0000000000000000000, 0.0000000000000000000, 1.500000000000000222 ) ) ;
#228 = DIMENSIONAL_EXPONENTS ( 1.000000000000000000, 0.0000000000000000000, 0.0000000000000000000, 0.0000000000000000000, 0.0000000000000000000, 0.0000000000000000000, 0.0000000000000000000 ) ;
#229 = DIRECTION ( 'NONE',  ( -1.224646799147353454E-16, -0.0000000000000000000, -1.000000000000000000 ) ) ;
#230 = ORIENTED_EDGE ( 'NONE', *, *, #233, .F. ) ;
#231 = APPLICATION_CONTEXT ( 'automotive_design' ) ;
#232 = ORIENTED_EDGE ( 'NONE', *, *, #213, .F. ) ;
#233 = EDGE_CURVE ( 'NONE', #168, #128, #208, .T. ) ;
#234 = DIRECTION ( 'NONE',  ( 1.224646799147353454E-16, 0.0000000000000000000, 1.000000000000000000 ) ) ;
#235 = PRESENTATION_LAYER_ASSIGNMENT (  '', '', ( #189 ) ) ;
#236 = PLANE ( 'NONE',  #181 ) ;
#237 = EDGE_LOOP ( 'NONE', ( #61, #8 ) ) ;
#238 = UNCERTAINTY_MEASURE_WITH_UNIT (LENGTH_MEASURE( 1.000000000000000082E-05 ), #98, 'distance_accuracy_value', 'NONE');
#239 = PRODUCT_CONTEXT ( 'NONE', #231, 'mechanical' ) ;
#240 = DIRECTION ( 'NONE',  ( 1.000000000000000000, 0.0000000000000000000, 0.0000000000000000000 ) ) ;
#241 = EDGE_CURVE ( 'NONE', #149, #74, #266, .T. ) ;
#242 = FACE_OUTER_BOUND ( 'NONE', #99, .T. ) ;
#243 = LINE ( 'NONE', #29, #204 ) ;
#244 = DIRECTION ( 'NONE',  ( 0.0000000000000000000, 0.0000000000000000000, 1.000000000000000000 ) ) ;
#245 = DIMENSIONAL_EXPONENTS ( 1.000000000000000000, 0.0000000000000000000, 0.0000000000000000000, 0.0000000000000000000, 0.0000000000000000000, 0.0000000000000000000, 0.0000000000000000000 ) ;
#246 = DIRECTION ( 'NONE',  ( -1.000000000000000000, 0.0000000000000000000, 1.224646799147353454E-16 ) ) ;
#247 = CIRCLE ( 'NONE', #140, 0.04685310000000000863 ) ;
#248 = LINE ( 'NONE', #69, #121 ) ;
#249 = DIRECTION ( 'NONE',  ( -1.224646799147353454E-16, -0.0000000000000000000, -1.000000000000000000 ) ) ;
#250 = EDGE_CURVE ( 'NONE', #122, #128, #120, .T. ) ;
#251 = CARTESIAN_POINT ( 'NONE',  ( 2.302335982397024786E-17, 0.0000000000000000000, 0.1880000000000000282 ) ) ;
#252 = PRESENTATION_LAYER_ASSIGNMENT (  '', '', ( #49 ) ) ;
#253 = PRODUCT_RELATED_PRODUCT_CATEGORY ( 'part', '', ( #142 ) ) ;
#254 = CONICAL_SURFACE ( 'NONE', #172, 0.04685310000000000863, 0.1745329251994339192 ) ;
#255 = ORIENTED_EDGE ( 'NONE', *, *, #274, .F. ) ;
#256 = FACE_OUTER_BOUND ( 'NONE', #59, .T. ) ;
#257 = CARTESIAN_POINT ( 'NONE',  ( 0.0000000000000000000, 0.0000000000000000000, 0.0000000000000000000 ) ) ;
#258 = ORIENTED_EDGE ( 'NONE', *, *, #24, .T. ) ;
#259 = AXIS2_PLACEMENT_3D ( 'NONE', #298, #154, #137 ) ;
#260 = SHAPE_DEFINITION_REPRESENTATION ( #55, #214 ) ;
#261 = ADVANCED_FACE ( 'NONE', ( #209 ), #223, .T. ) ;
#262 = DIRECTION ( 'NONE',  ( -1.000000000000000000, 0.0000000000000000000, 0.0000000000000000000 ) ) ;
#263 = CYLINDRICAL_SURFACE ( 'NONE', #193, 0.04685310000000000169 ) ;
#264 =( NAMED_UNIT ( * ) SI_UNIT ( $, .STERADIAN. ) SOLID_ANGLE_UNIT ( ) );
#265 = EDGE_CURVE ( 'NONE', #171, #168, #183, .T. ) ;
#266 = CIRCLE ( 'NONE', #66, 0.04685310000000000169 ) ;
#267 = AXIS2_PLACEMENT_3D ( 'NONE', #291, #221, #37 ) ;
#268 = DIRECTION ( 'NONE',  ( 0.1736481776669314137, 0.0000000000000000000, 0.9848077530122077983 ) ) ;
#269 = SURFACE_SIDE_STYLE ('',( #92 ) ) ;
#270 = CARTESIAN_POINT ( 'NONE',  ( -0.04685310000000000169, 0.0000000000000000000, 1.147569978902617334E-17 ) ) ;
#271 = AXIS2_PLACEMENT_3D ( 'NONE', #227, #136, #107 ) ;
#272 = CIRCLE ( 'NONE', #163, 0.06250000000000000000 ) ;
#273 = DIRECTION ( 'NONE',  ( -1.224646799147353454E-16, -0.0000000000000000000, -1.000000000000000000 ) ) ;
#274 = EDGE_CURVE ( 'NONE', #216, #74, #248, .T. ) ;
#275 = AXIS2_PLACEMENT_3D ( 'NONE', #290, #30, #153 ) ;
#276 = SURFACE_STYLE_USAGE ( .BOTH. , #269 ) ;
#277 = COLOUR_RGB ( '',0.7921568627450980005, 0.8196078431372548767, 0.9333333333333333481 ) ;
#278 = ORIENTED_EDGE ( 'NONE', *, *, #265, .F. ) ;
#279 = UNCERTAINTY_MEASURE_WITH_UNIT (LENGTH_MEASURE( 1.000000000000000082E-05 ), #159, 'distance_accuracy_value', 'NONE');
#280 = AXIS2_PLACEMENT_3D ( 'NONE', #257, #19, #119 ) ;
#281 = AXIS2_PLACEMENT_3D ( 'NONE', #251, #44, #70 ) ;
#282 = LENGTH_MEASURE_WITH_UNIT ( LENGTH_MEASURE( 0.02539999999999999897 ), #78 );
#283 = EDGE_LOOP ( 'NONE', ( #194, #50, #288, #2 ) ) ;
#284 = ORIENTED_EDGE ( 'NONE', *, *, #10, .T. ) ;
#285 = EDGE_LOOP ( 'NONE', ( #198, #80, #144, #102 ) ) ;
#286 = CARTESIAN_POINT ( 'NONE',  ( -0.04750000000000064587, 0.0000000000000000000, 1.500000000000000222 ) ) ;
#287 = DIRECTION ( 'NONE',  ( 1.000000000000000000, 0.0000000000000000000, 0.0000000000000000000 ) ) ;
#288 = ORIENTED_EDGE ( 'NONE', *, *, #10, .F. ) ;
#289 = CIRCLE ( 'NONE', #157, 0.04750000000000064587 ) ;
#290 = CARTESIAN_POINT ( 'NONE',  ( 0.0000000000000000000, 0.0000000000000000000, 1.500000000000000222 ) ) ;
#291 = CARTESIAN_POINT ( 'NONE',  ( 0.0000000000000000000, 0.0000000000000000000, 1.485000000000000764 ) ) ;
#292 = DIRECTION ( 'NONE',  ( -1.000000000000000000, 0.0000000000000000000, 0.0000000000000000000 ) ) ;
#293 = CARTESIAN_POINT ( 'NONE',  ( 0.06250000000000000000, 7.654042494670956004E-18, 1.500000000000000222 ) ) ;
#294 = CYLINDRICAL_SURFACE ( 'NONE', #280, 0.04685310000000000169 ) ;
#295 = AXIS2_PLACEMENT_3D ( 'NONE', #94, #39, #1 ) ;
#296 = EDGE_CURVE ( 'NONE', #216, #171, #226, .T. ) ;
#297 = FILL_AREA_STYLE ('',( #205 ) ) ;
#298 = CARTESIAN_POINT ( 'NONE',  ( 3.389062808013151311E-17, 0.0000000000000000000, 0.2767379795033758083 ) ) ;
#299 = CARTESIAN_POINT ( 'NONE',  ( 0.0000000000000000000, 0.0000000000000000000, 1.500000000000000222 ) ) ;
ENDSEC;
END-ISO-10303-21;
