ISO-10303-21;
HEADER;
FILE_DESCRIPTION (( 'STEP AP214' ),
    '1' );
FILE_NAME ('49241.STEP',
    '2023-06-30T21:58:56',
    ( '' ),
    ( '' ),
    'SwSTEP 2.0',
    'SolidWorks 2023',
    '' );
FILE_SCHEMA (( 'AUTOMOTIVE_DESIGN' ));
ENDSEC;

DATA;
#1 = CARTESIAN_POINT ( 'NONE',  ( 0.000000000000000000, 0.000000000000000000, 0.000000000000000000 ) ) ;
#2 = CARTESIAN_POINT ( 'NONE',  ( 0.1874999999999999722, 0.1875000000000000833, 0.000000000000000000 ) ) ;
#3 = AXIS2_PLACEMENT_3D ( 'NONE', #81, #288, #145 ) ;
#4 =( CONVERSION_BASED_UNIT ( 'INCH', #189 ) LENGTH_UNIT ( ) NAMED_UNIT ( #300 ) );
#5 = ORIENTED_EDGE ( 'NONE', *, *, #128, .F. ) ;
#6 = CARTESIAN_POINT ( 'NONE',  ( 0.000000000000000000, 0.000000000000000000, 0.000000000000000000 ) ) ;
#7 = ORIENTED_EDGE ( 'NONE', *, *, #101, .F. ) ;
#8 = CARTESIAN_POINT ( 'NONE',  ( -1.224646799147353207E-16, 3.500000000000000000, 0.000000000000000000 ) ) ;
#9 = CLOSED_SHELL ( 'NONE', ( #69, #166, #346, #30, #324 ) ) ;
#10 = CYLINDRICAL_SURFACE ( 'NONE', #281, 0.1874999999999999167 ) ;
#11 = AXIS2_PLACEMENT_3D ( 'NONE', #282, #133, #278 ) ;
#12 = PRESENTATION_STYLE_ASSIGNMENT (( #162 ) ) ;
#13 = DIRECTION ( 'NONE',  ( 1.000000000000000000, 0.000000000000000000, 0.000000000000000000 ) ) ;
#14 = DIRECTION ( 'NONE',  ( -1.000000000000000000, 0.000000000000000000, 0.000000000000000000 ) ) ;
#15 = LENGTH_MEASURE_WITH_UNIT ( LENGTH_MEASURE( 0.02539999999999999897 ), #45 );
#16 = EDGE_LOOP ( 'NONE', ( #46, #157 ) ) ;
#17 = CARTESIAN_POINT ( 'NONE',  ( -1.224646799147353207E-16, 3.500000000000000000, 0.000000000000000000 ) ) ;
#18 = CARTESIAN_POINT ( 'NONE',  ( 0.000000000000000000, 0.1875000000000000833, 0.000000000000000000 ) ) ;
#19 = VERTEX_POINT ( 'NONE', #213 ) ;
#20 = DIRECTION ( 'NONE',  ( 1.000000000000000000, 0.000000000000000000, -1.224646799147353207E-16 ) ) ;
#21 = LENGTH_MEASURE_WITH_UNIT ( LENGTH_MEASURE( 0.02539999999999999897 ), #58 );
#22 = LENGTH_MEASURE_WITH_UNIT ( LENGTH_MEASURE( 0.02539999999999999897 ), #232 );
#23 = UNCERTAINTY_MEASURE_WITH_UNIT (LENGTH_MEASURE( 1.000000000000000082E-05 ), #310, 'distance_accuracy_value', 'NONE');
#24 = DIRECTION ( 'NONE',  ( -0.000000000000000000, -1.000000000000000000, -0.000000000000000000 ) ) ;
#25 = DIRECTION ( 'NONE',  ( 1.000000000000000000, 0.000000000000000000, 0.000000000000000000 ) ) ;
#26 = CARTESIAN_POINT ( 'NONE',  ( 0.000000000000000000, 0.000000000000000000, 0.000000000000000000 ) ) ;
#27 = DIRECTION ( 'NONE',  ( -1.224646799147353454E-16, 1.000000000000000000, -0.000000000000000000 ) ) ;
#28 = DIRECTION ( 'NONE',  ( -1.224646799147353454E-16, 1.000000000000000000, -0.000000000000000000 ) ) ;
#29 = PRESENTATION_LAYER_ASSIGNMENT (  '', '', ( #299 ) ) ;
#30 = ADVANCED_FACE ( 'NONE', ( #235 ), #10, .T. ) ;
#31 =( GEOMETRIC_REPRESENTATION_CONTEXT ( 3 ) GLOBAL_UNCERTAINTY_ASSIGNED_CONTEXT ( ( #289 ) ) GLOBAL_UNIT_ASSIGNED_CONTEXT ( ( #207, #290, #184 ) ) REPRESENTATION_CONTEXT ( 'NONE', 'WORKASPACE' ) );
#32 = DIMENSIONAL_EXPONENTS ( 1.000000000000000000, 0.000000000000000000, 0.000000000000000000, 0.000000000000000000, 0.000000000000000000, 0.000000000000000000, 0.000000000000000000 ) ;
#33 = DIRECTION ( 'NONE',  ( -0.000000000000000000, -1.000000000000000000, -0.000000000000000000 ) ) ;
#34 = AXIS2_PLACEMENT_3D ( 'NONE', #113, #340, #25 ) ;
#35 = VERTEX_POINT ( 'NONE', #99 ) ;
#36 = COLOUR_RGB ( '',1.000000000000000000, 0.000000000000000000, 0.000000000000000000 ) ;
#37 = EDGE_CURVE ( 'NONE', #251, #328, #61, .T. ) ;
#38 = ORIENTED_EDGE ( 'NONE', *, *, #198, .F. ) ;
#39 = DIRECTION ( 'NONE',  ( 0.000000000000000000, 0.000000000000000000, -1.000000000000000000 ) ) ;
#40 = ADVANCED_FACE ( 'NONE', ( #320 ), #296, .T. ) ;
#41 = COLOUR_RGB ( '',0.7921568627450980005, 0.8196078431372548767, 0.9333333333333333481 ) ;
#42 = FILL_AREA_STYLE ('',( #73 ) ) ;
#43 = SURFACE_SIDE_STYLE ('',( #367 ) ) ;
#44 = ORIENTED_EDGE ( 'NONE', *, *, #268, .T. ) ;
#45 =( LENGTH_UNIT ( ) NAMED_UNIT ( * ) SI_UNIT ( $, .METRE. ) );
#46 = ORIENTED_EDGE ( 'NONE', *, *, #50, .F. ) ;
#47 = FILL_AREA_STYLE_COLOUR ( '', #196 ) ;
#48 = DIRECTION ( 'NONE',  ( -0.000000000000000000, -1.000000000000000000, -0.000000000000000000 ) ) ;
#49 =( NAMED_UNIT ( * ) PLANE_ANGLE_UNIT ( ) SI_UNIT ( $, .RADIAN. ) );
#50 = EDGE_CURVE ( 'NONE', #251, #154, #150, .T. ) ;
#51 = UNCERTAINTY_MEASURE_WITH_UNIT (LENGTH_MEASURE( 1.000000000000000082E-05 ), #227, 'distance_accuracy_value', 'NONE');
#52 =( GEOMETRIC_REPRESENTATION_CONTEXT ( 3 ) GLOBAL_UNCERTAINTY_ASSIGNED_CONTEXT ( ( #51 ) ) GLOBAL_UNIT_ASSIGNED_CONTEXT ( ( #227, #333, #284 ) ) REPRESENTATION_CONTEXT ( 'NONE', 'WORKASPACE' ) );
#53 = CARTESIAN_POINT ( 'NONE',  ( 0.000000000000000000, 1.500000000000000222, 0.000000000000000000 ) ) ;
#54 = DIRECTION ( 'NONE',  ( 0.000000000000000000, 0.000000000000000000, 1.000000000000000000 ) ) ;
#55 = FILL_AREA_STYLE_COLOUR ( '', #273 ) ;
#56 = UNCERTAINTY_MEASURE_WITH_UNIT (LENGTH_MEASURE( 1.000000000000000082E-05 ), #103, 'distance_accuracy_value', 'NONE');
#57 = LENGTH_MEASURE_WITH_UNIT ( LENGTH_MEASURE( 0.02539999999999999897 ), #212 );
#58 =( LENGTH_UNIT ( ) NAMED_UNIT ( * ) SI_UNIT ( $, .METRE. ) );
#59 = PRESENTATION_STYLE_ASSIGNMENT (( #318 ) ) ;
#60 = CIRCLE ( 'NONE', #130, 0.1874999999999999722 ) ;
#61 = LINE ( 'NONE', #291, #155 ) ;
#62 = MANIFOLD_SOLID_BREP ( 'Revolve - Tool Body (Straight Shanked)', #93 ) ;
#63 = FILL_AREA_STYLE ('',( #216 ) ) ;
#64 = EDGE_CURVE ( 'NONE', #266, #74, #343, .T. ) ;
#65 = STYLED_ITEM ( 'NONE', ( #59 ), #30 ) ;
#66 = AXIS2_PLACEMENT_3D ( 'NONE', #53, #92, #217 ) ;
#67 = DIRECTION ( 'NONE',  ( -1.000000000000000000, -1.224646799147353454E-16, 0.000000000000000000 ) ) ;
#68 = FILL_AREA_STYLE_COLOUR ( '', #36 ) ;
#69 = ADVANCED_FACE ( 'NONE', ( #309 ), #143, .T. ) ;
#70 = VECTOR ( 'NONE', #206, 39.37007874015748143 ) ;
#71 = AXIS2_PLACEMENT_3D ( 'NONE', #111, #24, #86 ) ;
#72 = VERTEX_POINT ( 'NONE', #84 ) ;
#73 = FILL_AREA_STYLE_COLOUR ( '', #348 ) ;
#74 = VERTEX_POINT ( 'NONE', #226 ) ;
#75 = DIRECTION ( 'NONE',  ( -1.224646799147353454E-16, 1.000000000000000000, -0.000000000000000000 ) ) ;
#76 =( NAMED_UNIT ( * ) PLANE_ANGLE_UNIT ( ) SI_UNIT ( $, .RADIAN. ) );
#77 = DIRECTION ( 'NONE',  ( -1.224646799147353454E-16, 1.000000000000000000, -0.000000000000000000 ) ) ;
#78 =( GEOMETRIC_REPRESENTATION_CONTEXT ( 3 ) GLOBAL_UNCERTAINTY_ASSIGNED_CONTEXT ( ( #23 ) ) GLOBAL_UNIT_ASSIGNED_CONTEXT ( ( #310, #49, #331 ) ) REPRESENTATION_CONTEXT ( 'NONE', 'WORKASPACE' ) );
#79 = AXIS2_PLACEMENT_3D ( 'NONE', #26, #54, #108 ) ;
#80 = APPLICATION_PROTOCOL_DEFINITION ( 'draft international standard', 'automotive_design', 1998, #279 ) ;
#81 = CARTESIAN_POINT ( 'NONE',  ( -1.224646799147353207E-16, 3.500000000000000000, 0.000000000000000000 ) ) ;
#82 = DIRECTION ( 'NONE',  ( 1.224646799147353207E-16, -0.000000000000000000, 1.000000000000000000 ) ) ;
#83 = ORIENTED_EDGE ( 'NONE', *, *, #142, .F. ) ;
#84 = CARTESIAN_POINT ( 'NONE',  ( -0.1875000000000000555, 0.1875000000000000833, 2.296212748401287109E-17 ) ) ;
#85 = UNCERTAINTY_MEASURE_WITH_UNIT (LENGTH_MEASURE( 1.000000000000000082E-05 ), #174, 'distance_accuracy_value', 'NONE');
#86 = DIRECTION ( 'NONE',  ( 0.000000000000000000, 0.000000000000000000, -1.000000000000000000 ) ) ;
#87 = AXIS2_PLACEMENT_3D ( 'NONE', #338, #82, #20 ) ;
#88 = PRESENTATION_LAYER_ASSIGNMENT (  '', '', ( #259 ) ) ;
#89 = ORIENTED_EDGE ( 'NONE', *, *, #50, .T. ) ;
#90 = PLANE ( 'NONE',  #11 ) ;
#91 = FACE_OUTER_BOUND ( 'NONE', #369, .T. ) ;
#92 = DIRECTION ( 'NONE',  ( -0.000000000000000000, -1.000000000000000000, -0.000000000000000000 ) ) ;
#93 = CLOSED_SHELL ( 'NONE', ( #40, #262, #191, #321 ) ) ;
#94 = EDGE_LOOP ( 'NONE', ( #211, #286 ) ) ;
#95 = CIRCLE ( 'NONE', #71, 0.1874999999999999722 ) ;
#96 =( CONVERSION_BASED_UNIT ( 'INCH', #57 ) LENGTH_UNIT ( ) NAMED_UNIT ( #190 ) );
#97 = DIRECTION ( 'NONE',  ( -0.000000000000000000, -1.000000000000000000, -0.000000000000000000 ) ) ;
#98 = STYLED_ITEM ( 'NONE', ( #365 ), #69 ) ;
#99 = CARTESIAN_POINT ( 'NONE',  ( 0.000000000000000000, 0.1875000000000000833, -0.1874999999999999722 ) ) ;
#100 = ORIENTED_EDGE ( 'NONE', *, *, #362, .T. ) ;
#101 = EDGE_CURVE ( 'NONE', #154, #245, #205, .T. ) ;
#102 = LENGTH_MEASURE_WITH_UNIT ( LENGTH_MEASURE( 0.02539999999999999897 ), #176 );
#103 =( CONVERSION_BASED_UNIT ( 'INCH', #21 ) LENGTH_UNIT ( ) NAMED_UNIT ( #347 ) );
#104 = ORIENTED_EDGE ( 'NONE', *, *, #353, .F. ) ;
#105 = VECTOR ( 'NONE', #75, 39.37007874015748143 ) ;
#106 = AXIS2_PLACEMENT_3D ( 'NONE', #138, #249, #13 ) ;
#107 = EDGE_CURVE ( 'NONE', #328, #245, #327, .T. ) ;
#108 = DIRECTION ( 'NONE',  ( 1.000000000000000000, 0.000000000000000000, 0.000000000000000000 ) ) ;
#109 = PRODUCT ( '49241', '49241', '', ( #228 ) ) ;
#110 = FILL_AREA_STYLE ('',( #47 ) ) ;
#111 = CARTESIAN_POINT ( 'NONE',  ( 0.000000000000000000, 0.1875000000000000833, 0.000000000000000000 ) ) ;
#112 = FILL_AREA_STYLE_COLOUR ( '', #272 ) ;
#113 = CARTESIAN_POINT ( 'NONE',  ( -2.296212748401288034E-17, 0.1875000000000000555, 0.000000000000000000 ) ) ;
#114 = DIRECTION ( 'NONE',  ( 0.000000000000000000, 1.000000000000000000, 0.000000000000000000 ) ) ;
#115 = EDGE_LOOP ( 'NONE', ( #127, #301 ) ) ;
#116 = PRODUCT_DEFINITION ( 'UNKNOWN', '', #197, #237 ) ;
#117 = DIRECTION ( 'NONE',  ( -1.000000000000000000, 0.000000000000000000, 0.000000000000000000 ) ) ;
#118 = PRESENTATION_LAYER_ASSIGNMENT (  '', '', ( #208 ) ) ;
#119 = ORIENTED_EDGE ( 'NONE', *, *, #64, .F. ) ;
#120 = MECHANICAL_DESIGN_GEOMETRIC_PRESENTATION_REPRESENTATION (  '', ( #136 ), #31 ) ;
#121 = EDGE_CURVE ( 'NONE', #72, #19, #203, .T. ) ;
#122 = DIRECTION ( 'NONE',  ( -0.000000000000000000, -1.000000000000000000, -0.000000000000000000 ) ) ;
#123 = DIRECTION ( 'NONE',  ( 0.000000000000000000, 0.000000000000000000, -1.000000000000000000 ) ) ;
#124 = ORIENTED_EDGE ( 'NONE', *, *, #297, .F. ) ;
#125 = ORIENTED_EDGE ( 'NONE', *, *, #64, .T. ) ;
#126 = DIRECTION ( 'NONE',  ( -0.000000000000000000, -1.000000000000000000, -0.000000000000000000 ) ) ;
#127 = ORIENTED_EDGE ( 'NONE', *, *, #268, .F. ) ;
#128 = EDGE_CURVE ( 'NONE', #294, #35, #141, .T. ) ;
#129 = CARTESIAN_POINT ( 'NONE',  ( 2.296212748401285877E-17, 1.500000000000000222, 0.1874999999999998057 ) ) ;
#130 = AXIS2_PLACEMENT_3D ( 'NONE', #292, #33, #316 ) ;
#131 = PLANE ( 'NONE',  #215 ) ;
#132 = SURFACE_STYLE_FILL_AREA ( #253 ) ;
#133 = DIRECTION ( 'NONE',  ( 1.224646799147353454E-16, -1.000000000000000000, 0.000000000000000000 ) ) ;
#134 = ORIENTED_EDGE ( 'NONE', *, *, #242, .T. ) ;
#135 = AXIS2_PLACEMENT_3D ( 'NONE', #17, #77, #229 ) ;
#136 = STYLED_ITEM ( 'NONE', ( #223 ), #346 ) ;
#137 = DIRECTION ( 'NONE',  ( -1.224646799147353454E-16, 1.000000000000000000, -0.000000000000000000 ) ) ;
#138 = CARTESIAN_POINT ( 'NONE',  ( -2.296212748401288034E-17, 0.1875000000000000555, 0.000000000000000000 ) ) ;
#139 = EDGE_LOOP ( 'NONE', ( #44, #200, #119, #355, #5 ) ) ;
#140 = PRODUCT_DEFINITION_SHAPE ( 'NONE', 'NONE',  #116 ) ;
#141 = LINE ( 'NONE', #257, #70 ) ;
#142 = EDGE_CURVE ( 'NONE', #245, #328, #252, .T. ) ;
#143 = SPHERICAL_SURFACE ( 'NONE', #34, 0.1875000000000000555 ) ;
#144 =( NAMED_UNIT ( * ) SI_UNIT ( $, .STERADIAN. ) SOLID_ANGLE_UNIT ( ) );
#145 = DIRECTION ( 'NONE',  ( -1.000000000000000000, 0.000000000000000000, 0.000000000000000000 ) ) ;
#146 = DIRECTION ( 'NONE',  ( -1.224646799147353454E-16, 1.000000000000000000, -0.000000000000000000 ) ) ;
#147 = ORIENTED_EDGE ( 'NONE', *, *, #37, .F. ) ;
#148 = FACE_OUTER_BOUND ( 'NONE', #139, .T. ) ;
#149 = UNCERTAINTY_MEASURE_WITH_UNIT (LENGTH_MEASURE( 1.000000000000000082E-05 ), #306, 'distance_accuracy_value', 'NONE');
#150 = CIRCLE ( 'NONE', #356, 0.1874999999999996947 ) ;
#151 = CIRCLE ( 'NONE', #246, 0.1875000000000000555 ) ;
#152 =( GEOMETRIC_REPRESENTATION_CONTEXT ( 3 ) GLOBAL_UNCERTAINTY_ASSIGNED_CONTEXT ( ( #56 ) ) GLOBAL_UNIT_ASSIGNED_CONTEXT ( ( #103, #341, #144 ) ) REPRESENTATION_CONTEXT ( 'NONE', 'WORKASPACE' ) );
#153 = SURFACE_STYLE_USAGE ( .BOTH. , #308 ) ;
#154 = VERTEX_POINT ( 'NONE', #264 ) ;
#155 = VECTOR ( 'NONE', #27, 39.37007874015748143 ) ;
#156 = LINE ( 'NONE', #161, #186 ) ;
#157 = ORIENTED_EDGE ( 'NONE', *, *, #362, .F. ) ;
#158 =( NAMED_UNIT ( * ) SI_UNIT ( $, .STERADIAN. ) SOLID_ANGLE_UNIT ( ) );
#159 = DIRECTION ( 'NONE',  ( 0.000000000000000000, 0.000000000000000000, -1.000000000000000000 ) ) ;
#160 = EDGE_LOOP ( 'NONE', ( #89, #275, #238, #147 ) ) ;
#161 = CARTESIAN_POINT ( 'NONE',  ( 2.296212748401286185E-17, 0.000000000000000000, 0.1874999999999999167 ) ) ;
#162 = SURFACE_STYLE_USAGE ( .BOTH. , #368 ) ;
#163 = CIRCLE ( 'NONE', #334, 0.1874999999999998057 ) ;
#164 = MECHANICAL_DESIGN_GEOMETRIC_PRESENTATION_REPRESENTATION (  '', ( #314 ), #372 ) ;
#165 = FACE_OUTER_BOUND ( 'NONE', #94, .T. ) ;
#166 = ADVANCED_FACE ( 'NONE', ( #148 ), #267, .T. ) ;
#167 = SURFACE_SIDE_STYLE ('',( #241 ) ) ;
#168 = VERTEX_POINT ( 'NONE', #129 ) ;
#169 = DIRECTION ( 'NONE',  ( -1.000000000000000000, 0.000000000000000000, 0.000000000000000000 ) ) ;
#170 =( LENGTH_UNIT ( ) NAMED_UNIT ( * ) SI_UNIT ( $, .METRE. ) );
#171 = EDGE_LOOP ( 'NONE', ( #352, #224, #134, #243 ) ) ;
#172 = CARTESIAN_POINT ( 'NONE',  ( 0.1874999999999996669, 3.500000000000000000, 2.296212748401284952E-17 ) ) ;
#173 = AXIS2_PLACEMENT_3D ( 'NONE', #201, #137, #169 ) ;
#174 =( CONVERSION_BASED_UNIT ( 'INCH', #366 ) LENGTH_UNIT ( ) NAMED_UNIT ( #32 ) );
#175 = EDGE_LOOP ( 'NONE', ( #283, #263, #38, #125 ) ) ;
#176 =( LENGTH_UNIT ( ) NAMED_UNIT ( * ) SI_UNIT ( $, .METRE. ) );
#177 = ORIENTED_EDGE ( 'NONE', *, *, #128, .T. ) ;
#178 = MECHANICAL_DESIGN_GEOMETRIC_PRESENTATION_REPRESENTATION (  '', ( #65 ), #239 ) ;
#179 = CARTESIAN_POINT ( 'NONE',  ( 1.224646799147353207E-16, 1.500000000000000222, 0.000000000000000000 ) ) ;
#180 = CARTESIAN_POINT ( 'NONE',  ( -2.296212748401288034E-17, 0.1875000000000000555, 0.000000000000000000 ) ) ;
#181 = EDGE_CURVE ( 'NONE', #168, #294, #270, .T. ) ;
#182 = SHAPE_DEFINITION_REPRESENTATION ( #140, #350 ) ;
#183 =( NAMED_UNIT ( * ) PLANE_ANGLE_UNIT ( ) SI_UNIT ( $, .RADIAN. ) );
#184 =( NAMED_UNIT ( * ) SI_UNIT ( $, .STERADIAN. ) SOLID_ANGLE_UNIT ( ) );
#185 = ORIENTED_EDGE ( 'NONE', *, *, #37, .T. ) ;
#186 = VECTOR ( 'NONE', #122, 39.37007874015748143 ) ;
#187 = DIMENSIONAL_EXPONENTS ( 1.000000000000000000, 0.000000000000000000, 0.000000000000000000, 0.000000000000000000, 0.000000000000000000, 0.000000000000000000, 0.000000000000000000 ) ;
#188 = DIMENSIONAL_EXPONENTS ( 1.000000000000000000, 0.000000000000000000, 0.000000000000000000, 0.000000000000000000, 0.000000000000000000, 0.000000000000000000, 0.000000000000000000 ) ;
#189 = LENGTH_MEASURE_WITH_UNIT ( LENGTH_MEASURE( 0.02539999999999999897 ), #298 );
#190 = DIMENSIONAL_EXPONENTS ( 1.000000000000000000, 0.000000000000000000, 0.000000000000000000, 0.000000000000000000, 0.000000000000000000, 0.000000000000000000, 0.000000000000000000 ) ;
#191 = ADVANCED_FACE ( 'NONE', ( #91 ), #210, .T. ) ;
#192 = AXIS2_PLACEMENT_3D ( 'NONE', #18, #48, #285 ) ;
#193 = CARTESIAN_POINT ( 'NONE',  ( 0.000000000000000000, 1.500000000000000222, 0.000000000000000000 ) ) ;
#194 = DIMENSIONAL_EXPONENTS ( 1.000000000000000000, 0.000000000000000000, 0.000000000000000000, 0.000000000000000000, 0.000000000000000000, 0.000000000000000000, 0.000000000000000000 ) ;
#195 = FILL_AREA_STYLE ('',( #256 ) ) ;
#196 = COLOUR_RGB ( '',1.000000000000000000, 0.000000000000000000, 0.000000000000000000 ) ;
#197 = PRODUCT_DEFINITION_FORMATION_WITH_SPECIFIED_SOURCE ( 'ANY', '', #109, .NOT_KNOWN. ) ;
#198 = EDGE_CURVE ( 'NONE', #266, #19, #151, .T. ) ;
#199 =( NAMED_UNIT ( * ) PLANE_ANGLE_UNIT ( ) SI_UNIT ( $, .RADIAN. ) );
#200 = ORIENTED_EDGE ( 'NONE', *, *, #293, .T. ) ;
#201 = CARTESIAN_POINT ( 'NONE',  ( -1.224646799147353207E-16, 3.500000000000000000, 0.000000000000000000 ) ) ;
#202 = SPHERICAL_SURFACE ( 'NONE', #106, 0.1875000000000000555 ) ;
#203 = CIRCLE ( 'NONE', #87, 0.1875000000000000555 ) ;
#204 = SURFACE_STYLE_FILL_AREA ( #42 ) ;
#205 = LINE ( 'NONE', #172, #105 ) ;
#206 = DIRECTION ( 'NONE',  ( -0.000000000000000000, -1.000000000000000000, -0.000000000000000000 ) ) ;
#207 =( CONVERSION_BASED_UNIT ( 'INCH', #373 ) LENGTH_UNIT ( ) NAMED_UNIT ( #187 ) );
#208 = STYLED_ITEM ( 'NONE', ( #265 ), #62 ) ;
#209 = CIRCLE ( 'NONE', #247, 0.1874999999999996947 ) ;
#210 = CYLINDRICAL_SURFACE ( 'NONE', #357, 0.1874999999999998057 ) ;
#211 = ORIENTED_EDGE ( 'NONE', *, *, #107, .T. ) ;
#212 =( LENGTH_UNIT ( ) NAMED_UNIT ( * ) SI_UNIT ( $, .METRE. ) );
#213 = CARTESIAN_POINT ( 'NONE',  ( -1.148106374200644017E-17, 0.000000000000000000, 0.000000000000000000 ) ) ;
#214 = AXIS2_PLACEMENT_3D ( 'NONE', #351, #97, #123 ) ;
#215 = AXIS2_PLACEMENT_3D ( 'NONE', #311, #114, #370 ) ;
#216 = FILL_AREA_STYLE_COLOUR ( '', #41 ) ;
#217 = DIRECTION ( 'NONE',  ( 0.000000000000000000, 0.000000000000000000, -1.000000000000000000 ) ) ;
#218 =( NAMED_UNIT ( * ) PLANE_ANGLE_UNIT ( ) SI_UNIT ( $, .RADIAN. ) );
#219 =( GEOMETRIC_REPRESENTATION_CONTEXT ( 3 ) GLOBAL_UNCERTAINTY_ASSIGNED_CONTEXT ( ( #261 ) ) GLOBAL_UNIT_ASSIGNED_CONTEXT ( ( #4, #183, #244 ) ) REPRESENTATION_CONTEXT ( 'NONE', 'WORKASPACE' ) );
#220 = DIRECTION ( 'NONE',  ( -1.000000000000000000, 0.000000000000000000, 0.000000000000000000 ) ) ;
#221 = SURFACE_STYLE_FILL_AREA ( #195 ) ;
#222 = DIRECTION ( 'NONE',  ( 0.000000000000000000, 0.000000000000000000, -1.000000000000000000 ) ) ;
#223 = PRESENTATION_STYLE_ASSIGNMENT (( #361 ) ) ;
#224 = ORIENTED_EDGE ( 'NONE', *, *, #353, .T. ) ;
#225 =( GEOMETRIC_REPRESENTATION_CONTEXT ( 3 ) GLOBAL_UNCERTAINTY_ASSIGNED_CONTEXT ( ( #149 ) ) GLOBAL_UNIT_ASSIGNED_CONTEXT ( ( #306, #199, #303 ) ) REPRESENTATION_CONTEXT ( 'NONE', 'WORKASPACE' ) );
#226 = CARTESIAN_POINT ( 'NONE',  ( 2.296212748401287109E-17, 0.1875000000000000833, 0.1874999999999999722 ) ) ;
#227 =( CONVERSION_BASED_UNIT ( 'INCH', #22 ) LENGTH_UNIT ( ) NAMED_UNIT ( #271 ) );
#228 = PRODUCT_CONTEXT ( 'NONE', #254, 'mechanical' ) ;
#229 = DIRECTION ( 'NONE',  ( -1.000000000000000000, 0.000000000000000000, 0.000000000000000000 ) ) ;
#230 = PRESENTATION_LAYER_ASSIGNMENT (  '', '', ( #314 ) ) ;
#231 = CARTESIAN_POINT ( 'NONE',  ( 1.224646799147353207E-16, 1.500000000000000222, 0.000000000000000000 ) ) ;
#232 =( LENGTH_UNIT ( ) NAMED_UNIT ( * ) SI_UNIT ( $, .METRE. ) );
#233 = SURFACE_STYLE_FILL_AREA ( #342 ) ;
#234 = PRODUCT_RELATED_PRODUCT_CATEGORY ( 'part', '', ( #109 ) ) ;
#235 = FACE_OUTER_BOUND ( 'NONE', #330, .T. ) ;
#236 = CARTESIAN_POINT ( 'NONE',  ( -0.1874999999999995837, 1.500000000000000222, 0.000000000000000000 ) ) ;
#237 = PRODUCT_DEFINITION_CONTEXT ( 'detailed design', #279, 'design' ) ;
#238 = ORIENTED_EDGE ( 'NONE', *, *, #107, .F. ) ;
#239 =( GEOMETRIC_REPRESENTATION_CONTEXT ( 3 ) GLOBAL_UNCERTAINTY_ASSIGNED_CONTEXT ( ( #345 ) ) GLOBAL_UNIT_ASSIGNED_CONTEXT ( ( #96, #218, #158 ) ) REPRESENTATION_CONTEXT ( 'NONE', 'WORKASPACE' ) );
#240 = CARTESIAN_POINT ( 'NONE',  ( 0.000000000000000000, 1.500000000000000222, -0.1874999999999998057 ) ) ;
#241 = SURFACE_STYLE_FILL_AREA ( #63 ) ;
#242 = EDGE_CURVE ( 'NONE', #35, #266, #60, .T. ) ;
#243 = ORIENTED_EDGE ( 'NONE', *, *, #198, .T. ) ;
#244 =( NAMED_UNIT ( * ) SI_UNIT ( $, .STERADIAN. ) SOLID_ANGLE_UNIT ( ) );
#245 = VERTEX_POINT ( 'NONE', #269 ) ;
#246 = AXIS2_PLACEMENT_3D ( 'NONE', #180, #159, #220 ) ;
#247 = AXIS2_PLACEMENT_3D ( 'NONE', #179, #146, #317 ) ;
#248 = DIRECTION ( 'NONE',  ( -1.224646799147353454E-16, 1.000000000000000000, 0.000000000000000000 ) ) ;
#249 = DIRECTION ( 'NONE',  ( 0.000000000000000000, 0.000000000000000000, 1.000000000000000000 ) ) ;
#250 =( NAMED_UNIT ( * ) SI_UNIT ( $, .STERADIAN. ) SOLID_ANGLE_UNIT ( ) );
#251 = VERTEX_POINT ( 'NONE', #236 ) ;
#252 = CIRCLE ( 'NONE', #3, 0.1874999999999999445 ) ;
#253 = FILL_AREA_STYLE ('',( #68 ) ) ;
#254 = APPLICATION_CONTEXT ( 'automotive_design' ) ;
#255 = SURFACE_STYLE_USAGE ( .BOTH. , #43 ) ;
#256 = FILL_AREA_STYLE_COLOUR ( '', #349 ) ;
#257 = CARTESIAN_POINT ( 'NONE',  ( 0.000000000000000000, 0.000000000000000000, -0.1874999999999999167 ) ) ;
#258 = PRESENTATION_LAYER_ASSIGNMENT (  '', '', ( #65 ) ) ;
#259 = STYLED_ITEM ( 'NONE', ( #360 ), #315 ) ;
#260 = PRESENTATION_LAYER_ASSIGNMENT (  '', '', ( #136 ) ) ;
#261 = UNCERTAINTY_MEASURE_WITH_UNIT (LENGTH_MEASURE( 1.000000000000000082E-05 ), #4, 'distance_accuracy_value', 'NONE');
#262 = ADVANCED_FACE ( 'NONE', ( #276 ), #354, .F. ) ;
#263 = ORIENTED_EDGE ( 'NONE', *, *, #121, .T. ) ;
#264 = CARTESIAN_POINT ( 'NONE',  ( 0.1874999999999998335, 1.500000000000000222, 2.296212748401286185E-17 ) ) ;
#265 = PRESENTATION_STYLE_ASSIGNMENT (( #153 ) ) ;
#266 = VERTEX_POINT ( 'NONE', #2 ) ;
#267 = CYLINDRICAL_SURFACE ( 'NONE', #295, 0.1874999999999999167 ) ;
#268 = EDGE_CURVE ( 'NONE', #294, #168, #163, .T. ) ;
#269 = CARTESIAN_POINT ( 'NONE',  ( 0.1874999999999998057, 3.500000000000000000, 2.296212748401286185E-17 ) ) ;
#270 = CIRCLE ( 'NONE', #66, 0.1874999999999998057 ) ;
#271 = DIMENSIONAL_EXPONENTS ( 1.000000000000000000, 0.000000000000000000, 0.000000000000000000, 0.000000000000000000, 0.000000000000000000, 0.000000000000000000, 0.000000000000000000 ) ;
#272 = COLOUR_RGB ( '',1.000000000000000000, 0.000000000000000000, 0.000000000000000000 ) ;
#273 = COLOUR_RGB ( '',1.000000000000000000, 0.000000000000000000, 0.000000000000000000 ) ;
#274 = SURFACE_STYLE_FILL_AREA ( #358 ) ;
#275 = ORIENTED_EDGE ( 'NONE', *, *, #101, .T. ) ;
#276 = FACE_OUTER_BOUND ( 'NONE', #16, .T. ) ;
#277 = MECHANICAL_DESIGN_GEOMETRIC_PRESENTATION_REPRESENTATION (  '', ( #299 ), #219 ) ;
#278 = DIRECTION ( 'NONE',  ( 1.000000000000000000, 1.224646799147353454E-16, 0.000000000000000000 ) ) ;
#279 = APPLICATION_CONTEXT ( 'automotive_design' ) ;
#280 = SURFACE_STYLE_USAGE ( .BOTH. , #167 ) ;
#281 = AXIS2_PLACEMENT_3D ( 'NONE', #6, #359, #222 ) ;
#282 = CARTESIAN_POINT ( 'NONE',  ( 0.1874999999999998057, 3.500000000000000000, 0.000000000000000000 ) ) ;
#283 = ORIENTED_EDGE ( 'NONE', *, *, #297, .T. ) ;
#284 =( NAMED_UNIT ( * ) SI_UNIT ( $, .STERADIAN. ) SOLID_ANGLE_UNIT ( ) );
#285 = DIRECTION ( 'NONE',  ( 0.000000000000000000, 0.000000000000000000, -1.000000000000000000 ) ) ;
#286 = ORIENTED_EDGE ( 'NONE', *, *, #142, .T. ) ;
#287 = AXIS2_PLACEMENT_3D ( 'NONE', #325, #248, #67 ) ;
#288 = DIRECTION ( 'NONE',  ( -1.224646799147353454E-16, 1.000000000000000000, -0.000000000000000000 ) ) ;
#289 = UNCERTAINTY_MEASURE_WITH_UNIT (LENGTH_MEASURE( 1.000000000000000082E-05 ), #207, 'distance_accuracy_value', 'NONE');
#290 =( NAMED_UNIT ( * ) PLANE_ANGLE_UNIT ( ) SI_UNIT ( $, .RADIAN. ) );
#291 = CARTESIAN_POINT ( 'NONE',  ( -0.1874999999999999445, 3.500000000000000000, 0.000000000000000000 ) ) ;
#292 = CARTESIAN_POINT ( 'NONE',  ( 0.000000000000000000, 0.1875000000000000833, 0.000000000000000000 ) ) ;
#293 = EDGE_CURVE ( 'NONE', #168, #74, #156, .T. ) ;
#294 = VERTEX_POINT ( 'NONE', #240 ) ;
#295 = AXIS2_PLACEMENT_3D ( 'NONE', #1, #126, #313 ) ;
#296 = CYLINDRICAL_SURFACE ( 'NONE', #135, 0.1874999999999998057 ) ;
#297 = EDGE_CURVE ( 'NONE', #74, #72, #371, .T. ) ;
#298 =( LENGTH_UNIT ( ) NAMED_UNIT ( * ) SI_UNIT ( $, .METRE. ) );
#299 = STYLED_ITEM ( 'NONE', ( #344 ), #166 ) ;
#300 = DIMENSIONAL_EXPONENTS ( 1.000000000000000000, 0.000000000000000000, 0.000000000000000000, 0.000000000000000000, 0.000000000000000000, 0.000000000000000000, 0.000000000000000000 ) ;
#301 = ORIENTED_EDGE ( 'NONE', *, *, #181, .F. ) ;
#302 = DIRECTION ( 'NONE',  ( -0.000000000000000000, -1.000000000000000000, -0.000000000000000000 ) ) ;
#303 =( NAMED_UNIT ( * ) SI_UNIT ( $, .STERADIAN. ) SOLID_ANGLE_UNIT ( ) );
#304 = MECHANICAL_DESIGN_GEOMETRIC_PRESENTATION_REPRESENTATION (  '', ( #259 ), #225 ) ;
#305 =( LENGTH_UNIT ( ) NAMED_UNIT ( * ) SI_UNIT ( $, .METRE. ) );
#306 =( CONVERSION_BASED_UNIT ( 'INCH', #15 ) LENGTH_UNIT ( ) NAMED_UNIT ( #188 ) );
#307 = FACE_OUTER_BOUND ( 'NONE', #115, .T. ) ;
#308 = SURFACE_SIDE_STYLE ('',( #204 ) ) ;
#309 = FACE_OUTER_BOUND ( 'NONE', #175, .T. ) ;
#310 =( CONVERSION_BASED_UNIT ( 'INCH', #102 ) LENGTH_UNIT ( ) NAMED_UNIT ( #194 ) );
#311 = CARTESIAN_POINT ( 'NONE',  ( 0.000000000000000000, 1.500000000000000222, 0.000000000000000000 ) ) ;
#312 = MECHANICAL_DESIGN_GEOMETRIC_PRESENTATION_REPRESENTATION (  '', ( #98 ), #52 ) ;
#313 = DIRECTION ( 'NONE',  ( 0.000000000000000000, 0.000000000000000000, -1.000000000000000000 ) ) ;
#314 = STYLED_ITEM ( 'NONE', ( #12 ), #324 ) ;
#315 = MANIFOLD_SOLID_BREP ( 'Revolve - Cutting Edge', #9 ) ;
#316 = DIRECTION ( 'NONE',  ( 0.000000000000000000, 0.000000000000000000, -1.000000000000000000 ) ) ;
#317 = DIRECTION ( 'NONE',  ( -1.000000000000000000, 0.000000000000000000, 0.000000000000000000 ) ) ;
#318 = SURFACE_STYLE_USAGE ( .BOTH. , #339 ) ;
#319 = MECHANICAL_DESIGN_GEOMETRIC_PRESENTATION_REPRESENTATION (  '', ( #208 ), #78 ) ;
#320 = FACE_OUTER_BOUND ( 'NONE', #160, .T. ) ;
#321 = ADVANCED_FACE ( 'NONE', ( #165 ), #90, .F. ) ;
#322 = SURFACE_SIDE_STYLE ('',( #274 ) ) ;
#323 = SURFACE_STYLE_USAGE ( .BOTH. , #322 ) ;
#324 = ADVANCED_FACE ( 'NONE', ( #329 ), #202, .T. ) ;
#325 = CARTESIAN_POINT ( 'NONE',  ( 1.224646799147353207E-16, 1.500000000000000222, 0.000000000000000000 ) ) ;
#326 = SURFACE_SIDE_STYLE ('',( #221 ) ) ;
#327 = CIRCLE ( 'NONE', #173, 0.1874999999999999445 ) ;
#328 = VERTEX_POINT ( 'NONE', #332 ) ;
#329 = FACE_OUTER_BOUND ( 'NONE', #171, .T. ) ;
#330 = EDGE_LOOP ( 'NONE', ( #335, #364, #177, #104, #124 ) ) ;
#331 =( NAMED_UNIT ( * ) SI_UNIT ( $, .STERADIAN. ) SOLID_ANGLE_UNIT ( ) );
#332 = CARTESIAN_POINT ( 'NONE',  ( -0.1875000000000000833, 3.500000000000000000, 0.000000000000000000 ) ) ;
#333 =( NAMED_UNIT ( * ) PLANE_ANGLE_UNIT ( ) SI_UNIT ( $, .RADIAN. ) );
#334 = AXIS2_PLACEMENT_3D ( 'NONE', #193, #302, #39 ) ;
#335 = ORIENTED_EDGE ( 'NONE', *, *, #293, .F. ) ;
#336 = DIRECTION ( 'NONE',  ( -1.224646799147353454E-16, 1.000000000000000000, -0.000000000000000000 ) ) ;
#337 = APPLICATION_PROTOCOL_DEFINITION ( 'draft international standard', 'automotive_design', 1998, #254 ) ;
#338 = CARTESIAN_POINT ( 'NONE',  ( -2.296212748401288034E-17, 0.1875000000000000555, 0.000000000000000000 ) ) ;
#339 = SURFACE_SIDE_STYLE ('',( #233 ) ) ;
#340 = DIRECTION ( 'NONE',  ( 0.000000000000000000, 0.000000000000000000, 1.000000000000000000 ) ) ;
#341 =( NAMED_UNIT ( * ) PLANE_ANGLE_UNIT ( ) SI_UNIT ( $, .RADIAN. ) );
#342 = FILL_AREA_STYLE ('',( #112 ) ) ;
#343 = CIRCLE ( 'NONE', #192, 0.1874999999999999722 ) ;
#344 = PRESENTATION_STYLE_ASSIGNMENT (( #323 ) ) ;
#345 = UNCERTAINTY_MEASURE_WITH_UNIT (LENGTH_MEASURE( 1.000000000000000082E-05 ), #96, 'distance_accuracy_value', 'NONE');
#346 = ADVANCED_FACE ( 'NONE', ( #307 ), #131, .T. ) ;
#347 = DIMENSIONAL_EXPONENTS ( 1.000000000000000000, 0.000000000000000000, 0.000000000000000000, 0.000000000000000000, 0.000000000000000000, 0.000000000000000000, 0.000000000000000000 ) ;
#348 = COLOUR_RGB ( '',0.7921568627450980005, 0.8196078431372548767, 0.9333333333333333481 ) ;
#349 = COLOUR_RGB ( '',1.000000000000000000, 0.000000000000000000, 0.000000000000000000 ) ;
#350 = ADVANCED_BREP_SHAPE_REPRESENTATION ( '49241', ( #315, #62, #79 ), #152 ) ;
#351 = CARTESIAN_POINT ( 'NONE',  ( 0.000000000000000000, 0.1875000000000000833, 0.000000000000000000 ) ) ;
#352 = ORIENTED_EDGE ( 'NONE', *, *, #121, .F. ) ;
#353 = EDGE_CURVE ( 'NONE', #72, #35, #95, .T. ) ;
#354 = PLANE ( 'NONE',  #287 ) ;
#355 = ORIENTED_EDGE ( 'NONE', *, *, #242, .F. ) ;
#356 = AXIS2_PLACEMENT_3D ( 'NONE', #231, #336, #14 ) ;
#357 = AXIS2_PLACEMENT_3D ( 'NONE', #8, #28, #117 ) ;
#358 = FILL_AREA_STYLE ('',( #55 ) ) ;
#359 = DIRECTION ( 'NONE',  ( -0.000000000000000000, -1.000000000000000000, -0.000000000000000000 ) ) ;
#360 = PRESENTATION_STYLE_ASSIGNMENT (( #280 ) ) ;
#361 = SURFACE_STYLE_USAGE ( .BOTH. , #326 ) ;
#362 = EDGE_CURVE ( 'NONE', #154, #251, #209, .T. ) ;
#363 = PRESENTATION_LAYER_ASSIGNMENT (  '', '', ( #98 ) ) ;
#364 = ORIENTED_EDGE ( 'NONE', *, *, #181, .T. ) ;
#365 = PRESENTATION_STYLE_ASSIGNMENT (( #255 ) ) ;
#366 = LENGTH_MEASURE_WITH_UNIT ( LENGTH_MEASURE( 0.02539999999999999897 ), #170 );
#367 = SURFACE_STYLE_FILL_AREA ( #110 ) ;
#368 = SURFACE_SIDE_STYLE ('',( #132 ) ) ;
#369 = EDGE_LOOP ( 'NONE', ( #7, #100, #185, #83 ) ) ;
#370 = DIRECTION ( 'NONE',  ( 0.000000000000000000, -0.000000000000000000, 1.000000000000000000 ) ) ;
#371 = CIRCLE ( 'NONE', #214, 0.1874999999999999722 ) ;
#372 =( GEOMETRIC_REPRESENTATION_CONTEXT ( 3 ) GLOBAL_UNCERTAINTY_ASSIGNED_CONTEXT ( ( #85 ) ) GLOBAL_UNIT_ASSIGNED_CONTEXT ( ( #174, #76, #250 ) ) REPRESENTATION_CONTEXT ( 'NONE', 'WORKASPACE' ) );
#373 = LENGTH_MEASURE_WITH_UNIT ( LENGTH_MEASURE( 0.02539999999999999897 ), #305 );
ENDSEC;
END-ISO-10303-21;
