ISO-10303-21;
HEADER;
FILE_DESCRIPTION (( 'STEP AP214' ),
    '1' );
FILE_NAME ('Micro_EMS-375-2X.STEP',
    '2021-09-01T17:54:19',
    ( '' ),
    ( '' ),
    'SwSTEP 2.0',
    'SolidWorks 2020',
    '' );
FILE_SCHEMA (( 'AUTOMOTIVE_DESIGN' ));
ENDSEC;

DATA;
#1 = DIRECTION ( 'NONE',  ( -1.000000000000000000, 0.0000000000000000000, 1.224646799147352961E-16 ) ) ;
#2 = VECTOR ( 'NONE', #15, 39.37007874015748143 ) ;
#3 = ORIENTED_EDGE ( 'NONE', *, *, #40, .F. ) ;
#4 = LINE ( 'NONE', #182, #87 ) ;
#5 = CONICAL_SURFACE ( 'NONE', #130, 0.1724999999999995981, 0.7853981633974357335 ) ;
#6 = CYLINDRICAL_SURFACE ( 'NONE', #43, 0.1875000000000000278 ) ;
#7 = DIRECTION ( 'NONE',  ( -0.0000000000000000000, -0.0000000000000000000, -1.000000000000000000 ) ) ;
#8 = CARTESIAN_POINT ( 'NONE',  ( -0.1874999999999999167, 0.0000000000000000000, 0.8760633653411783461 ) ) ;
#9 = AXIS2_PLACEMENT_3D ( 'NONE', #164, #259, #142 ) ;
#10 = DIRECTION ( 'NONE',  ( 0.0000000000000000000, 0.0000000000000000000, 1.000000000000000000 ) ) ;
#11 = EDGE_LOOP ( 'NONE', ( #267, #269, #195, #105 ) ) ;
#12 = SURFACE_SIDE_STYLE ('',( #47 ) ) ;
#13 = VERTEX_POINT ( 'NONE', #278 ) ;
#14 = AXIS2_PLACEMENT_3D ( 'NONE', #134, #203, #92 ) ;
#15 = DIRECTION ( 'NONE',  ( -0.0000000000000000000, -0.0000000000000000000, -1.000000000000000000 ) ) ;
#16 = ADVANCED_FACE ( 'NONE', ( #22 ), #107, .T. ) ;
#17 = ORIENTED_EDGE ( 'NONE', *, *, #217, .F. ) ;
#18 = CLOSED_SHELL ( 'NONE', ( #29, #201, #73, #85, #174, #286, #213, #16, #129, #261 ) ) ;
#19 = DIRECTION ( 'NONE',  ( -1.224646799147353207E-16, -0.0000000000000000000, -1.000000000000000000 ) ) ;
#20 = PRODUCT_DEFINITION ( 'UNKNOWN', '', #108, #100 ) ;
#21 =( NAMED_UNIT ( * ) SI_UNIT ( $, .STERADIAN. ) SOLID_ANGLE_UNIT ( ) );
#22 = FACE_OUTER_BOUND ( 'NONE', #198, .T. ) ;
#23 = CIRCLE ( 'NONE', #165, 0.1875000000000000278 ) ;
#24 = MANIFOLD_SOLID_BREP ( 'Cut-Revolve1', #18 ) ;
#25 = DIRECTION ( 'NONE',  ( -1.000000000000000000, 0.0000000000000000000, 0.0000000000000000000 ) ) ;
#26 = AXIS2_PLACEMENT_3D ( 'NONE', #188, #287, #121 ) ;
#27 = DIRECTION ( 'NONE',  ( 0.0000000000000000000, 0.0000000000000000000, -1.000000000000000000 ) ) ;
#28 = CARTESIAN_POINT ( 'NONE',  ( 0.1724999999999995981, 2.112515728529179297E-17, 2.500000000000000000 ) ) ;
#29 = ADVANCED_FACE ( 'NONE', ( #159 ), #93, .T. ) ;
#30 = CARTESIAN_POINT ( 'NONE',  ( 1.071565949253934025E-16, 0.0000000000000000000, 0.8750000000000000000 ) ) ;
#31 = AXIS2_PLACEMENT_3D ( 'NONE', #71, #236, #254 ) ;
#32 = FACE_OUTER_BOUND ( 'NONE', #243, .T. ) ;
#33 = CIRCLE ( 'NONE', #39, 0.1875000000000000278 ) ;
#34 = FACE_OUTER_BOUND ( 'NONE', #131, .T. ) ;
#35 = ORIENTED_EDGE ( 'NONE', *, *, #277, .F. ) ;
#36 =( NAMED_UNIT ( * ) PLANE_ANGLE_UNIT ( ) SI_UNIT ( $, .RADIAN. ) );
#37 = COLOUR_RGB ( '',0.7921568627450980005, 0.8196078431372548767, 0.9333333333333333481 ) ;
#38 = VERTEX_POINT ( 'NONE', #139 ) ;
#39 = AXIS2_PLACEMENT_3D ( 'NONE', #59, #79, #78 ) ;
#40 = EDGE_CURVE ( 'NONE', #222, #133, #91, .T. ) ;
#41 = ORIENTED_EDGE ( 'NONE', *, *, #158, .F. ) ;
#42 = VERTEX_POINT ( 'NONE', #120 ) ;
#43 = AXIS2_PLACEMENT_3D ( 'NONE', #167, #97, #184 ) ;
#44 =( NAMED_UNIT ( * ) PLANE_ANGLE_UNIT ( ) SI_UNIT ( $, .RADIAN. ) );
#45 = DIRECTION ( 'NONE',  ( -1.224646799147353207E-16, -0.0000000000000000000, -1.000000000000000000 ) ) ;
#46 = SURFACE_STYLE_USAGE ( .BOTH. , #157 ) ;
#47 = SURFACE_STYLE_FILL_AREA ( #66 ) ;
#48 = EDGE_CURVE ( 'NONE', #152, #133, #55, .T. ) ;
#49 = FILL_AREA_STYLE ('',( #69 ) ) ;
#50 = DIRECTION ( 'NONE',  ( 1.000000000000000000, 0.0000000000000000000, 0.0000000000000000000 ) ) ;
#51 = CARTESIAN_POINT ( 'NONE',  ( -0.1875000000000000278, 0.0000000000000000000, 2.484999999999999432 ) ) ;
#52 = DIRECTION ( 'NONE',  ( -0.0000000000000000000, -0.0000000000000000000, -1.000000000000000000 ) ) ;
#53 = CARTESIAN_POINT ( 'NONE',  ( 0.0000000000000000000, 0.0000000000000000000, 2.500000000000000000 ) ) ;
#54 = DIRECTION ( 'NONE',  ( 1.224646799147353207E-16, 0.0000000000000000000, 1.000000000000000000 ) ) ;
#55 = CIRCLE ( 'NONE', #263, 0.1873124999999999929 ) ;
#56 = LINE ( 'NONE', #83, #2 ) ;
#57 =( CONVERSION_BASED_UNIT ( 'INCH', #290 ) LENGTH_UNIT ( ) NAMED_UNIT ( #187 ) );
#58 = ORIENTED_EDGE ( 'NONE', *, *, #161, .T. ) ;
#59 = CARTESIAN_POINT ( 'NONE',  ( 0.0000000000000000000, 0.0000000000000000000, 2.484999999999999432 ) ) ;
#60 = ADVANCED_BREP_SHAPE_REPRESENTATION ( 'Micro_EMS-375-2X', ( #24, #14 ), #230 ) ;
#61 = EDGE_CURVE ( 'NONE', #193, #251, #160, .T. ) ;
#62 = ORIENTED_EDGE ( 'NONE', *, *, #170, .F. ) ;
#63 = CARTESIAN_POINT ( 'NONE',  ( 2.809237542898491532E-33, 0.0000000000000000000, 2.293916535652885596E-17 ) ) ;
#64 = EDGE_CURVE ( 'NONE', #133, #152, #229, .T. ) ;
#65 = CIRCLE ( 'NONE', #9, 0.1875000000000000278 ) ;
#66 = FILL_AREA_STYLE ('',( #257 ) ) ;
#67 = SURFACE_STYLE_FILL_AREA ( #49 ) ;
#68 = EDGE_CURVE ( 'NONE', #38, #152, #4, .T. ) ;
#69 = FILL_AREA_STYLE_COLOUR ( '', #37 ) ;
#70 =( LENGTH_UNIT ( ) NAMED_UNIT ( * ) SI_UNIT ( $, .METRE. ) );
#71 = CARTESIAN_POINT ( 'NONE',  ( 0.0000000000000000000, 0.0000000000000000000, 2.500000000000000000 ) ) ;
#72 = CARTESIAN_POINT ( 'NONE',  ( 0.1873125000000001317, 0.0000000000000000000, 0.8750000000000000000 ) ) ;
#73 = ADVANCED_FACE ( 'NONE', ( #115 ), #5, .T. ) ;
#74 = PRESENTATION_LAYER_ASSIGNMENT (  '', '', ( #126 ) ) ;
#75 = MECHANICAL_DESIGN_GEOMETRIC_PRESENTATION_REPRESENTATION (  '', ( #117 ), #280 ) ;
#76 = DIRECTION ( 'NONE',  ( 1.000000000000000000, 0.0000000000000000000, 0.0000000000000000000 ) ) ;
#77 = FACE_OUTER_BOUND ( 'NONE', #128, .T. ) ;
#78 = DIRECTION ( 'NONE',  ( 1.000000000000000000, 0.0000000000000000000, 0.0000000000000000000 ) ) ;
#79 = DIRECTION ( 'NONE',  ( 0.0000000000000000000, 0.0000000000000000000, -1.000000000000000000 ) ) ;
#80 = COLOUR_RGB ( '',0.7921568627450980005, 0.8196078431372548767, 0.9333333333333333481 ) ;
#81 = ORIENTED_EDGE ( 'NONE', *, *, #96, .T. ) ;
#82 = ORIENTED_EDGE ( 'NONE', *, *, #207, .T. ) ;
#83 = CARTESIAN_POINT ( 'NONE',  ( 0.1875000000000000278, 2.296212748401287726E-17, 2.500000000000000000 ) ) ;
#84 = EDGE_LOOP ( 'NONE', ( #41, #272, #35, #244 ) ) ;
#85 = ADVANCED_FACE ( 'NONE', ( #123 ), #233, .T. ) ;
#86 = PLANE ( 'NONE',  #241 ) ;
#87 = VECTOR ( 'NONE', #19, 39.37007874015748143 ) ;
#88 = EDGE_LOOP ( 'NONE', ( #266, #294, #194, #3 ) ) ;
#89 = UNCERTAINTY_MEASURE_WITH_UNIT (LENGTH_MEASURE( 1.000000000000000082E-05 ), #281, 'distance_accuracy_value', 'NONE');
#90 = ORIENTED_EDGE ( 'NONE', *, *, #181, .T. ) ;
#91 = LINE ( 'NONE', #232, #94 ) ;
#92 = DIRECTION ( 'NONE',  ( 1.000000000000000000, 0.0000000000000000000, 0.0000000000000000000 ) ) ;
#93 = CYLINDRICAL_SURFACE ( 'NONE', #293, 0.1873124999999999929 ) ;
#94 = VECTOR ( 'NONE', #249, 39.37007874015748143 ) ;
#95 = ORIENTED_EDGE ( 'NONE', *, *, #271, .F. ) ;
#96 = EDGE_CURVE ( 'NONE', #38, #193, #260, .T. ) ;
#97 = DIRECTION ( 'NONE',  ( -0.0000000000000000000, -0.0000000000000000000, -1.000000000000000000 ) ) ;
#98 = APPLICATION_CONTEXT ( 'automotive_design' ) ;
#99 = LINE ( 'NONE', #262, #250 ) ;
#100 = PRODUCT_DEFINITION_CONTEXT ( 'detailed design', #255, 'design' ) ;
#101 = LINE ( 'NONE', #28, #211 ) ;
#102 = CIRCLE ( 'NONE', #31, 0.1724999999999995981 ) ;
#103 = CARTESIAN_POINT ( 'NONE',  ( 1.072868196215332272E-16, 0.0000000000000000000, 0.8760633653411783461 ) ) ;
#104 = DIRECTION ( 'NONE',  ( -1.224646799147353207E-16, -0.0000000000000000000, -1.000000000000000000 ) ) ;
#105 = ORIENTED_EDGE ( 'NONE', *, *, #48, .F. ) ;
#106 = SURFACE_STYLE_USAGE ( .BOTH. , #12 ) ;
#107 = CONICAL_SURFACE ( 'NONE', #148, 0.1873125000000000207, 0.1745329251994338915 ) ;
#108 = PRODUCT_DEFINITION_FORMATION_WITH_SPECIFIED_SOURCE ( 'ANY', '', #245, .NOT_KNOWN. ) ;
#109 = ORIENTED_EDGE ( 'NONE', *, *, #190, .F. ) ;
#110 = ORIENTED_EDGE ( 'NONE', *, *, #61, .T. ) ;
#111 = AXIS2_PLACEMENT_3D ( 'NONE', #53, #7, #163 ) ;
#112 = EDGE_LOOP ( 'NONE', ( #295, #114, #218, #109 ) ) ;
#113 = DIRECTION ( 'NONE',  ( 1.224646799147353207E-16, 0.0000000000000000000, 1.000000000000000000 ) ) ;
#114 = ORIENTED_EDGE ( 'NONE', *, *, #271, .T. ) ;
#115 = FACE_OUTER_BOUND ( 'NONE', #84, .T. ) ;
#116 = AXIS2_PLACEMENT_3D ( 'NONE', #289, #238, #215 ) ;
#117 = STYLED_ITEM ( 'NONE', ( #221 ), #60 ) ;
#118 = DIRECTION ( 'NONE',  ( 1.000000000000000000, 0.0000000000000000000, 0.0000000000000000000 ) ) ;
#119 = EDGE_CURVE ( 'NONE', #251, #193, #23, .T. ) ;
#120 = CARTESIAN_POINT ( 'NONE',  ( 0.1724999999999995981, 2.204364238465233357E-17, 2.500000000000000000 ) ) ;
#121 = DIRECTION ( 'NONE',  ( -1.000000000000000000, 0.0000000000000000000, 0.0000000000000000000 ) ) ;
#122 = CONICAL_SURFACE ( 'NONE', #155, 0.1724999999999995981, 0.7853981633974357335 ) ;
#123 = FACE_OUTER_BOUND ( 'NONE', #112, .T. ) ;
#124 = DIRECTION ( 'NONE',  ( 0.7071067811865385799, 8.659560562354823157E-17, -0.7071067811865563435 ) ) ;
#125 = CARTESIAN_POINT ( 'NONE',  ( 0.1873124999999999929, 2.293916535652885596E-17, 0.0000000000000000000 ) ) ;
#126 = STYLED_ITEM ( 'NONE', ( #299 ), #24 ) ;
#127 = DIRECTION ( 'NONE',  ( -1.000000000000000000, 0.0000000000000000000, 0.0000000000000000000 ) ) ;
#128 = EDGE_LOOP ( 'NONE', ( #95, #205, #146, #292 ) ) ;
#129 = ADVANCED_FACE ( 'NONE', ( #189 ), #256, .T. ) ;
#130 = AXIS2_PLACEMENT_3D ( 'NONE', #199, #156, #276 ) ;
#131 = EDGE_LOOP ( 'NONE', ( #58, #173 ) ) ;
#132 = CARTESIAN_POINT ( 'NONE',  ( 0.0000000000000000000, 0.0000000000000000000, 2.500000000000000000 ) ) ;
#133 = VERTEX_POINT ( 'NONE', #162 ) ;
#134 = CARTESIAN_POINT ( 'NONE',  ( 0.0000000000000000000, 0.0000000000000000000, 0.0000000000000000000 ) ) ;
#135 = DIRECTION ( 'NONE',  ( 1.000000000000000000, 0.0000000000000000000, 0.0000000000000000000 ) ) ;
#136 =( NAMED_UNIT ( * ) SI_UNIT ( $, .STERADIAN. ) SOLID_ANGLE_UNIT ( ) );
#137 = LENGTH_MEASURE_WITH_UNIT ( LENGTH_MEASURE( 0.02539999999999999897 ), #70 );
#138 = AXIS2_PLACEMENT_3D ( 'NONE', #283, #54, #76 ) ;
#139 = CARTESIAN_POINT ( 'NONE',  ( 0.1873125000000001317, 0.0000000000000000000, 0.8750000000000000000 ) ) ;
#140 = DIRECTION ( 'NONE',  ( -1.224646799147353207E-16, -0.0000000000000000000, -1.000000000000000000 ) ) ;
#141 = DIRECTION ( 'NONE',  ( -0.7071067811865385799, 0.0000000000000000000, -0.7071067811865563435 ) ) ;
#142 = DIRECTION ( 'NONE',  ( 1.000000000000000000, 0.0000000000000000000, 0.0000000000000000000 ) ) ;
#143 = DIRECTION ( 'NONE',  ( 1.000000000000000000, 0.0000000000000000000, 0.0000000000000000000 ) ) ;
#144 = LINE ( 'NONE', #282, #279 ) ;
#145 = CARTESIAN_POINT ( 'NONE',  ( -0.1724999999999995981, 0.0000000000000000000, 2.500000000000000000 ) ) ;
#146 = ORIENTED_EDGE ( 'NONE', *, *, #190, .T. ) ;
#147 = EDGE_CURVE ( 'NONE', #38, #222, #297, .T. ) ;
#148 = AXIS2_PLACEMENT_3D ( 'NONE', #275, #113, #118 ) ;
#149 = PLANE ( 'NONE',  #186 ) ;
#150 = PRODUCT_RELATED_PRODUCT_CATEGORY ( 'part', '', ( #245 ) ) ;
#151 = DIRECTION ( 'NONE',  ( 0.0000000000000000000, 0.0000000000000000000, 1.000000000000000000 ) ) ;
#152 = VERTEX_POINT ( 'NONE', #125 ) ;
#153 = VERTEX_POINT ( 'NONE', #51 ) ;
#154 =( NAMED_UNIT ( * ) SI_UNIT ( $, .STERADIAN. ) SOLID_ANGLE_UNIT ( ) );
#155 = AXIS2_PLACEMENT_3D ( 'NONE', #185, #27, #127 ) ;
#156 = DIRECTION ( 'NONE',  ( 0.0000000000000000000, 0.0000000000000000000, -1.000000000000000000 ) ) ;
#157 = SURFACE_SIDE_STYLE ('',( #67 ) ) ;
#158 = EDGE_CURVE ( 'NONE', #42, #298, #102, .T. ) ;
#159 = FACE_OUTER_BOUND ( 'NONE', #88, .T. ) ;
#160 = CIRCLE ( 'NONE', #234, 0.1875000000000000278 ) ;
#161 = EDGE_CURVE ( 'NONE', #298, #42, #216, .T. ) ;
#162 = CARTESIAN_POINT ( 'NONE',  ( -0.1873124999999999929, 0.0000000000000000000, 4.587833071305771192E-17 ) ) ;
#163 = DIRECTION ( 'NONE',  ( -1.000000000000000000, 0.0000000000000000000, 0.0000000000000000000 ) ) ;
#164 = CARTESIAN_POINT ( 'NONE',  ( 0.0000000000000000000, 0.0000000000000000000, 2.484999999999999432 ) ) ;
#165 = AXIS2_PLACEMENT_3D ( 'NONE', #103, #104, #143 ) ;
#166 = FACE_OUTER_BOUND ( 'NONE', #231, .T. ) ;
#167 = CARTESIAN_POINT ( 'NONE',  ( 0.0000000000000000000, 0.0000000000000000000, 2.500000000000000000 ) ) ;
#168 = DIMENSIONAL_EXPONENTS ( 1.000000000000000000, 0.0000000000000000000, 0.0000000000000000000, 0.0000000000000000000, 0.0000000000000000000, 0.0000000000000000000, 0.0000000000000000000 ) ;
#169 = AXIS2_PLACEMENT_3D ( 'NONE', #209, #10, #50 ) ;
#170 = EDGE_CURVE ( 'NONE', #222, #38, #196, .T. ) ;
#171 = ORIENTED_EDGE ( 'NONE', *, *, #161, .F. ) ;
#172 = ORIENTED_EDGE ( 'NONE', *, *, #64, .T. ) ;
#173 = ORIENTED_EDGE ( 'NONE', *, *, #158, .T. ) ;
#174 = ADVANCED_FACE ( 'NONE', ( #77 ), #6, .T. ) ;
#175 = DIRECTION ( 'NONE',  ( 0.0000000000000000000, 0.0000000000000000000, 1.000000000000000000 ) ) ;
#176 = ORIENTED_EDGE ( 'NONE', *, *, #207, .F. ) ;
#177 = DIRECTION ( 'NONE',  ( -1.000000000000000000, 0.0000000000000000000, 1.224646799147352961E-16 ) ) ;
#178 =( NAMED_UNIT ( * ) PLANE_ANGLE_UNIT ( ) SI_UNIT ( $, .RADIAN. ) );
#179 = EDGE_LOOP ( 'NONE', ( #172, #219 ) ) ;
#180 = DIRECTION ( 'NONE',  ( -1.224646799147353207E-16, -0.0000000000000000000, -1.000000000000000000 ) ) ;
#181 = EDGE_CURVE ( 'NONE', #298, #153, #183, .T. ) ;
#182 = CARTESIAN_POINT ( 'NONE',  ( 0.1873124999999999929, 2.293916535652885596E-17, -2.293916535652885596E-17 ) ) ;
#183 = LINE ( 'NONE', #285, #284 ) ;
#184 = DIRECTION ( 'NONE',  ( -1.000000000000000000, 0.0000000000000000000, 0.0000000000000000000 ) ) ;
#185 = CARTESIAN_POINT ( 'NONE',  ( 0.0000000000000000000, 0.0000000000000000000, 2.500000000000000000 ) ) ;
#186 = AXIS2_PLACEMENT_3D ( 'NONE', #132, #151, #247 ) ;
#187 = DIMENSIONAL_EXPONENTS ( 1.000000000000000000, 0.0000000000000000000, 0.0000000000000000000, 0.0000000000000000000, 0.0000000000000000000, 0.0000000000000000000, 0.0000000000000000000 ) ;
#188 = CARTESIAN_POINT ( 'NONE',  ( 1.071565949253934025E-16, 0.0000000000000000000, 0.8750000000000000000 ) ) ;
#189 = FACE_OUTER_BOUND ( 'NONE', #11, .T. ) ;
#190 = EDGE_CURVE ( 'NONE', #153, #251, #99, .T. ) ;
#191 =( LENGTH_UNIT ( ) NAMED_UNIT ( * ) SI_UNIT ( $, .METRE. ) );
#192 =( GEOMETRIC_REPRESENTATION_CONTEXT ( 3 ) GLOBAL_UNCERTAINTY_ASSIGNED_CONTEXT ( ( #89 ) ) GLOBAL_UNIT_ASSIGNED_CONTEXT ( ( #281, #44, #136 ) ) REPRESENTATION_CONTEXT ( 'NONE', 'WORKASPACE' ) );
#193 = VERTEX_POINT ( 'NONE', #235 ) ;
#194 = ORIENTED_EDGE ( 'NONE', *, *, #64, .F. ) ;
#195 = ORIENTED_EDGE ( 'NONE', *, *, #40, .T. ) ;
#196 = CIRCLE ( 'NONE', #26, 0.1873125000000000207 ) ;
#197 = CARTESIAN_POINT ( 'NONE',  ( 0.0000000000000000000, 0.0000000000000000000, 0.0000000000000000000 ) ) ;
#198 = EDGE_LOOP ( 'NONE', ( #176, #296, #81, #110 ) ) ;
#199 = CARTESIAN_POINT ( 'NONE',  ( 0.0000000000000000000, 0.0000000000000000000, 2.500000000000000000 ) ) ;
#200 =( LENGTH_UNIT ( ) NAMED_UNIT ( * ) SI_UNIT ( $, .METRE. ) );
#201 = ADVANCED_FACE ( 'NONE', ( #32 ), #268, .T. ) ;
#202 = DIRECTION ( 'NONE',  ( -1.000000000000000000, 0.0000000000000000000, 1.224646799147352961E-16 ) ) ;
#203 = DIRECTION ( 'NONE',  ( 0.0000000000000000000, 0.0000000000000000000, 1.000000000000000000 ) ) ;
#204 = PRESENTATION_LAYER_ASSIGNMENT (  '', '', ( #117 ) ) ;
#205 = ORIENTED_EDGE ( 'NONE', *, *, #217, .T. ) ;
#206 = APPLICATION_PROTOCOL_DEFINITION ( 'draft international standard', 'automotive_design', 1998, #255 ) ;
#207 = EDGE_CURVE ( 'NONE', #222, #251, #144, .T. ) ;
#208 = DIRECTION ( 'NONE',  ( -1.224646799147353207E-16, -0.0000000000000000000, -1.000000000000000000 ) ) ;
#209 = CARTESIAN_POINT ( 'NONE',  ( 0.0000000000000000000, 0.0000000000000000000, 2.500000000000000000 ) ) ;
#210 = VECTOR ( 'NONE', #212, 39.37007874015748143 ) ;
#211 = VECTOR ( 'NONE', #124, 39.37007874015748854 ) ;
#212 = DIRECTION ( 'NONE',  ( 0.1736481776669313859, 0.0000000000000000000, 0.9848077530122077983 ) ) ;
#213 = ADVANCED_FACE ( 'NONE', ( #166 ), #122, .T. ) ;
#214 = CARTESIAN_POINT ( 'NONE',  ( -0.1873124999999999096, 2.295064642027087123E-17, 0.8750000000000000000 ) ) ;
#215 = DIRECTION ( 'NONE',  ( -1.000000000000000000, 0.0000000000000000000, 1.224646799147352961E-16 ) ) ;
#216 = CIRCLE ( 'NONE', #169, 0.1724999999999995981 ) ;
#217 = EDGE_CURVE ( 'NONE', #13, #153, #65, .T. ) ;
#218 = ORIENTED_EDGE ( 'NONE', *, *, #119, .F. ) ;
#219 = ORIENTED_EDGE ( 'NONE', *, *, #48, .T. ) ;
#220 = EDGE_CURVE ( 'NONE', #42, #13, #101, .T. ) ;
#221 = PRESENTATION_STYLE_ASSIGNMENT (( #106 ) ) ;
#222 = VERTEX_POINT ( 'NONE', #214 ) ;
#223 = LENGTH_MEASURE_WITH_UNIT ( LENGTH_MEASURE( 0.02539999999999999897 ), #200 );
#224 = MECHANICAL_DESIGN_GEOMETRIC_PRESENTATION_REPRESENTATION (  '', ( #126 ), #192 ) ;
#225 = DIRECTION ( 'NONE',  ( -1.224646799147353207E-16, -0.0000000000000000000, -1.000000000000000000 ) ) ;
#226 =( CONVERSION_BASED_UNIT ( 'INCH', #223 ) LENGTH_UNIT ( ) NAMED_UNIT ( #239 ) );
#227 = CARTESIAN_POINT ( 'NONE',  ( 0.0000000000000000000, 0.0000000000000000000, 0.0000000000000000000 ) ) ;
#228 = CARTESIAN_POINT ( 'NONE',  ( 2.809237542898491532E-33, 0.0000000000000000000, 2.293916535652885596E-17 ) ) ;
#229 = CIRCLE ( 'NONE', #258, 0.1873124999999999929 ) ;
#230 =( GEOMETRIC_REPRESENTATION_CONTEXT ( 3 ) GLOBAL_UNCERTAINTY_ASSIGNED_CONTEXT ( ( #291 ) ) GLOBAL_UNIT_ASSIGNED_CONTEXT ( ( #57, #36, #21 ) ) REPRESENTATION_CONTEXT ( 'NONE', 'WORKASPACE' ) );
#231 = EDGE_LOOP ( 'NONE', ( #248, #171, #90, #17 ) ) ;
#232 = CARTESIAN_POINT ( 'NONE',  ( -0.1873124999999999929, 0.0000000000000000000, 2.293916535652885596E-17 ) ) ;
#233 = CYLINDRICAL_SURFACE ( 'NONE', #111, 0.1875000000000000278 ) ;
#234 = AXIS2_PLACEMENT_3D ( 'NONE', #252, #45, #135 ) ;
#235 = CARTESIAN_POINT ( 'NONE',  ( 0.1875000000000000833, 2.296212748401288650E-17, 0.8760633653411783461 ) ) ;
#236 = DIRECTION ( 'NONE',  ( 0.0000000000000000000, 0.0000000000000000000, 1.000000000000000000 ) ) ;
#237 = UNCERTAINTY_MEASURE_WITH_UNIT (LENGTH_MEASURE( 1.000000000000000082E-05 ), #226, 'distance_accuracy_value', 'NONE');
#238 = DIRECTION ( 'NONE',  ( -1.224646799147353207E-16, -0.0000000000000000000, -1.000000000000000000 ) ) ;
#239 = DIMENSIONAL_EXPONENTS ( 1.000000000000000000, 0.0000000000000000000, 0.0000000000000000000, 0.0000000000000000000, 0.0000000000000000000, 0.0000000000000000000, 0.0000000000000000000 ) ;
#240 = DIRECTION ( 'NONE',  ( -0.1736481776669311916, 2.126576849575783316E-17, 0.9848077530122080203 ) ) ;
#241 = AXIS2_PLACEMENT_3D ( 'NONE', #197, #175, #265 ) ;
#242 = FACE_OUTER_BOUND ( 'NONE', #179, .T. ) ;
#243 = EDGE_LOOP ( 'NONE', ( #62, #82, #264, #246 ) ) ;
#244 = ORIENTED_EDGE ( 'NONE', *, *, #181, .F. ) ;
#245 = PRODUCT ( 'Micro_EMS-375-2X', 'Micro_EMS-375-2X', '', ( #273 ) ) ;
#246 = ORIENTED_EDGE ( 'NONE', *, *, #96, .F. ) ;
#247 = DIRECTION ( 'NONE',  ( 1.000000000000000000, 0.0000000000000000000, -0.0000000000000000000 ) ) ;
#248 = ORIENTED_EDGE ( 'NONE', *, *, #220, .F. ) ;
#249 = DIRECTION ( 'NONE',  ( -1.224646799147353207E-16, -0.0000000000000000000, -1.000000000000000000 ) ) ;
#250 = VECTOR ( 'NONE', #52, 39.37007874015748143 ) ;
#251 = VERTEX_POINT ( 'NONE', #8 ) ;
#252 = CARTESIAN_POINT ( 'NONE',  ( 1.072868196215332272E-16, 0.0000000000000000000, 0.8760633653411783461 ) ) ;
#253 = AXIS2_PLACEMENT_3D ( 'NONE', #30, #140, #25 ) ;
#254 = DIRECTION ( 'NONE',  ( 1.000000000000000000, 0.0000000000000000000, 0.0000000000000000000 ) ) ;
#255 = APPLICATION_CONTEXT ( 'automotive_design' ) ;
#256 = CYLINDRICAL_SURFACE ( 'NONE', #116, 0.1873124999999999929 ) ;
#257 = FILL_AREA_STYLE_COLOUR ( '', #80 ) ;
#258 = AXIS2_PLACEMENT_3D ( 'NONE', #63, #225, #202 ) ;
#259 = DIRECTION ( 'NONE',  ( 0.0000000000000000000, 0.0000000000000000000, -1.000000000000000000 ) ) ;
#260 = LINE ( 'NONE', #72, #210 ) ;
#261 = ADVANCED_FACE ( 'NONE', ( #242 ), #86, .F. ) ;
#262 = CARTESIAN_POINT ( 'NONE',  ( -0.1875000000000000278, 0.0000000000000000000, 2.500000000000000000 ) ) ;
#263 = AXIS2_PLACEMENT_3D ( 'NONE', #228, #208, #177 ) ;
#264 = ORIENTED_EDGE ( 'NONE', *, *, #119, .T. ) ;
#265 = DIRECTION ( 'NONE',  ( 1.000000000000000000, 0.0000000000000000000, -0.0000000000000000000 ) ) ;
#266 = ORIENTED_EDGE ( 'NONE', *, *, #170, .T. ) ;
#267 = ORIENTED_EDGE ( 'NONE', *, *, #68, .F. ) ;
#268 = CONICAL_SURFACE ( 'NONE', #138, 0.1873125000000000207, 0.1745329251994338915 ) ;
#269 = ORIENTED_EDGE ( 'NONE', *, *, #147, .T. ) ;
#270 = APPLICATION_PROTOCOL_DEFINITION ( 'draft international standard', 'automotive_design', 1998, #98 ) ;
#271 = EDGE_CURVE ( 'NONE', #13, #193, #56, .T. ) ;
#272 = ORIENTED_EDGE ( 'NONE', *, *, #220, .T. ) ;
#273 = PRODUCT_CONTEXT ( 'NONE', #98, 'mechanical' ) ;
#274 = SHAPE_DEFINITION_REPRESENTATION ( #288, #60 ) ;
#275 = CARTESIAN_POINT ( 'NONE',  ( 1.071565949253934025E-16, 0.0000000000000000000, 0.8750000000000000000 ) ) ;
#276 = DIRECTION ( 'NONE',  ( -1.000000000000000000, 0.0000000000000000000, 0.0000000000000000000 ) ) ;
#277 = EDGE_CURVE ( 'NONE', #153, #13, #33, .T. ) ;
#278 = CARTESIAN_POINT ( 'NONE',  ( 0.1875000000000000278, 2.296212748401287726E-17, 2.484999999999999432 ) ) ;
#279 = VECTOR ( 'NONE', #240, 39.37007874015747433 ) ;
#280 =( GEOMETRIC_REPRESENTATION_CONTEXT ( 3 ) GLOBAL_UNCERTAINTY_ASSIGNED_CONTEXT ( ( #237 ) ) GLOBAL_UNIT_ASSIGNED_CONTEXT ( ( #226, #178, #154 ) ) REPRESENTATION_CONTEXT ( 'NONE', 'WORKASPACE' ) );
#281 =( CONVERSION_BASED_UNIT ( 'INCH', #137 ) LENGTH_UNIT ( ) NAMED_UNIT ( #168 ) );
#282 = CARTESIAN_POINT ( 'NONE',  ( -0.1873124999999999096, 2.293916535652885904E-17, 0.8750000000000000000 ) ) ;
#283 = CARTESIAN_POINT ( 'NONE',  ( 1.071565949253934025E-16, 0.0000000000000000000, 0.8750000000000000000 ) ) ;
#284 = VECTOR ( 'NONE', #141, 39.37007874015748854 ) ;
#285 = CARTESIAN_POINT ( 'NONE',  ( -0.1724999999999995981, 0.0000000000000000000, 2.500000000000000000 ) ) ;
#286 = ADVANCED_FACE ( 'NONE', ( #34 ), #149, .T. ) ;
#287 = DIRECTION ( 'NONE',  ( -1.224646799147353207E-16, -0.0000000000000000000, -1.000000000000000000 ) ) ;
#288 = PRODUCT_DEFINITION_SHAPE ( 'NONE', 'NONE',  #20 ) ;
#289 = CARTESIAN_POINT ( 'NONE',  ( 0.0000000000000000000, 0.0000000000000000000, 0.0000000000000000000 ) ) ;
#290 = LENGTH_MEASURE_WITH_UNIT ( LENGTH_MEASURE( 0.02539999999999999897 ), #191 );
#291 = UNCERTAINTY_MEASURE_WITH_UNIT (LENGTH_MEASURE( 1.000000000000000082E-05 ), #57, 'distance_accuracy_value', 'NONE');
#292 = ORIENTED_EDGE ( 'NONE', *, *, #61, .F. ) ;
#293 = AXIS2_PLACEMENT_3D ( 'NONE', #227, #180, #1 ) ;
#294 = ORIENTED_EDGE ( 'NONE', *, *, #68, .T. ) ;
#295 = ORIENTED_EDGE ( 'NONE', *, *, #277, .T. ) ;
#296 = ORIENTED_EDGE ( 'NONE', *, *, #147, .F. ) ;
#297 = CIRCLE ( 'NONE', #253, 0.1873125000000000207 ) ;
#298 = VERTEX_POINT ( 'NONE', #145 ) ;
#299 = PRESENTATION_STYLE_ASSIGNMENT (( #46 ) ) ;
ENDSEC;
END-ISO-10303-21;
