ISO-10303-21;
HEADER;
FILE_DESCRIPTION (( 'STEP AP214' ),
    '1' );
FILE_NAME ('Micro_EMSM-060-4.STEP',
    '2022-03-15T14:38:47',
    ( '' ),
    ( '' ),
    'SwSTEP 2.0',
    'SolidWorks 2022',
    '' );
FILE_SCHEMA (( 'AUTOMOTIVE_DESIGN' ));
ENDSEC;

DATA;
#1 = ORIENTED_EDGE ( 'NONE', *, *, #142, .T. ) ;
#2 = VERTEX_POINT ( 'NONE', #171 ) ;
#3 = VERTEX_POINT ( 'NONE', #55 ) ;
#4 = LINE ( 'NONE', #101, #93 ) ;
#5 = VERTEX_POINT ( 'NONE', #6 ) ;
#6 = CARTESIAN_POINT ( 'NONE',  ( 0.1181100000000000066, 1.446430334472939084E-17, 2.229093999999999465 ) ) ;
#7 = DIRECTION ( 'NONE',  ( -1.000000000000000000, 0.000000000000000000, 1.224646799147353454E-16 ) ) ;
#8 = CARTESIAN_POINT ( 'NONE',  ( 0.1181100000000000066, 1.446430334472939084E-17, 2.244094000000000033 ) ) ;
#9 = CIRCLE ( 'NONE', #138, 0.1179918899999999882 ) ;
#10 = ORIENTED_EDGE ( 'NONE', *, *, #295, .T. ) ;
#11 =( LENGTH_UNIT ( ) NAMED_UNIT ( * ) SI_UNIT ( $, .METRE. ) );
#12 = DIRECTION ( 'NONE',  ( 0.000000000000000000, 0.000000000000000000, 1.000000000000000000 ) ) ;
#13 = DIRECTION ( 'NONE',  ( -0.000000000000000000, -0.000000000000000000, -1.000000000000000000 ) ) ;
#14 = AXIS2_PLACEMENT_3D ( 'NONE', #72, #183, #60 ) ;
#15 = PRESENTATION_STYLE_ASSIGNMENT (( #112 ) ) ;
#16 = CARTESIAN_POINT ( 'NONE',  ( 0.000000000000000000, 0.000000000000000000, 0.000000000000000000 ) ) ;
#17 = EDGE_CURVE ( 'NONE', #209, #5, #174, .T. ) ;
#18 = CARTESIAN_POINT ( 'NONE',  ( 0.000000000000000000, 0.000000000000000000, 0.000000000000000000 ) ) ;
#19 = UNCERTAINTY_MEASURE_WITH_UNIT (LENGTH_MEASURE( 1.000000000000000082E-05 ), #89, 'distance_accuracy_value', 'NONE');
#20 = AXIS2_PLACEMENT_3D ( 'NONE', #105, #215, #240 ) ;
#21 = EDGE_CURVE ( 'NONE', #228, #5, #236, .T. ) ;
#22 = ORIENTED_EDGE ( 'NONE', *, *, #113, .T. ) ;
#23 = ADVANCED_FACE ( 'NONE', ( #152 ), #74, .T. ) ;
#24 = EDGE_LOOP ( 'NONE', ( #206, #66, #10, #41 ) ) ;
#25 = VERTEX_POINT ( 'NONE', #131 ) ;
#26 = DIRECTION ( 'NONE',  ( 1.000000000000000000, 0.000000000000000000, 0.000000000000000000 ) ) ;
#27 = DIRECTION ( 'NONE',  ( -1.224646799147353207E-16, -0.000000000000000000, -1.000000000000000000 ) ) ;
#28 = VERTEX_POINT ( 'NONE', #133 ) ;
#29 = CARTESIAN_POINT ( 'NONE',  ( -0.1179918899999999882, 0.000000000000000000, 2.889967808276931875E-17 ) ) ;
#30 = EDGE_LOOP ( 'NONE', ( #272, #207, #233, #127 ) ) ;
#31 = DIRECTION ( 'NONE',  ( -0.000000000000000000, -0.000000000000000000, -1.000000000000000000 ) ) ;
#32 = DIRECTION ( 'NONE',  ( 1.224646799147353207E-16, 0.000000000000000000, 1.000000000000000000 ) ) ;
#33 = DIRECTION ( 'NONE',  ( -0.000000000000000000, -0.000000000000000000, -1.000000000000000000 ) ) ;
#34 = EDGE_CURVE ( 'NONE', #209, #25, #117, .T. ) ;
#35 = FILL_AREA_STYLE ('',( #268 ) ) ;
#36 = VECTOR ( 'NONE', #270, 39.37007874015748143 ) ;
#37 = AXIS2_PLACEMENT_3D ( 'NONE', #18, #296, #91 ) ;
#38 = AXIS2_PLACEMENT_3D ( 'NONE', #110, #199, #26 ) ;
#39 = CIRCLE ( 'NONE', #46, 0.1031100000000002570 ) ;
#40 = EDGE_CURVE ( 'NONE', #47, #28, #193, .T. ) ;
#41 = ORIENTED_EDGE ( 'NONE', *, *, #155, .F. ) ;
#42 = ORIENTED_EDGE ( 'NONE', *, *, #208, .T. ) ;
#43 = ORIENTED_EDGE ( 'NONE', *, *, #155, .T. ) ;
#44 = DIRECTION ( 'NONE',  ( 0.000000000000000000, 0.000000000000000000, -1.000000000000000000 ) ) ;
#45 =( GEOMETRIC_REPRESENTATION_CONTEXT ( 3 ) GLOBAL_UNCERTAINTY_ASSIGNED_CONTEXT ( ( #58 ) ) GLOBAL_UNIT_ASSIGNED_CONTEXT ( ( #281, #108, #263 ) ) REPRESENTATION_CONTEXT ( 'NONE', 'WORKASPACE' ) );
#46 = AXIS2_PLACEMENT_3D ( 'NONE', #166, #71, #169 ) ;
#47 = VERTEX_POINT ( 'NONE', #286 ) ;
#48 = DIRECTION ( 'NONE',  ( 1.000000000000000000, 0.000000000000000000, 0.000000000000000000 ) ) ;
#49 = DIRECTION ( 'NONE',  ( 0.1736481776669314137, 0.000000000000000000, 0.9848077530122077983 ) ) ;
#50 = ORIENTED_EDGE ( 'NONE', *, *, #186, .T. ) ;
#51 = DIRECTION ( 'NONE',  ( -1.000000000000000000, 0.000000000000000000, 0.000000000000000000 ) ) ;
#52 = DIRECTION ( 'NONE',  ( 0.7071067811865358044, 8.659560562354788645E-17, -0.7071067811865590080 ) ) ;
#53 = DIRECTION ( 'NONE',  ( -1.000000000000000000, 0.000000000000000000, 0.000000000000000000 ) ) ;
#54 = AXIS2_PLACEMENT_3D ( 'NONE', #124, #44, #210 ) ;
#55 = CARTESIAN_POINT ( 'NONE',  ( 0.1179918900000000853, 0.000000000000000000, 0.7086609999999999854 ) ) ;
#56 = FACE_OUTER_BOUND ( 'NONE', #73, .T. ) ;
#57 = AXIS2_PLACEMENT_3D ( 'NONE', #16, #292, #222 ) ;
#58 = UNCERTAINTY_MEASURE_WITH_UNIT (LENGTH_MEASURE( 1.000000000000000082E-05 ), #281, 'distance_accuracy_value', 'NONE');
#59 = APPLICATION_CONTEXT ( 'automotive_design' ) ;
#60 = DIRECTION ( 'NONE',  ( -1.000000000000000000, 0.000000000000000000, 0.000000000000000000 ) ) ;
#61 = PRODUCT_CONTEXT ( 'NONE', #283, 'mechanical' ) ;
#62 = ADVANCED_FACE ( 'NONE', ( #83 ), #65, .T. ) ;
#63 = ORIENTED_EDGE ( 'NONE', *, *, #95, .F. ) ;
#64 = VECTOR ( 'NONE', #52, 39.37007874015748854 ) ;
#65 = CONICAL_SURFACE ( 'NONE', #54, 0.1031100000000002570, 0.7853981633974318477 ) ;
#66 = ORIENTED_EDGE ( 'NONE', *, *, #297, .F. ) ;
#67 = ORIENTED_EDGE ( 'NONE', *, *, #165, .T. ) ;
#68 = EDGE_CURVE ( 'NONE', #3, #2, #4, .T. ) ;
#69 = ORIENTED_EDGE ( 'NONE', *, *, #269, .T. ) ;
#70 = FACE_OUTER_BOUND ( 'NONE', #185, .T. ) ;
#71 = DIRECTION ( 'NONE',  ( 0.000000000000000000, 0.000000000000000000, 1.000000000000000000 ) ) ;
#72 = CARTESIAN_POINT ( 'NONE',  ( 0.000000000000000000, 0.000000000000000000, 2.244094000000000033 ) ) ;
#73 = EDGE_LOOP ( 'NONE', ( #226, #50, #122, #146 ) ) ;
#74 = CYLINDRICAL_SURFACE ( 'NONE', #248, 0.1181100000000000066 ) ;
#75 = DIMENSIONAL_EXPONENTS ( 1.000000000000000000, 0.000000000000000000, 0.000000000000000000, 0.000000000000000000, 0.000000000000000000, 0.000000000000000000, 0.000000000000000000 ) ;
#76 = SURFACE_STYLE_FILL_AREA ( #129 ) ;
#77 = CARTESIAN_POINT ( 'NONE',  ( 8.678594253305624695E-17, 0.000000000000000000, 0.7086609999999999854 ) ) ;
#78 = PRODUCT_DEFINITION ( 'UNKNOWN', '', #118, #81 ) ;
#79 = PLANE ( 'NONE',  #20 ) ;
#80 = DIRECTION ( 'NONE',  ( -1.000000000000000000, 0.000000000000000000, 0.000000000000000000 ) ) ;
#81 = PRODUCT_DEFINITION_CONTEXT ( 'detailed design', #59, 'design' ) ;
#82 = VECTOR ( 'NONE', #13, 39.37007874015748143 ) ;
#83 = FACE_OUTER_BOUND ( 'NONE', #30, .T. ) ;
#84 = LINE ( 'NONE', #175, #249 ) ;
#85 = LENGTH_MEASURE_WITH_UNIT ( LENGTH_MEASURE( 0.02539999999999999897 ), #132 );
#86 = ADVANCED_FACE ( 'NONE', ( #70 ), #276, .T. ) ;
#87 = FACE_OUTER_BOUND ( 'NONE', #123, .T. ) ;
#88 = AXIS2_PLACEMENT_3D ( 'NONE', #164, #255, #48 ) ;
#89 =( CONVERSION_BASED_UNIT ( 'INCH', #242 ) LENGTH_UNIT ( ) NAMED_UNIT ( #170 ) );
#90 = FACE_OUTER_BOUND ( 'NONE', #24, .T. ) ;
#91 = DIRECTION ( 'NONE',  ( 1.000000000000000000, 0.000000000000000000, 0.000000000000000000 ) ) ;
#92 = CLOSED_SHELL ( 'NONE', ( #221, #86, #62, #182, #23, #205, #135, #279, #247, #234 ) ) ;
#93 = VECTOR ( 'NONE', #190, 39.37007874015748143 ) ;
#94 = COLOUR_RGB ( '',0.7921568627450980005, 0.8196078431372548767, 0.9333333333333333481 ) ;
#95 = EDGE_CURVE ( 'NONE', #2, #290, #243, .T. ) ;
#96 = ORIENTED_EDGE ( 'NONE', *, *, #34, .T. ) ;
#97 = CONICAL_SURFACE ( 'NONE', #178, 0.1179918899999999882, 0.1745329251994339192 ) ;
#98 = EDGE_CURVE ( 'NONE', #225, #290, #271, .T. ) ;
#99 = ORIENTED_EDGE ( 'NONE', *, *, #297, .T. ) ;
#100 = ORIENTED_EDGE ( 'NONE', *, *, #40, .F. ) ;
#101 = CARTESIAN_POINT ( 'NONE',  ( 0.1179918899999999882, 1.444983904138465938E-17, -1.444983904138465938E-17 ) ) ;
#102 = CARTESIAN_POINT ( 'NONE',  ( -0.1179918899999999049, 1.445707119305702357E-17, 0.7086609999999999854 ) ) ;
#103 = ORIENTED_EDGE ( 'NONE', *, *, #227, .T. ) ;
#104 = DIRECTION ( 'NONE',  ( 0.000000000000000000, 0.000000000000000000, -1.000000000000000000 ) ) ;
#105 = CARTESIAN_POINT ( 'NONE',  ( 0.000000000000000000, 0.000000000000000000, 0.000000000000000000 ) ) ;
#106 = AXIS2_PLACEMENT_3D ( 'NONE', #109, #12, #168 ) ;
#107 = DIRECTION ( 'NONE',  ( -0.000000000000000000, -0.000000000000000000, -1.000000000000000000 ) ) ;
#108 =( NAMED_UNIT ( * ) PLANE_ANGLE_UNIT ( ) SI_UNIT ( $, .RADIAN. ) );
#109 = CARTESIAN_POINT ( 'NONE',  ( 0.000000000000000000, 0.000000000000000000, 2.244094000000000033 ) ) ;
#110 = CARTESIAN_POINT ( 'NONE',  ( 8.686797367364865710E-17, 0.000000000000000000, 0.7093308350957151509 ) ) ;
#111 = DIRECTION ( 'NONE',  ( -1.224646799147353207E-16, -0.000000000000000000, -1.000000000000000000 ) ) ;
#112 = SURFACE_STYLE_USAGE ( .BOTH. , #220 ) ;
#113 = EDGE_CURVE ( 'NONE', #28, #47, #294, .T. ) ;
#114 = PLANE ( 'NONE',  #254 ) ;
#115 = CARTESIAN_POINT ( 'NONE',  ( 0.1031100000000002570, 1.354581824536888722E-17, 2.244094000000000033 ) ) ;
#116 = AXIS2_PLACEMENT_3D ( 'NONE', #278, #104, #235 ) ;
#117 = CIRCLE ( 'NONE', #106, 0.1031100000000002570 ) ;
#118 = PRODUCT_DEFINITION_FORMATION_WITH_SPECIFIED_SOURCE ( 'ANY', '', #150, .NOT_KNOWN. ) ;
#119 = SURFACE_STYLE_FILL_AREA ( #35 ) ;
#120 = VECTOR ( 'NONE', #107, 39.37007874015748143 ) ;
#121 = ORIENTED_EDGE ( 'NONE', *, *, #68, .F. ) ;
#122 = ORIENTED_EDGE ( 'NONE', *, *, #113, .F. ) ;
#123 = EDGE_LOOP ( 'NONE', ( #42, #252, #253, #163 ) ) ;
#124 = CARTESIAN_POINT ( 'NONE',  ( 0.000000000000000000, 0.000000000000000000, 2.244094000000000033 ) ) ;
#125 = EDGE_LOOP ( 'NONE', ( #144, #145 ) ) ;
#126 = DIMENSIONAL_EXPONENTS ( 1.000000000000000000, 0.000000000000000000, 0.000000000000000000, 0.000000000000000000, 0.000000000000000000, 0.000000000000000000, 0.000000000000000000 ) ;
#127 = ORIENTED_EDGE ( 'NONE', *, *, #295, .F. ) ;
#128 = CIRCLE ( 'NONE', #151, 0.1179918899999999882 ) ;
#129 = FILL_AREA_STYLE ('',( #179 ) ) ;
#130 =( GEOMETRIC_REPRESENTATION_CONTEXT ( 3 ) GLOBAL_UNCERTAINTY_ASSIGNED_CONTEXT ( ( #19 ) ) GLOBAL_UNIT_ASSIGNED_CONTEXT ( ( #89, #203, #289 ) ) REPRESENTATION_CONTEXT ( 'NONE', 'WORKASPACE' ) );
#131 = CARTESIAN_POINT ( 'NONE',  ( -0.1031100000000002570, 0.000000000000000000, 2.244094000000000033 ) ) ;
#132 =( LENGTH_UNIT ( ) NAMED_UNIT ( * ) SI_UNIT ( $, .METRE. ) );
#133 = CARTESIAN_POINT ( 'NONE',  ( -0.1181099999999999234, 0.000000000000000000, 0.7093308350957151509 ) ) ;
#134 = DIRECTION ( 'NONE',  ( -1.224646799147353207E-16, -0.000000000000000000, -1.000000000000000000 ) ) ;
#135 = ADVANCED_FACE ( 'NONE', ( #90 ), #266, .T. ) ;
#136 = DIRECTION ( 'NONE',  ( 1.000000000000000000, 0.000000000000000000, 0.000000000000000000 ) ) ;
#137 = CYLINDRICAL_SURFACE ( 'NONE', #244, 0.1181100000000000066 ) ;
#138 = AXIS2_PLACEMENT_3D ( 'NONE', #77, #111, #172 ) ;
#139 = PRESENTATION_LAYER_ASSIGNMENT (  '', '', ( #194 ) ) ;
#140 = LINE ( 'NONE', #201, #120 ) ;
#141 = UNCERTAINTY_MEASURE_WITH_UNIT (LENGTH_MEASURE( 1.000000000000000082E-05 ), #149, 'distance_accuracy_value', 'NONE');
#142 = EDGE_CURVE ( 'NONE', #225, #28, #156, .T. ) ;
#143 = EDGE_LOOP ( 'NONE', ( #167, #189, #69, #251 ) ) ;
#144 = ORIENTED_EDGE ( 'NONE', *, *, #257, .T. ) ;
#145 = ORIENTED_EDGE ( 'NONE', *, *, #95, .T. ) ;
#146 = ORIENTED_EDGE ( 'NONE', *, *, #165, .F. ) ;
#147 = CARTESIAN_POINT ( 'NONE',  ( 1.769594913022618037E-33, 0.000000000000000000, 1.444983904138465938E-17 ) ) ;
#148 = DIRECTION ( 'NONE',  ( 1.000000000000000000, 0.000000000000000000, 0.000000000000000000 ) ) ;
#149 =( CONVERSION_BASED_UNIT ( 'INCH', #191 ) LENGTH_UNIT ( ) NAMED_UNIT ( #75 ) );
#150 = PRODUCT ( 'Micro_EMSM-060-4', 'Micro_EMSM-060-4', '', ( #61 ) ) ;
#151 = AXIS2_PLACEMENT_3D ( 'NONE', #173, #260, #53 ) ;
#152 = FACE_OUTER_BOUND ( 'NONE', #277, .T. ) ;
#153 =( GEOMETRIC_REPRESENTATION_CONTEXT ( 3 ) GLOBAL_UNCERTAINTY_ASSIGNED_CONTEXT ( ( #141 ) ) GLOBAL_UNIT_ASSIGNED_CONTEXT ( ( #149, #217, #180 ) ) REPRESENTATION_CONTEXT ( 'NONE', 'WORKASPACE' ) );
#154 =( LENGTH_UNIT ( ) NAMED_UNIT ( * ) SI_UNIT ( $, .METRE. ) );
#155 = EDGE_CURVE ( 'NONE', #5, #228, #176, .T. ) ;
#156 = LINE ( 'NONE', #245, #261 ) ;
#157 = MECHANICAL_DESIGN_GEOMETRIC_PRESENTATION_REPRESENTATION (  '', ( #287 ), #45 ) ;
#158 = APPLICATION_PROTOCOL_DEFINITION ( 'draft international standard', 'automotive_design', 1998, #59 ) ;
#159 = CARTESIAN_POINT ( 'NONE',  ( 8.686797367364865710E-17, 0.000000000000000000, 0.7093308350957151509 ) ) ;
#160 = EDGE_LOOP ( 'NONE', ( #121, #103, #214, #63 ) ) ;
#161 = CIRCLE ( 'NONE', #298, 0.1179918899999999882 ) ;
#162 = MECHANICAL_DESIGN_GEOMETRIC_PRESENTATION_REPRESENTATION (  '', ( #194 ), #130 ) ;
#163 = ORIENTED_EDGE ( 'NONE', *, *, #98, .F. ) ;
#164 = CARTESIAN_POINT ( 'NONE',  ( 8.678594253305624695E-17, 0.000000000000000000, 0.7086609999999999854 ) ) ;
#165 = EDGE_CURVE ( 'NONE', #228, #28, #140, .T. ) ;
#166 = CARTESIAN_POINT ( 'NONE',  ( 0.000000000000000000, 0.000000000000000000, 2.244094000000000033 ) ) ;
#167 = ORIENTED_EDGE ( 'NONE', *, *, #142, .F. ) ;
#168 = DIRECTION ( 'NONE',  ( 1.000000000000000000, 0.000000000000000000, 0.000000000000000000 ) ) ;
#169 = DIRECTION ( 'NONE',  ( 1.000000000000000000, 0.000000000000000000, 0.000000000000000000 ) ) ;
#170 = DIMENSIONAL_EXPONENTS ( 1.000000000000000000, 0.000000000000000000, 0.000000000000000000, 0.000000000000000000, 0.000000000000000000, 0.000000000000000000, 0.000000000000000000 ) ;
#171 = CARTESIAN_POINT ( 'NONE',  ( 0.1179918899999999882, 1.444983904138465938E-17, 0.000000000000000000 ) ) ;
#172 = DIRECTION ( 'NONE',  ( -1.000000000000000000, 0.000000000000000000, 0.000000000000000000 ) ) ;
#173 = CARTESIAN_POINT ( 'NONE',  ( 8.678594253305624695E-17, 0.000000000000000000, 0.7086609999999999854 ) ) ;
#174 = LINE ( 'NONE', #258, #64 ) ;
#175 = CARTESIAN_POINT ( 'NONE',  ( -0.1031100000000002570, 0.000000000000000000, 2.244094000000000033 ) ) ;
#176 = CIRCLE ( 'NONE', #184, 0.1181100000000000066 ) ;
#177 = CARTESIAN_POINT ( 'NONE',  ( 0.000000000000000000, 0.000000000000000000, 2.244094000000000033 ) ) ;
#178 = AXIS2_PLACEMENT_3D ( 'NONE', #218, #32, #148 ) ;
#179 = FILL_AREA_STYLE_COLOUR ( '', #273 ) ;
#180 =( NAMED_UNIT ( * ) SI_UNIT ( $, .STERADIAN. ) SOLID_ANGLE_UNIT ( ) );
#181 = AXIS2_PLACEMENT_3D ( 'NONE', #147, #231, #275 ) ;
#182 = ADVANCED_FACE ( 'NONE', ( #56 ), #137, .T. ) ;
#183 = DIRECTION ( 'NONE',  ( 0.000000000000000000, 0.000000000000000000, -1.000000000000000000 ) ) ;
#184 = AXIS2_PLACEMENT_3D ( 'NONE', #216, #285, #136 ) ;
#185 = EDGE_LOOP ( 'NONE', ( #187, #1, #22, #230 ) ) ;
#186 = EDGE_CURVE ( 'NONE', #5, #47, #219, .T. ) ;
#187 = ORIENTED_EDGE ( 'NONE', *, *, #208, .F. ) ;
#188 = ADVANCED_BREP_SHAPE_REPRESENTATION ( 'Micro_EMSM-060-4', ( #192, #37 ), #153 ) ;
#189 = ORIENTED_EDGE ( 'NONE', *, *, #227, .F. ) ;
#190 = DIRECTION ( 'NONE',  ( -1.224646799147353207E-16, -0.000000000000000000, -1.000000000000000000 ) ) ;
#191 = LENGTH_MEASURE_WITH_UNIT ( LENGTH_MEASURE( 0.02539999999999999897 ), #11 );
#192 = MANIFOLD_SOLID_BREP ( 'Cut-Revolve1', #92 ) ;
#193 = CIRCLE ( 'NONE', #38, 0.1181100000000000066 ) ;
#194 = STYLED_ITEM ( 'NONE', ( #224 ), #188 ) ;
#195 = CARTESIAN_POINT ( 'NONE',  ( 0.000000000000000000, 0.000000000000000000, 2.244094000000000033 ) ) ;
#196 = FACE_OUTER_BOUND ( 'NONE', #274, .T. ) ;
#197 = CARTESIAN_POINT ( 'NONE',  ( 0.000000000000000000, 0.000000000000000000, 0.000000000000000000 ) ) ;
#198 = DIRECTION ( 'NONE',  ( -0.1736481776669312194, 2.126576849575783625E-17, 0.9848077530122080203 ) ) ;
#199 = DIRECTION ( 'NONE',  ( -1.224646799147353207E-16, -0.000000000000000000, -1.000000000000000000 ) ) ;
#200 = DIRECTION ( 'NONE',  ( -1.224646799147353207E-16, -0.000000000000000000, -1.000000000000000000 ) ) ;
#201 = CARTESIAN_POINT ( 'NONE',  ( -0.1181100000000000066, 0.000000000000000000, 2.244094000000000033 ) ) ;
#202 = CYLINDRICAL_SURFACE ( 'NONE', #57, 0.1179918899999999882 ) ;
#203 =( NAMED_UNIT ( * ) PLANE_ANGLE_UNIT ( ) SI_UNIT ( $, .RADIAN. ) );
#204 = VECTOR ( 'NONE', #49, 39.37007874015748143 ) ;
#205 = ADVANCED_FACE ( 'NONE', ( #196 ), #114, .T. ) ;
#206 = ORIENTED_EDGE ( 'NONE', *, *, #17, .F. ) ;
#207 = ORIENTED_EDGE ( 'NONE', *, *, #17, .T. ) ;
#208 = EDGE_CURVE ( 'NONE', #225, #3, #128, .T. ) ;
#209 = VERTEX_POINT ( 'NONE', #115 ) ;
#210 = DIRECTION ( 'NONE',  ( -1.000000000000000000, 0.000000000000000000, 0.000000000000000000 ) ) ;
#211 = DIRECTION ( 'NONE',  ( 1.000000000000000000, 0.000000000000000000, 0.000000000000000000 ) ) ;
#212 = CARTESIAN_POINT ( 'NONE',  ( 1.769594913022618037E-33, 0.000000000000000000, 1.444983904138465938E-17 ) ) ;
#213 = CARTESIAN_POINT ( 'NONE',  ( -0.1179918899999999882, 0.000000000000000000, 1.444983904138465938E-17 ) ) ;
#214 = ORIENTED_EDGE ( 'NONE', *, *, #98, .T. ) ;
#215 = DIRECTION ( 'NONE',  ( 0.000000000000000000, 0.000000000000000000, 1.000000000000000000 ) ) ;
#216 = CARTESIAN_POINT ( 'NONE',  ( 0.000000000000000000, 0.000000000000000000, 2.229093999999999465 ) ) ;
#217 =( NAMED_UNIT ( * ) PLANE_ANGLE_UNIT ( ) SI_UNIT ( $, .RADIAN. ) );
#218 = CARTESIAN_POINT ( 'NONE',  ( 8.678594253305624695E-17, 0.000000000000000000, 0.7086609999999999854 ) ) ;
#219 = LINE ( 'NONE', #8, #82 ) ;
#220 = SURFACE_SIDE_STYLE ('',( #76 ) ) ;
#221 = ADVANCED_FACE ( 'NONE', ( #87 ), #202, .T. ) ;
#222 = DIRECTION ( 'NONE',  ( -1.000000000000000000, 0.000000000000000000, 1.224646799147353454E-16 ) ) ;
#223 = PRESENTATION_LAYER_ASSIGNMENT (  '', '', ( #287 ) ) ;
#224 = PRESENTATION_STYLE_ASSIGNMENT (( #265 ) ) ;
#225 = VERTEX_POINT ( 'NONE', #102 ) ;
#226 = ORIENTED_EDGE ( 'NONE', *, *, #21, .T. ) ;
#227 = EDGE_CURVE ( 'NONE', #3, #225, #9, .T. ) ;
#228 = VERTEX_POINT ( 'NONE', #284 ) ;
#229 = AXIS2_PLACEMENT_3D ( 'NONE', #159, #27, #211 ) ;
#230 = ORIENTED_EDGE ( 'NONE', *, *, #269, .F. ) ;
#231 = DIRECTION ( 'NONE',  ( -1.224646799147353207E-16, -0.000000000000000000, -1.000000000000000000 ) ) ;
#232 = CARTESIAN_POINT ( 'NONE',  ( 0.1179918900000000853, 0.000000000000000000, 0.7086609999999999854 ) ) ;
#233 = ORIENTED_EDGE ( 'NONE', *, *, #21, .F. ) ;
#234 = ADVANCED_FACE ( 'NONE', ( #241 ), #79, .F. ) ;
#235 = DIRECTION ( 'NONE',  ( 1.000000000000000000, 0.000000000000000000, 0.000000000000000000 ) ) ;
#236 = CIRCLE ( 'NONE', #116, 0.1181100000000000066 ) ;
#237 = CYLINDRICAL_SURFACE ( 'NONE', #299, 0.1179918899999999882 ) ;
#238 = PRODUCT_DEFINITION_SHAPE ( 'NONE', 'NONE',  #78 ) ;
#239 = CARTESIAN_POINT ( 'NONE',  ( 0.000000000000000000, 0.000000000000000000, 2.244094000000000033 ) ) ;
#240 = DIRECTION ( 'NONE',  ( 1.000000000000000000, 0.000000000000000000, -0.000000000000000000 ) ) ;
#241 = FACE_OUTER_BOUND ( 'NONE', #125, .T. ) ;
#242 = LENGTH_MEASURE_WITH_UNIT ( LENGTH_MEASURE( 0.02539999999999999897 ), #154 );
#243 = CIRCLE ( 'NONE', #181, 0.1179918899999999882 ) ;
#244 = AXIS2_PLACEMENT_3D ( 'NONE', #195, #33, #80 ) ;
#245 = CARTESIAN_POINT ( 'NONE',  ( -0.1179918899999999049, 1.444983904138465938E-17, 0.7086609999999999854 ) ) ;
#246 = SHAPE_DEFINITION_REPRESENTATION ( #238, #188 ) ;
#247 = ADVANCED_FACE ( 'NONE', ( #280 ), #237, .T. ) ;
#248 = AXIS2_PLACEMENT_3D ( 'NONE', #239, #31, #51 ) ;
#249 = VECTOR ( 'NONE', #259, 39.37007874015748854 ) ;
#250 = ORIENTED_EDGE ( 'NONE', *, *, #186, .F. ) ;
#251 = ORIENTED_EDGE ( 'NONE', *, *, #40, .T. ) ;
#252 = ORIENTED_EDGE ( 'NONE', *, *, #68, .T. ) ;
#253 = ORIENTED_EDGE ( 'NONE', *, *, #257, .F. ) ;
#254 = AXIS2_PLACEMENT_3D ( 'NONE', #177, #264, #282 ) ;
#255 = DIRECTION ( 'NONE',  ( 1.224646799147353207E-16, 0.000000000000000000, 1.000000000000000000 ) ) ;
#256 = LINE ( 'NONE', #232, #204 ) ;
#257 = EDGE_CURVE ( 'NONE', #290, #2, #161, .T. ) ;
#258 = CARTESIAN_POINT ( 'NONE',  ( 0.1031100000000002570, 1.262733314600838667E-17, 2.244094000000000033 ) ) ;
#259 = DIRECTION ( 'NONE',  ( -0.7071067811865358044, 0.000000000000000000, -0.7071067811865590080 ) ) ;
#260 = DIRECTION ( 'NONE',  ( -1.224646799147353207E-16, -0.000000000000000000, -1.000000000000000000 ) ) ;
#261 = VECTOR ( 'NONE', #198, 39.37007874015747433 ) ;
#262 = FACE_OUTER_BOUND ( 'NONE', #143, .T. ) ;
#263 =( NAMED_UNIT ( * ) SI_UNIT ( $, .STERADIAN. ) SOLID_ANGLE_UNIT ( ) );
#264 = DIRECTION ( 'NONE',  ( 0.000000000000000000, 0.000000000000000000, 1.000000000000000000 ) ) ;
#265 = SURFACE_STYLE_USAGE ( .BOTH. , #291 ) ;
#266 = CONICAL_SURFACE ( 'NONE', #14, 0.1031100000000002570, 0.7853981633974318477 ) ;
#267 = PRODUCT_RELATED_PRODUCT_CATEGORY ( 'part', '', ( #150 ) ) ;
#268 = FILL_AREA_STYLE_COLOUR ( '', #94 ) ;
#269 = EDGE_CURVE ( 'NONE', #3, #47, #256, .T. ) ;
#270 = DIRECTION ( 'NONE',  ( -1.224646799147353207E-16, -0.000000000000000000, -1.000000000000000000 ) ) ;
#271 = LINE ( 'NONE', #213, #36 ) ;
#272 = ORIENTED_EDGE ( 'NONE', *, *, #34, .F. ) ;
#273 = COLOUR_RGB ( '',0.7921568627450980005, 0.8196078431372548767, 0.9333333333333333481 ) ;
#274 = EDGE_LOOP ( 'NONE', ( #99, #96 ) ) ;
#275 = DIRECTION ( 'NONE',  ( -1.000000000000000000, 0.000000000000000000, 1.224646799147353454E-16 ) ) ;
#276 = CONICAL_SURFACE ( 'NONE', #88, 0.1179918899999999882, 0.1745329251994339192 ) ;
#277 = EDGE_LOOP ( 'NONE', ( #250, #43, #67, #100 ) ) ;
#278 = CARTESIAN_POINT ( 'NONE',  ( 0.000000000000000000, 0.000000000000000000, 2.229093999999999465 ) ) ;
#279 = ADVANCED_FACE ( 'NONE', ( #262 ), #97, .T. ) ;
#280 = FACE_OUTER_BOUND ( 'NONE', #160, .T. ) ;
#281 =( CONVERSION_BASED_UNIT ( 'INCH', #85 ) LENGTH_UNIT ( ) NAMED_UNIT ( #126 ) );
#282 = DIRECTION ( 'NONE',  ( 1.000000000000000000, 0.000000000000000000, -0.000000000000000000 ) ) ;
#283 = APPLICATION_CONTEXT ( 'automotive_design' ) ;
#284 = CARTESIAN_POINT ( 'NONE',  ( -0.1181100000000000066, 0.000000000000000000, 2.229093999999999465 ) ) ;
#285 = DIRECTION ( 'NONE',  ( 0.000000000000000000, 0.000000000000000000, -1.000000000000000000 ) ) ;
#286 = CARTESIAN_POINT ( 'NONE',  ( 0.1181100000000000899, 1.446430334472940009E-17, 0.7093308350957151509 ) ) ;
#287 = STYLED_ITEM ( 'NONE', ( #15 ), #192 ) ;
#288 = DIRECTION ( 'NONE',  ( -1.000000000000000000, 0.000000000000000000, 1.224646799147353454E-16 ) ) ;
#289 =( NAMED_UNIT ( * ) SI_UNIT ( $, .STERADIAN. ) SOLID_ANGLE_UNIT ( ) );
#290 = VERTEX_POINT ( 'NONE', #29 ) ;
#291 = SURFACE_SIDE_STYLE ('',( #119 ) ) ;
#292 = DIRECTION ( 'NONE',  ( -1.224646799147353207E-16, -0.000000000000000000, -1.000000000000000000 ) ) ;
#293 = APPLICATION_PROTOCOL_DEFINITION ( 'draft international standard', 'automotive_design', 1998, #283 ) ;
#294 = CIRCLE ( 'NONE', #229, 0.1181100000000000066 ) ;
#295 = EDGE_CURVE ( 'NONE', #25, #228, #84, .T. ) ;
#296 = DIRECTION ( 'NONE',  ( 0.000000000000000000, 0.000000000000000000, 1.000000000000000000 ) ) ;
#297 = EDGE_CURVE ( 'NONE', #25, #209, #39, .T. ) ;
#298 = AXIS2_PLACEMENT_3D ( 'NONE', #212, #134, #7 ) ;
#299 = AXIS2_PLACEMENT_3D ( 'NONE', #197, #200, #288 ) ;
ENDSEC;
END-ISO-10303-21;
