ISO-10303-21;
HEADER;
FILE_DESCRIPTION (( 'STEP AP214' ),
    '1' );
FILE_NAME ('24017.STEP',
    '2023-06-22T16:51:54',
    ( '' ),
    ( '' ),
    'SwSTEP 2.0',
    'SolidWorks 2023',
    '' );
FILE_SCHEMA (( 'AUTOMOTIVE_DESIGN' ));
ENDSEC;

DATA;
#1 = CARTESIAN_POINT ( 'NONE',  ( 0.1250000000000000278, 2.000000000000000000, 0.000000000000000000 ) ) ;
#2 =( LENGTH_UNIT ( ) NAMED_UNIT ( * ) SI_UNIT ( $, .METRE. ) );
#3 = DIRECTION ( 'NONE',  ( 0.000000000000000000, 0.000000000000000000, -1.000000000000000000 ) ) ;
#4 = DIRECTION ( 'NONE',  ( -0.000000000000000000, -1.000000000000000000, -0.000000000000000000 ) ) ;
#5 = SHAPE_DEFINITION_REPRESENTATION ( #128, #234 ) ;
#6 = DIRECTION ( 'NONE',  ( 0.000000000000000000, 0.000000000000000000, -1.000000000000000000 ) ) ;
#7 = CLOSED_SHELL ( 'NONE', ( #247, #165, #187, #139 ) ) ;
#8 = STYLED_ITEM ( 'NONE', ( #143 ), #175 ) ;
#9 =( CONVERSION_BASED_UNIT ( 'INCH', #202 ) LENGTH_UNIT ( ) NAMED_UNIT ( #107 ) );
#10 = CARTESIAN_POINT ( 'NONE',  ( 1.530808498934191817E-17, 0.000000000000000000, 0.1250000000000000278 ) ) ;
#11 = FILL_AREA_STYLE ('',( #38 ) ) ;
#12 = DIRECTION ( 'NONE',  ( 0.000000000000000000, 0.000000000000000000, -1.000000000000000000 ) ) ;
#13 = MECHANICAL_DESIGN_GEOMETRIC_PRESENTATION_REPRESENTATION (  '', ( #227 ), #154 ) ;
#14 = DIRECTION ( 'NONE',  ( -0.000000000000000000, -1.000000000000000000, -0.000000000000000000 ) ) ;
#15 = DIRECTION ( 'NONE',  ( -1.000000000000000000, 0.000000000000000000, 0.000000000000000000 ) ) ;
#16 = SURFACE_SIDE_STYLE ('',( #57 ) ) ;
#17 =( CONVERSION_BASED_UNIT ( 'INCH', #233 ) LENGTH_UNIT ( ) NAMED_UNIT ( #53 ) );
#18 = DIRECTION ( 'NONE',  ( 3.014515197901177580E-16, 1.000000000000000000, -0.000000000000000000 ) ) ;
#19 = EDGE_CURVE ( 'NONE', #99, #211, #257, .T. ) ;
#20 = CIRCLE ( 'NONE', #272, 0.1250000000000000278 ) ;
#21 = AXIS2_PLACEMENT_3D ( 'NONE', #67, #282, #15 ) ;
#22 = LENGTH_MEASURE_WITH_UNIT ( LENGTH_MEASURE( 0.02539999999999999897 ), #206 );
#23 = ORIENTED_EDGE ( 'NONE', *, *, #114, .T. ) ;
#24 = EDGE_CURVE ( 'NONE', #263, #186, #258, .T. ) ;
#25 = ORIENTED_EDGE ( 'NONE', *, *, #114, .F. ) ;
#26 = PRODUCT_CONTEXT ( 'NONE', #266, 'mechanical' ) ;
#27 = CIRCLE ( 'NONE', #82, 0.1250000000000000278 ) ;
#28 = EDGE_CURVE ( 'NONE', #71, #163, #95, .T. ) ;
#29 = CARTESIAN_POINT ( 'NONE',  ( 0.000000000000000000, 0.3749999999999999445, 0.000000000000000000 ) ) ;
#30 = PRESENTATION_STYLE_ASSIGNMENT (( #84 ) ) ;
#31 = DIRECTION ( 'NONE',  ( -0.000000000000000000, -1.000000000000000000, -0.000000000000000000 ) ) ;
#32 =( NAMED_UNIT ( * ) SI_UNIT ( $, .STERADIAN. ) SOLID_ANGLE_UNIT ( ) );
#33 = CARTESIAN_POINT ( 'NONE',  ( 1.530808498934191817E-17, 0.3749999999999999445, 0.1250000000000000278 ) ) ;
#34 = DIRECTION ( 'NONE',  ( -0.000000000000000000, -1.000000000000000000, -0.000000000000000000 ) ) ;
#35 = MANIFOLD_SOLID_BREP ( 'Revolve - Cutting Edge', #81 ) ;
#36 = SURFACE_STYLE_FILL_AREA ( #198 ) ;
#37 = AXIS2_PLACEMENT_3D ( 'NONE', #271, #248, #12 ) ;
#38 = FILL_AREA_STYLE_COLOUR ( '', #92 ) ;
#39 = COLOUR_RGB ( '',1.000000000000000000, 0.000000000000000000, 0.000000000000000000 ) ;
#40 = EDGE_CURVE ( 'NONE', #241, #43, #296, .T. ) ;
#41 = DIRECTION ( 'NONE',  ( -0.000000000000000000, -1.000000000000000000, -0.000000000000000000 ) ) ;
#42 = SURFACE_STYLE_USAGE ( .BOTH. , #184 ) ;
#43 = VERTEX_POINT ( 'NONE', #200 ) ;
#44 = FILL_AREA_STYLE ('',( #277 ) ) ;
#45 = ORIENTED_EDGE ( 'NONE', *, *, #28, .T. ) ;
#46 = FILL_AREA_STYLE_COLOUR ( '', #210 ) ;
#47 = FACE_OUTER_BOUND ( 'NONE', #281, .T. ) ;
#48 = SURFACE_SIDE_STYLE ('',( #50 ) ) ;
#49 = PRODUCT_DEFINITION ( 'UNKNOWN', '', #238, #223 ) ;
#50 = SURFACE_STYLE_FILL_AREA ( #162 ) ;
#51 = MECHANICAL_DESIGN_GEOMETRIC_PRESENTATION_REPRESENTATION (  '', ( #226 ), #103 ) ;
#52 = COLOUR_RGB ( '',1.000000000000000000, 0.000000000000000000, 0.000000000000000000 ) ;
#53 = DIMENSIONAL_EXPONENTS ( 1.000000000000000000, 0.000000000000000000, 0.000000000000000000, 0.000000000000000000, 0.000000000000000000, 0.000000000000000000, 0.000000000000000000 ) ;
#54 =( NAMED_UNIT ( * ) SI_UNIT ( $, .STERADIAN. ) SOLID_ANGLE_UNIT ( ) );
#55 = PLANE ( 'NONE',  #104 ) ;
#56 = CIRCLE ( 'NONE', #232, 0.1250000000000000278 ) ;
#57 = SURFACE_STYLE_FILL_AREA ( #11 ) ;
#58 = UNCERTAINTY_MEASURE_WITH_UNIT (LENGTH_MEASURE( 1.000000000000000082E-05 ), #245, 'distance_accuracy_value', 'NONE');
#59 = CARTESIAN_POINT ( 'NONE',  ( 0.000000000000000000, 0.3749999999999999445, -0.1250000000000000278 ) ) ;
#60 = STYLED_ITEM ( 'NONE', ( #217 ), #137 ) ;
#61 = CIRCLE ( 'NONE', #100, 0.1249999999999995420 ) ;
#62 = DIRECTION ( 'NONE',  ( 0.000000000000000000, 0.000000000000000000, -1.000000000000000000 ) ) ;
#63 = PRODUCT ( '24017', '24017', '', ( #26 ) ) ;
#64 = DIRECTION ( 'NONE',  ( -1.000000000000000000, 3.014515197901177580E-16, 0.000000000000000000 ) ) ;
#65 =( GEOMETRIC_REPRESENTATION_CONTEXT ( 3 ) GLOBAL_UNCERTAINTY_ASSIGNED_CONTEXT ( ( #102 ) ) GLOBAL_UNIT_ASSIGNED_CONTEXT ( ( #9, #254, #230 ) ) REPRESENTATION_CONTEXT ( 'NONE', 'WORKASPACE' ) );
#66 = PRESENTATION_LAYER_ASSIGNMENT (  '', '', ( #197 ) ) ;
#67 = CARTESIAN_POINT ( 'NONE',  ( 4.898587196589413815E-16, 2.000000000000000000, 0.000000000000000000 ) ) ;
#68 = ORIENTED_EDGE ( 'NONE', *, *, #295, .F. ) ;
#69 = DIRECTION ( 'NONE',  ( -0.000000000000000000, -1.000000000000000000, -0.000000000000000000 ) ) ;
#70 = DIRECTION ( 'NONE',  ( 3.014515197901177580E-16, 1.000000000000000000, -0.000000000000000000 ) ) ;
#71 = VERTEX_POINT ( 'NONE', #59 ) ;
#72 = DIMENSIONAL_EXPONENTS ( 1.000000000000000000, 0.000000000000000000, 0.000000000000000000, 0.000000000000000000, 0.000000000000000000, 0.000000000000000000, 0.000000000000000000 ) ;
#73 = LENGTH_MEASURE_WITH_UNIT ( LENGTH_MEASURE( 0.02539999999999999897 ), #2 );
#74 = ORIENTED_EDGE ( 'NONE', *, *, #28, .F. ) ;
#75 = LENGTH_MEASURE_WITH_UNIT ( LENGTH_MEASURE( 0.02539999999999999897 ), #244 );
#76 =( GEOMETRIC_REPRESENTATION_CONTEXT ( 3 ) GLOBAL_UNCERTAINTY_ASSIGNED_CONTEXT ( ( #149 ) ) GLOBAL_UNIT_ASSIGNED_CONTEXT ( ( #299, #237, #176 ) ) REPRESENTATION_CONTEXT ( 'NONE', 'WORKASPACE' ) );
#77 = CARTESIAN_POINT ( 'NONE',  ( 0.000000000000000000, 0.000000000000000000, -0.1250000000000000278 ) ) ;
#78 = APPLICATION_PROTOCOL_DEFINITION ( 'draft international standard', 'automotive_design', 1998, #266 ) ;
#79 = CARTESIAN_POINT ( 'NONE',  ( 0.000000000000000000, 0.000000000000000000, 0.000000000000000000 ) ) ;
#80 = ADVANCED_FACE ( 'NONE', ( #252 ), #229, .T. ) ;
#81 = CLOSED_SHELL ( 'NONE', ( #273, #175, #225, #80 ) ) ;
#82 = AXIS2_PLACEMENT_3D ( 'NONE', #152, #4, #6 ) ;
#83 = EDGE_CURVE ( 'NONE', #43, #163, #302, .T. ) ;
#84 = SURFACE_STYLE_USAGE ( .BOTH. , #136 ) ;
#85 =( NAMED_UNIT ( * ) SI_UNIT ( $, .STERADIAN. ) SOLID_ANGLE_UNIT ( ) );
#86 = CARTESIAN_POINT ( 'NONE',  ( -0.1249999999999990424, 2.000000000000000000, 0.000000000000000000 ) ) ;
#87 = PRESENTATION_STYLE_ASSIGNMENT (( #259 ) ) ;
#88 = FILL_AREA_STYLE_COLOUR ( '', #39 ) ;
#89 = ORIENTED_EDGE ( 'NONE', *, *, #280, .T. ) ;
#90 = ORIENTED_EDGE ( 'NONE', *, *, #40, .F. ) ;
#91 = AXIS2_PLACEMENT_3D ( 'NONE', #168, #126, #219 ) ;
#92 = COLOUR_RGB ( '',1.000000000000000000, 0.000000000000000000, 0.000000000000000000 ) ;
#93 = DIRECTION ( 'NONE',  ( 0.000000000000000000, 1.000000000000000000, 0.000000000000000000 ) ) ;
#94 = EDGE_CURVE ( 'NONE', #211, #186, #251, .T. ) ;
#95 = LINE ( 'NONE', #185, #170 ) ;
#96 = UNCERTAINTY_MEASURE_WITH_UNIT (LENGTH_MEASURE( 1.000000000000000082E-05 ), #124, 'distance_accuracy_value', 'NONE');
#97 = FILL_AREA_STYLE_COLOUR ( '', #140 ) ;
#98 = APPLICATION_CONTEXT ( 'automotive_design' ) ;
#99 = VERTEX_POINT ( 'NONE', #113 ) ;
#100 = AXIS2_PLACEMENT_3D ( 'NONE', #142, #70, #119 ) ;
#101 = SURFACE_STYLE_FILL_AREA ( #44 ) ;
#102 = UNCERTAINTY_MEASURE_WITH_UNIT (LENGTH_MEASURE( 1.000000000000000082E-05 ), #9, 'distance_accuracy_value', 'NONE');
#103 =( GEOMETRIC_REPRESENTATION_CONTEXT ( 3 ) GLOBAL_UNCERTAINTY_ASSIGNED_CONTEXT ( ( #109 ) ) GLOBAL_UNIT_ASSIGNED_CONTEXT ( ( #135, #250, #85 ) ) REPRESENTATION_CONTEXT ( 'NONE', 'WORKASPACE' ) );
#104 = AXIS2_PLACEMENT_3D ( 'NONE', #172, #110, #64 ) ;
#105 = DIRECTION ( 'NONE',  ( 3.014515197901177580E-16, 1.000000000000000000, -0.000000000000000000 ) ) ;
#106 = DIRECTION ( 'NONE',  ( 0.000000000000000000, 0.000000000000000000, -1.000000000000000000 ) ) ;
#107 = DIMENSIONAL_EXPONENTS ( 1.000000000000000000, 0.000000000000000000, 0.000000000000000000, 0.000000000000000000, 0.000000000000000000, 0.000000000000000000, 0.000000000000000000 ) ;
#108 = SURFACE_STYLE_USAGE ( .BOTH. , #16 ) ;
#109 = UNCERTAINTY_MEASURE_WITH_UNIT (LENGTH_MEASURE( 1.000000000000000082E-05 ), #135, 'distance_accuracy_value', 'NONE');
#110 = DIRECTION ( 'NONE',  ( 3.014515197901177580E-16, 1.000000000000000000, -0.000000000000000000 ) ) ;
#111 = MECHANICAL_DESIGN_GEOMETRIC_PRESENTATION_REPRESENTATION (  '', ( #197 ), #76 ) ;
#112 = FACE_OUTER_BOUND ( 'NONE', #278, .T. ) ;
#113 = CARTESIAN_POINT ( 'NONE',  ( 0.1250000000000000278, 0.3749999999999998890, 1.530808498934190276E-17 ) ) ;
#114 = EDGE_CURVE ( 'NONE', #163, #43, #20, .T. ) ;
#115 = CYLINDRICAL_SURFACE ( 'NONE', #157, 0.1250000000000000278 ) ;
#116 = ORIENTED_EDGE ( 'NONE', *, *, #19, .T. ) ;
#117 = FACE_OUTER_BOUND ( 'NONE', #301, .T. ) ;
#118 = EDGE_LOOP ( 'NONE', ( #303, #300, #146, #178 ) ) ;
#119 = DIRECTION ( 'NONE',  ( -1.000000000000000000, 0.000000000000000000, 0.000000000000000000 ) ) ;
#120 = ORIENTED_EDGE ( 'NONE', *, *, #276, .T. ) ;
#121 = AXIS2_PLACEMENT_3D ( 'NONE', #29, #31, #3 ) ;
#122 = FACE_OUTER_BOUND ( 'NONE', #118, .T. ) ;
#123 = PRODUCT_RELATED_PRODUCT_CATEGORY ( 'part', '', ( #63 ) ) ;
#124 =( CONVERSION_BASED_UNIT ( 'INCH', #73 ) LENGTH_UNIT ( ) NAMED_UNIT ( #166 ) );
#125 = ORIENTED_EDGE ( 'NONE', *, *, #201, .T. ) ;
#126 = DIRECTION ( 'NONE',  ( 3.014515197901177580E-16, 1.000000000000000000, -0.000000000000000000 ) ) ;
#127 = DIMENSIONAL_EXPONENTS ( 1.000000000000000000, 0.000000000000000000, 0.000000000000000000, 0.000000000000000000, 0.000000000000000000, 0.000000000000000000, 0.000000000000000000 ) ;
#128 = PRODUCT_DEFINITION_SHAPE ( 'NONE', 'NONE',  #49 ) ;
#129 = PRESENTATION_LAYER_ASSIGNMENT (  '', '', ( #226 ) ) ;
#130 = DIRECTION ( 'NONE',  ( -0.000000000000000000, -1.000000000000000000, -0.000000000000000000 ) ) ;
#131 = UNCERTAINTY_MEASURE_WITH_UNIT (LENGTH_MEASURE( 1.000000000000000082E-05 ), #261, 'distance_accuracy_value', 'NONE');
#132 =( LENGTH_UNIT ( ) NAMED_UNIT ( * ) SI_UNIT ( $, .METRE. ) );
#133 = DIRECTION ( 'NONE',  ( -1.000000000000000000, 0.000000000000000000, 0.000000000000000000 ) ) ;
#134 =( LENGTH_UNIT ( ) NAMED_UNIT ( * ) SI_UNIT ( $, .METRE. ) );
#135 =( CONVERSION_BASED_UNIT ( 'INCH', #138 ) LENGTH_UNIT ( ) NAMED_UNIT ( #284 ) );
#136 = SURFACE_SIDE_STYLE ('',( #36 ) ) ;
#137 = MANIFOLD_SOLID_BREP ( 'Revolve - Tool Body (Straight Shanked)', #7 ) ;
#138 = LENGTH_MEASURE_WITH_UNIT ( LENGTH_MEASURE( 0.02539999999999999897 ), #167 );
#139 = ADVANCED_FACE ( 'NONE', ( #47 ), #181, .F. ) ;
#140 = COLOUR_RGB ( '',0.7921568627450980005, 0.8196078431372548767, 0.9333333333333333481 ) ;
#141 = AXIS2_PLACEMENT_3D ( 'NONE', #265, #290, #190 ) ;
#142 = CARTESIAN_POINT ( 'NONE',  ( 4.898587196589413815E-16, 2.000000000000000000, 0.000000000000000000 ) ) ;
#143 = PRESENTATION_STYLE_ASSIGNMENT (( #42 ) ) ;
#144 = ORIENTED_EDGE ( 'NONE', *, *, #24, .F. ) ;
#145 = CARTESIAN_POINT ( 'NONE',  ( 0.000000000000000000, 0.3749999999999999445, 0.000000000000000000 ) ) ;
#146 = ORIENTED_EDGE ( 'NONE', *, *, #24, .T. ) ;
#147 = AXIS2_PLACEMENT_3D ( 'NONE', #145, #93, #208 ) ;
#148 = EDGE_LOOP ( 'NONE', ( #23, #306 ) ) ;
#149 = UNCERTAINTY_MEASURE_WITH_UNIT (LENGTH_MEASURE( 1.000000000000000082E-05 ), #299, 'distance_accuracy_value', 'NONE');
#150 = SURFACE_SIDE_STYLE ('',( #101 ) ) ;
#151 = VECTOR ( 'NONE', #14, 39.37007874015748143 ) ;
#152 = CARTESIAN_POINT ( 'NONE',  ( 0.000000000000000000, 0.3749999999999999445, 0.000000000000000000 ) ) ;
#153 = EDGE_CURVE ( 'NONE', #71, #241, #27, .T. ) ;
#154 =( GEOMETRIC_REPRESENTATION_CONTEXT ( 3 ) GLOBAL_UNCERTAINTY_ASSIGNED_CONTEXT ( ( #249 ) ) GLOBAL_UNIT_ASSIGNED_CONTEXT ( ( #17, #180, #32 ) ) REPRESENTATION_CONTEXT ( 'NONE', 'WORKASPACE' ) );
#155 = CARTESIAN_POINT ( 'NONE',  ( -0.1250000000000000278, 0.3750000000000000555, 0.000000000000000000 ) ) ;
#156 = AXIS2_PLACEMENT_3D ( 'NONE', #195, #291, #133 ) ;
#157 = AXIS2_PLACEMENT_3D ( 'NONE', #79, #34, #173 ) ;
#158 =( GEOMETRIC_REPRESENTATION_CONTEXT ( 3 ) GLOBAL_UNCERTAINTY_ASSIGNED_CONTEXT ( ( #131 ) ) GLOBAL_UNIT_ASSIGNED_CONTEXT ( ( #261, #307, #255 ) ) REPRESENTATION_CONTEXT ( 'NONE', 'WORKASPACE' ) );
#159 = SURFACE_SIDE_STYLE ('',( #298 ) ) ;
#160 = DIRECTION ( 'NONE',  ( 3.014515197901177580E-16, 1.000000000000000000, -0.000000000000000000 ) ) ;
#161 = ORIENTED_EDGE ( 'NONE', *, *, #276, .F. ) ;
#162 = FILL_AREA_STYLE ('',( #179 ) ) ;
#163 = VERTEX_POINT ( 'NONE', #77 ) ;
#164 = PRESENTATION_STYLE_ASSIGNMENT (( #242 ) ) ;
#165 = ADVANCED_FACE ( 'NONE', ( #270 ), #55, .F. ) ;
#166 = DIMENSIONAL_EXPONENTS ( 1.000000000000000000, 0.000000000000000000, 0.000000000000000000, 0.000000000000000000, 0.000000000000000000, 0.000000000000000000, 0.000000000000000000 ) ;
#167 =( LENGTH_UNIT ( ) NAMED_UNIT ( * ) SI_UNIT ( $, .METRE. ) );
#168 = CARTESIAN_POINT ( 'NONE',  ( 6.065921084684207584E-32, 0.3749999999999999445, 0.000000000000000000 ) ) ;
#169 = DIMENSIONAL_EXPONENTS ( 1.000000000000000000, 0.000000000000000000, 0.000000000000000000, 0.000000000000000000, 0.000000000000000000, 0.000000000000000000, 0.000000000000000000 ) ;
#170 = VECTOR ( 'NONE', #69, 39.37007874015748143 ) ;
#171 = PRESENTATION_LAYER_ASSIGNMENT (  '', '', ( #8 ) ) ;
#172 = CARTESIAN_POINT ( 'NONE',  ( 5.679563673985736224E-33, 0.3749999999999999445, 0.000000000000000000 ) ) ;
#173 = DIRECTION ( 'NONE',  ( 0.000000000000000000, 0.000000000000000000, -1.000000000000000000 ) ) ;
#174 = PRESENTATION_LAYER_ASSIGNMENT (  '', '', ( #60 ) ) ;
#175 = ADVANCED_FACE ( 'NONE', ( #117 ), #304, .T. ) ;
#176 =( NAMED_UNIT ( * ) SI_UNIT ( $, .STERADIAN. ) SOLID_ANGLE_UNIT ( ) );
#177 = SURFACE_STYLE_FILL_AREA ( #279 ) ;
#178 = ORIENTED_EDGE ( 'NONE', *, *, #94, .F. ) ;
#179 = FILL_AREA_STYLE_COLOUR ( '', #52 ) ;
#180 =( NAMED_UNIT ( * ) PLANE_ANGLE_UNIT ( ) SI_UNIT ( $, .RADIAN. ) );
#181 = PLANE ( 'NONE',  #275 ) ;
#182 = EDGE_LOOP ( 'NONE', ( #161, #68 ) ) ;
#183 = CYLINDRICAL_SURFACE ( 'NONE', #21, 0.1249999999999997918 ) ;
#184 = SURFACE_SIDE_STYLE ('',( #177 ) ) ;
#185 = CARTESIAN_POINT ( 'NONE',  ( 0.000000000000000000, 0.000000000000000000, -0.1250000000000000278 ) ) ;
#186 = VERTEX_POINT ( 'NONE', #86 ) ;
#187 = ADVANCED_FACE ( 'NONE', ( #122 ), #183, .T. ) ;
#188 = ORIENTED_EDGE ( 'NONE', *, *, #83, .F. ) ;
#189 = DIRECTION ( 'NONE',  ( -0.000000000000000000, -1.000000000000000000, -0.000000000000000000 ) ) ;
#190 = DIRECTION ( 'NONE',  ( 1.000000000000000000, 0.000000000000000000, 0.000000000000000000 ) ) ;
#191 = COLOUR_RGB ( '',0.7921568627450980005, 0.8196078431372548767, 0.9333333333333333481 ) ;
#192 =( GEOMETRIC_REPRESENTATION_CONTEXT ( 3 ) GLOBAL_UNCERTAINTY_ASSIGNED_CONTEXT ( ( #58 ) ) GLOBAL_UNIT_ASSIGNED_CONTEXT ( ( #245, #243, #54 ) ) REPRESENTATION_CONTEXT ( 'NONE', 'WORKASPACE' ) );
#193 = DIRECTION ( 'NONE',  ( 0.000000000000000000, 0.000000000000000000, -1.000000000000000000 ) ) ;
#194 = DIRECTION ( 'NONE',  ( -1.000000000000000000, 0.000000000000000000, 0.000000000000000000 ) ) ;
#195 = CARTESIAN_POINT ( 'NONE',  ( 4.898587196589413815E-16, 2.000000000000000000, 0.000000000000000000 ) ) ;
#196 = PRESENTATION_STYLE_ASSIGNMENT (( #108 ) ) ;
#197 = STYLED_ITEM ( 'NONE', ( #196 ), #273 ) ;
#198 = FILL_AREA_STYLE ('',( #97 ) ) ;
#199 = CARTESIAN_POINT ( 'NONE',  ( 0.000000000000000000, 0.000000000000000000, 0.000000000000000000 ) ) ;
#200 = CARTESIAN_POINT ( 'NONE',  ( 1.530808498934191817E-17, 0.000000000000000000, 0.1250000000000000278 ) ) ;
#201 = EDGE_CURVE ( 'NONE', #186, #211, #61, .T. ) ;
#202 = LENGTH_MEASURE_WITH_UNIT ( LENGTH_MEASURE( 0.02539999999999999897 ), #132 );
#203 = PRESENTATION_LAYER_ASSIGNMENT (  '', '', ( #268 ) ) ;
#204 = FILL_AREA_STYLE ('',( #46 ) ) ;
#205 = LENGTH_MEASURE_WITH_UNIT ( LENGTH_MEASURE( 0.02539999999999999897 ), #134 );
#206 =( LENGTH_UNIT ( ) NAMED_UNIT ( * ) SI_UNIT ( $, .METRE. ) );
#207 = EDGE_LOOP ( 'NONE', ( #90, #89, #45, #188 ) ) ;
#208 = DIRECTION ( 'NONE',  ( 0.000000000000000000, -0.000000000000000000, 1.000000000000000000 ) ) ;
#209 = AXIS2_PLACEMENT_3D ( 'NONE', #246, #130, #106 ) ;
#210 = COLOUR_RGB ( '',1.000000000000000000, 0.000000000000000000, 0.000000000000000000 ) ;
#211 = VERTEX_POINT ( 'NONE', #212 ) ;
#212 = CARTESIAN_POINT ( 'NONE',  ( 0.1250000000000000278, 2.000000000000000000, 1.530808498934190276E-17 ) ) ;
#213 = ORIENTED_EDGE ( 'NONE', *, *, #201, .F. ) ;
#214 = ORIENTED_EDGE ( 'NONE', *, *, #280, .F. ) ;
#215 = CARTESIAN_POINT ( 'NONE',  ( 6.065921084684207584E-32, 0.3749999999999999445, 0.000000000000000000 ) ) ;
#216 = CIRCLE ( 'NONE', #121, 0.1250000000000000278 ) ;
#217 = PRESENTATION_STYLE_ASSIGNMENT (( #285 ) ) ;
#218 = CARTESIAN_POINT ( 'NONE',  ( 0.000000000000000000, 0.000000000000000000, 0.000000000000000000 ) ) ;
#219 = DIRECTION ( 'NONE',  ( -1.000000000000000000, 5.463695987328525451E-16, 0.000000000000000000 ) ) ;
#220 = DIRECTION ( 'NONE',  ( 1.000000000000000000, -3.014515197901177580E-16, 0.000000000000000000 ) ) ;
#221 = MECHANICAL_DESIGN_GEOMETRIC_PRESENTATION_REPRESENTATION (  '', ( #60 ), #289 ) ;
#222 = CYLINDRICAL_SURFACE ( 'NONE', #253, 0.1250000000000000278 ) ;
#223 = PRODUCT_DEFINITION_CONTEXT ( 'detailed design', #98, 'design' ) ;
#224 = CYLINDRICAL_SURFACE ( 'NONE', #293, 0.1249999999999997918 ) ;
#225 = ADVANCED_FACE ( 'NONE', ( #297 ), #115, .T. ) ;
#226 = STYLED_ITEM ( 'NONE', ( #164 ), #80 ) ;
#227 = STYLED_ITEM ( 'NONE', ( #87 ), #225 ) ;
#228 = CARTESIAN_POINT ( 'NONE',  ( 4.898587196589413815E-16, 2.000000000000000000, 0.000000000000000000 ) ) ;
#229 = PLANE ( 'NONE',  #37 ) ;
#230 =( NAMED_UNIT ( * ) SI_UNIT ( $, .STERADIAN. ) SOLID_ANGLE_UNIT ( ) );
#231 = VECTOR ( 'NONE', #160, 39.37007874015748143 ) ;
#232 = AXIS2_PLACEMENT_3D ( 'NONE', #215, #309, #267 ) ;
#233 = LENGTH_MEASURE_WITH_UNIT ( LENGTH_MEASURE( 0.02539999999999999897 ), #260 );
#234 = ADVANCED_BREP_SHAPE_REPRESENTATION ( '24017', ( #35, #137, #141 ), #192 ) ;
#235 = CARTESIAN_POINT ( 'NONE',  ( 0.1250000000000002776, 2.000000000000000000, 1.530808498934189044E-17 ) ) ;
#236 = CARTESIAN_POINT ( 'NONE',  ( -0.1249999999999992922, 2.000000000000000000, 0.000000000000000000 ) ) ;
#237 =( NAMED_UNIT ( * ) PLANE_ANGLE_UNIT ( ) SI_UNIT ( $, .RADIAN. ) );
#238 = PRODUCT_DEFINITION_FORMATION_WITH_SPECIFIED_SOURCE ( 'ANY', '', #63, .NOT_KNOWN. ) ;
#239 =( NAMED_UNIT ( * ) PLANE_ANGLE_UNIT ( ) SI_UNIT ( $, .RADIAN. ) );
#240 = ORIENTED_EDGE ( 'NONE', *, *, #153, .T. ) ;
#241 = VERTEX_POINT ( 'NONE', #33 ) ;
#242 = SURFACE_STYLE_USAGE ( .BOTH. , #48 ) ;
#243 =( NAMED_UNIT ( * ) PLANE_ANGLE_UNIT ( ) SI_UNIT ( $, .RADIAN. ) );
#244 =( LENGTH_UNIT ( ) NAMED_UNIT ( * ) SI_UNIT ( $, .METRE. ) );
#245 =( CONVERSION_BASED_UNIT ( 'INCH', #75 ) LENGTH_UNIT ( ) NAMED_UNIT ( #127 ) );
#246 = CARTESIAN_POINT ( 'NONE',  ( 0.000000000000000000, 0.000000000000000000, 0.000000000000000000 ) ) ;
#247 = ADVANCED_FACE ( 'NONE', ( #112 ), #224, .T. ) ;
#248 = DIRECTION ( 'NONE',  ( 0.000000000000000000, -1.000000000000000000, -0.000000000000000000 ) ) ;
#249 = UNCERTAINTY_MEASURE_WITH_UNIT (LENGTH_MEASURE( 1.000000000000000082E-05 ), #17, 'distance_accuracy_value', 'NONE');
#250 =( NAMED_UNIT ( * ) PLANE_ANGLE_UNIT ( ) SI_UNIT ( $, .RADIAN. ) );
#251 = CIRCLE ( 'NONE', #156, 0.1249999999999995420 ) ;
#252 = FACE_OUTER_BOUND ( 'NONE', #148, .T. ) ;
#253 = AXIS2_PLACEMENT_3D ( 'NONE', #218, #189, #193 ) ;
#254 =( NAMED_UNIT ( * ) PLANE_ANGLE_UNIT ( ) SI_UNIT ( $, .RADIAN. ) );
#255 =( NAMED_UNIT ( * ) SI_UNIT ( $, .STERADIAN. ) SOLID_ANGLE_UNIT ( ) );
#256 = PRESENTATION_LAYER_ASSIGNMENT (  '', '', ( #227 ) ) ;
#257 = LINE ( 'NONE', #235, #231 ) ;
#258 = LINE ( 'NONE', #236, #274 ) ;
#259 = SURFACE_STYLE_USAGE ( .BOTH. , #159 ) ;
#260 =( LENGTH_UNIT ( ) NAMED_UNIT ( * ) SI_UNIT ( $, .METRE. ) );
#261 =( CONVERSION_BASED_UNIT ( 'INCH', #22 ) LENGTH_UNIT ( ) NAMED_UNIT ( #72 ) );
#262 = CIRCLE ( 'NONE', #91, 0.1250000000000000278 ) ;
#263 = VERTEX_POINT ( 'NONE', #155 ) ;
#264 = ORIENTED_EDGE ( 'NONE', *, *, #40, .T. ) ;
#265 = CARTESIAN_POINT ( 'NONE',  ( 0.000000000000000000, 0.000000000000000000, 0.000000000000000000 ) ) ;
#266 = APPLICATION_CONTEXT ( 'automotive_design' ) ;
#267 = DIRECTION ( 'NONE',  ( -1.000000000000000000, 5.463695987328525451E-16, 0.000000000000000000 ) ) ;
#268 = STYLED_ITEM ( 'NONE', ( #30 ), #35 ) ;
#269 = MECHANICAL_DESIGN_GEOMETRIC_PRESENTATION_REPRESENTATION (  '', ( #8 ), #158 ) ;
#270 = FACE_OUTER_BOUND ( 'NONE', #182, .T. ) ;
#271 = CARTESIAN_POINT ( 'NONE',  ( 0.000000000000000000, 0.000000000000000000, 0.000000000000000000 ) ) ;
#272 = AXIS2_PLACEMENT_3D ( 'NONE', #199, #41, #62 ) ;
#273 = ADVANCED_FACE ( 'NONE', ( #294 ), #222, .T. ) ;
#274 = VECTOR ( 'NONE', #18, 39.37007874015748143 ) ;
#275 = AXIS2_PLACEMENT_3D ( 'NONE', #1, #288, #220 ) ;
#276 = EDGE_CURVE ( 'NONE', #263, #99, #56, .T. ) ;
#277 = FILL_AREA_STYLE_COLOUR ( '', #191 ) ;
#278 = EDGE_LOOP ( 'NONE', ( #120, #116, #213, #144 ) ) ;
#279 = FILL_AREA_STYLE ('',( #88 ) ) ;
#280 = EDGE_CURVE ( 'NONE', #241, #71, #216, .T. ) ;
#281 = EDGE_LOOP ( 'NONE', ( #125, #283 ) ) ;
#282 = DIRECTION ( 'NONE',  ( 3.014515197901177580E-16, 1.000000000000000000, -0.000000000000000000 ) ) ;
#283 = ORIENTED_EDGE ( 'NONE', *, *, #94, .T. ) ;
#284 = DIMENSIONAL_EXPONENTS ( 1.000000000000000000, 0.000000000000000000, 0.000000000000000000, 0.000000000000000000, 0.000000000000000000, 0.000000000000000000, 0.000000000000000000 ) ;
#285 = SURFACE_STYLE_USAGE ( .BOTH. , #150 ) ;
#286 = ORIENTED_EDGE ( 'NONE', *, *, #153, .F. ) ;
#287 = APPLICATION_PROTOCOL_DEFINITION ( 'draft international standard', 'automotive_design', 1998, #98 ) ;
#288 = DIRECTION ( 'NONE',  ( -3.014515197901177580E-16, -1.000000000000000000, 0.000000000000000000 ) ) ;
#289 =( GEOMETRIC_REPRESENTATION_CONTEXT ( 3 ) GLOBAL_UNCERTAINTY_ASSIGNED_CONTEXT ( ( #96 ) ) GLOBAL_UNIT_ASSIGNED_CONTEXT ( ( #124, #239, #305 ) ) REPRESENTATION_CONTEXT ( 'NONE', 'WORKASPACE' ) );
#290 = DIRECTION ( 'NONE',  ( 0.000000000000000000, 0.000000000000000000, 1.000000000000000000 ) ) ;
#291 = DIRECTION ( 'NONE',  ( 3.014515197901177580E-16, 1.000000000000000000, -0.000000000000000000 ) ) ;
#292 = MECHANICAL_DESIGN_GEOMETRIC_PRESENTATION_REPRESENTATION (  '', ( #268 ), #65 ) ;
#293 = AXIS2_PLACEMENT_3D ( 'NONE', #228, #105, #194 ) ;
#294 = FACE_OUTER_BOUND ( 'NONE', #308, .T. ) ;
#295 = EDGE_CURVE ( 'NONE', #99, #263, #262, .T. ) ;
#296 = LINE ( 'NONE', #10, #151 ) ;
#297 = FACE_OUTER_BOUND ( 'NONE', #207, .T. ) ;
#298 = SURFACE_STYLE_FILL_AREA ( #204 ) ;
#299 =( CONVERSION_BASED_UNIT ( 'INCH', #205 ) LENGTH_UNIT ( ) NAMED_UNIT ( #169 ) );
#300 = ORIENTED_EDGE ( 'NONE', *, *, #295, .T. ) ;
#301 = EDGE_LOOP ( 'NONE', ( #286, #214 ) ) ;
#302 = CIRCLE ( 'NONE', #209, 0.1250000000000000278 ) ;
#303 = ORIENTED_EDGE ( 'NONE', *, *, #19, .F. ) ;
#304 = PLANE ( 'NONE',  #147 ) ;
#305 =( NAMED_UNIT ( * ) SI_UNIT ( $, .STERADIAN. ) SOLID_ANGLE_UNIT ( ) );
#306 = ORIENTED_EDGE ( 'NONE', *, *, #83, .T. ) ;
#307 =( NAMED_UNIT ( * ) PLANE_ANGLE_UNIT ( ) SI_UNIT ( $, .RADIAN. ) );
#308 = EDGE_LOOP ( 'NONE', ( #240, #264, #25, #74 ) ) ;
#309 = DIRECTION ( 'NONE',  ( 3.014515197901177580E-16, 1.000000000000000000, -0.000000000000000000 ) ) ;
ENDSEC;
END-ISO-10303-21;
